  0
SECTION
  2
HEADER
  9
$ACADVER
  1
AC1014
  9
$DWGCODEPAGE
  3
dos932
  9
$EXTMIN
 10
-167.3830606609
 20
-2.694294739009
  9
$EXTMAX
 10
297.4159083928
 20
1587.008532448
  9
$LIMMIN
 10
0
 20
0
  9
$LIMMAX
 10
8410
 20
5940
  9
$LTSCALE
 40
10
  9
$DIMSCALE
 40
10
  9
$DIMSTYLE
  2
M7DIMSTL
  9
$HANDSEED
  5
7FFFFFFF
  0
ENDSEC
  0
SECTION
  2
CLASSES
  0
CLASS
  1
CSOFTARXCLASS
  2
CSoftArxClass
  3
CSRasterApi
 90
     0
280
     0
281
     0
  0
CLASS
  1
IMAGEDEF
  2
AcDbRasterImageDef
  3
ISM
 90
     0
280
     0
281
     0
  0
CLASS
  1
RASTERVARIABLES
  2
AcDbRasterVariables
  3
ISM
 90
     0
280
     0
281
     0
  0
CLASS
  1
IMAGE
  2
AcDbRasterImage
  3
ISM
 90
   127
280
     0
281
     0
  0
CLASS
  1
IMAGEDEF_REACTOR
  2
AcDbRasterImageDefReactor
  3
ISM
 90
     1
280
     0
281
     0
  0
CLASS
  1
HATCH
  2
AcDbHatch
  3
M7
 90
     0
280
     0
281
     1
  0
ENDSEC
  0
SECTION
  2
TABLES
  0
TABLE
  2
VPORT
  5
FF
100
AcDbSymbolTable
 70
     5
  0
VPORT
  5
100
100
AcDbSymbolTableRecord
100
AcDbViewportTableRecord
  2
*ACTIVE
 70
     0
 10
0
 20
0
 11
1
 21
1
 12
4205
 22
2970
 13
0
 23
0
 14
0
 24
0
 15
0
 25
0
 16
0
 26
0
 36
1
 17
0
 27
0
 37
0
 40
2970
 41
1.415824915825
 42
50
 43
0
 44
0
 50
0
 51
0
 71
     0
 72
   100
 73
     1
 74
     3
 75
     0
 76
     0
 77
     0
 78
     0
  0
ENDTAB
  0
TABLE
  2
LTYPE
  5
101
100
AcDbSymbolTable
 70
     1
  0
LTYPE
  5
102
100
AcDbSymbolTableRecord
100
AcDbLinetypeTableRecord
  2
BYBLOCK
 70
     0
  3

 72
    65
 73
     0
 40
0
  0
LTYPE
  5
103
100
AcDbSymbolTableRecord
100
AcDbLinetypeTableRecord
  2
BYLAYER
 70
     0
  3

 72
    65
 73
     0
 40
0
  0
LTYPE
  5
104
100
AcDbSymbolTableRecord
100
AcDbLinetypeTableRecord
  2
CONTINUOUS
 70
     0
  3
Solid line
 72
    65
 73
     0
 40
0
  0
LTYPE
  5
105
100
AcDbSymbolTableRecord
100
AcDbLinetypeTableRecord
  2
DOT
 70
     0
  3
...............................
 72
    65
 73
     2
 40
2
 49
1
 74
     0
 49
-1
 74
     0
  0
LTYPE
  5
106
100
AcDbSymbolTableRecord
100
AcDbLinetypeTableRecord
  2
DASHED
 70
     0
  3
- - - - - - - - - - - - - - - -
 72
    65
 73
     2
 40
4
 49
2
 74
     0
 49
-2
 74
     0
  0
LTYPE
  5
107
100
AcDbSymbolTableRecord
100
AcDbLinetypeTableRecord
  2
DASHED2
 70
     0
  3
-- -- -- -- -- -- -- -- -- -- -
 72
    65
 73
     2
 40
8
 49
5
 74
     0
 49
-3
 74
     0
  0
LTYPE
  5
108
100
AcDbSymbolTableRecord
100
AcDbLinetypeTableRecord
  2
CENTER
 70
     0
  3
--------- - --------- - -------
 72
    65
 73
     4
 40
23
 49
20
 74
     0
 49
-1
 74
     0
 49
1
 74
     0
 49
-1
 74
     0
  0
LTYPE
  5
109
100
AcDbSymbolTableRecord
100
AcDbLinetypeTableRecord
  2
CENTERX2
 70
     0
  3
-------------- - --------------
 72
    65
 73
     4
 40
43
 49
40
 74
     0
 49
-1
 74
     0
 49
1
 74
     0
 49
-1
 74
     0
  0
LTYPE
  5
10A
100
AcDbSymbolTableRecord
100
AcDbLinetypeTableRecord
  2
CENTER2
 70
     0
  3
------ - ----- - ------ - -----
 72
    65
 73
     4
 40
13
 49
10
 74
     0
 49
-1
 74
     0
 49
1
 74
     0
 49
-1
 74
     0
  0
LTYPE
  5
10B
100
AcDbSymbolTableRecord
100
AcDbLinetypeTableRecord
  2
PHANTOM
 70
     0
  3
-------- - - ------- - - ------
 72
    65
 73
     6
 40
25
 49
20
 74
     0
 49
-1
 74
     0
 49
1
 74
     0
 49
-1
 74
     0
 49
1
 74
     0
 49
-1
 74
     0
  0
LTYPE
  5
10C
100
AcDbSymbolTableRecord
100
AcDbLinetypeTableRecord
  2
PHANTOMX2
 70
     0
  3
------------- - - -------------
 72
    65
 73
     6
 40
45
 49
40
 74
     0
 49
-1
 74
     0
 49
1
 74
     0
 49
-1
 74
     0
 49
1
 74
     0
 49
-1
 74
     0
  0
LTYPE
  5
10D
100
AcDbSymbolTableRecord
100
AcDbLinetypeTableRecord
  2
PHANTOM2
 70
     0
  3
---- - - ---- - - ---- - - ----
 72
    65
 73
     6
 40
15
 49
10
 74
     0
 49
-1
 74
     0
 49
1
 74
     0
 49
-1
 74
     0
 49
1
 74
     0
 49
-1
 74
     0
  0
LTYPE
  5
10E
100
AcDbSymbolTableRecord
100
AcDbLinetypeTableRecord
  2
ACAD_ISO06W100
 70
     0
  3
------------ - - - ------------
 72
    65
 73
     8
 40
47
 49
40
 74
     0
 49
-1
 74
     0
 49
1
 74
     0
 49
-1
 74
     0
 49
1
 74
     0
 49
-1
 74
     0
 49
1
 74
     0
 49
-1
 74
     0
  0
LTYPE
  5
10F
100
AcDbSymbolTableRecord
100
AcDbLinetypeTableRecord
  2
ACAD_ISO14W100
 70
     0
  3
---- - - - -------- - - - -----
 72
    65
 73
     8
 40
27
 49
20
 74
     0
 49
-1
 74
     0
 49
1
 74
     0
 49
-1
 74
     0
 49
1
 74
     0
 49
-1
 74
     0
 49
1
 74
     0
 49
-1
 74
     0
  0
LTYPE
  5
110
100
AcDbSymbolTableRecord
100
AcDbLinetypeTableRecord
  2
ACAD_ISO11W100
 70
     0
  3
------- ------ - ------- ------
 72
    65
 73
     6
 40
44
 49
20
 74
     0
 49
-1
 74
     0
 49
20
 74
     0
 49
-1
 74
     0
 49
1
 74
     0
 49
-1
 74
     0
  0
LTYPE
  5
111
100
AcDbSymbolTableRecord
100
AcDbLinetypeTableRecord
  2
ACAD_ISO13W100
 70
     0
  3
------ ------ - - ------ ------
 72
    65
 73
     8
 40
46
 49
20
 74
     0
 49
-1
 74
     0
 49
20
 74
     0
 49
-1
 74
     0
 49
1
 74
     0
 49
-1
 74
     0
 49
1
 74
     0
 49
-1
 74
     0
  0
LTYPE
  5
112
100
AcDbSymbolTableRecord
100
AcDbLinetypeTableRecord
  2
ACAD_ISO15W100
 70
     0
  3
------ ----- - - - ------ -----
 72
    65
 73
    10
 40
48
 49
20
 74
     0
 49
-1
 74
     0
 49
20
 74
     0
 49
-1
 74
     0
 49
1
 74
     0
 49
-1
 74
     0
 49
1
 74
     0
 49
-1
 74
     0
 49
1
 74
     0
 49
-1
 74
     0
  0
LTYPE
  5
113
100
AcDbSymbolTableRecord
100
AcDbLinetypeTableRecord
  2
HIDDEN
 70
     0
  3
. . . . . . . . . . . . . . . .
 72
    65
 73
     2
 40
1.5
 49
1
 74
     0
 49
-0.5
 74
     0
  0
ENDTAB
  0
TABLE
  2
LAYER
  5
114
100
AcDbSymbolTable
 70
     1
  0
LAYER
  5
115
100
AcDbSymbolTableRecord
100
AcDbLayerTableRecord
  2
0
 70
     0
 62
     7
  6
CONTINUOUS
  0
LAYER
  5
116
100
AcDbSymbolTableRecord
100
AcDbLayerTableRecord
  2
レイヤ1
 70
     0
 62
     7
  6
CONTINUOUS
  0
ENDTAB
  0
TABLE
  2
STYLE
  5
117
100
AcDbSymbolTable
 70
     1
  0
STYLE
  5
118
100
AcDbSymbolTableRecord
100
AcDbTextStyleTableRecord
  2
STANDARD
 70
     0
 40
0
 41
0
 50
0
 71
     0
 42
1
  3
txt
  4
bigfont
  0
STYLE
  5
119
100
AcDbSymbolTableRecord
100
AcDbTextStyleTableRecord
  2
VSTANDARD
 70
     4
 40
0
 41
0
 50
0
 71
     0
 42
1
  3
txt
  4
bigfont
  0
ENDTAB
  0
TABLE
  2
VIEW
  5
11A
100
AcDbSymbolTable
 70
     0
  0
ENDTAB
  0
TABLE
  2
UCS
  5
11B
100
AcDbSymbolTable
 70
     0
  0
ENDTAB
  0
TABLE
  2
APPID
  5
11C
100
AcDbSymbolTable
 70
     1
  0
APPID
  5
11D
100
AcDbSymbolTableRecord
100
AcDbRegAppTableRecord
  2
ACAD
 70
     0
  0
ENDTAB
  0
TABLE
  2
DIMSTYLE
  5
11E
100
AcDbSymbolTable
 70
     1
  0
DIMSTYLE
105
11F
100
AcDbSymbolTableRecord
100
AcDbDimStyleTableRecord
  2
M7DIMSTL
 70
     0
  3

  4

  5

  6

  7

 40
10
 41
2.5
 42
0.625
 43
3.75
 44
1.25
 45
0
 46
0
 47
0
 48
0
140
2.5
141
2.5
142
0
143
0.03937007874016
144
1
145
0
146
1
147
0.625
 71
     0
 72
     0
 73
     0
 74
     0
 75
     0
 76
     0
 77
     1
 78
     8
170
     0
171
     3
172
     1
173
     0
174
     0
175
     0
176
     0
177
     0
178
     0
270
     2
271
     2
272
     2
273
     2
274
     3
340
118
275
     0
280
     0
281
     0
282
     0
283
     0
284
     8
285
     0
286
     0
287
     3
288
     0
  0
ENDTAB
  0
TABLE
  2
BLOCK_RECORD
  5
120
100
AcDbSymbolTable
 70
     2
  0
BLOCK_RECORD
  5
121
100
AcDbSymbolTableRecord
100
AcDbBlockTableRecord
  2
*MODEL_SPACE
  0
BLOCK_RECORD
  5
122
100
AcDbSymbolTableRecord
100
AcDbBlockTableRecord
  2
*PAPER_SPACE
  0
BLOCK_RECORD
  5
123
100
AcDbSymbolTableRecord
100
AcDbBlockTableRecord
  2
_DOT
  0
BLOCK_RECORD
  5
124
100
AcDbSymbolTableRecord
100
AcDbBlockTableRecord
  2
_OPEN30
  0
ENDTAB
  0
ENDSEC
  0
SECTION
  2
BLOCKS
  0
BLOCK
  5
125
100
AcDbEntity
  8
0
100
AcDbBlockBegin
  2
*MODEL_SPACE
 70
     0
 10
0
 20
0
  3
*MODEL_SPACE
  1

  0
ENDBLK
  5
126
100
AcDbEntity
  8
0
100
AcDbBlockEnd
  0
BLOCK
  5
127
100
AcDbEntity
 67
     1
  8
0
100
AcDbBlockBegin
  2
*PAPER_SPACE
 70
     0
 10
0
 20
0
  3
*PAPER_SPACE
  1

  0
ENDBLK
  5
128
100
AcDbEntity
 67
     1
  8
0
100
AcDbBlockEnd
  0
BLOCK
  5
129
100
AcDbEntity
 67
     1
  8
0
100
AcDbBlockBegin
  2
_DOT
 70
     0
 10
0
 20
0
  3
_DOT
  1

  0
LWPOLYLINE
  5
12A
100
AcDbEntity
  8
0
  6
BYBLOCK
 62
     0
100
AcDbPolyline
 90
     2
 70
     1
 43
0.5
 10
-0.25
 20
0
 42
1
 10
0.25
 20
0
 42
1
  0
LINE
  5
12B
100
AcDbEntity
  8
0
  6
BYBLOCK
 62
     0
100
AcDbLine
 10
-0.5
 20
0
 11
-1
 21
0
  0
ENDBLK
  5
12C
100
AcDbEntity
  8
0
100
AcDbBlockEnd
  0
BLOCK
  5
12D
100
AcDbEntity
 67
     1
  8
0
100
AcDbBlockBegin
  2
_OPEN30
 70
     0
 10
0
 20
0
  3
_OPEN30
  1

  0
LINE
  5
12E
100
AcDbEntity
  8
0
  6
BYBLOCK
 62
     0
100
AcDbLine
 10
-1
 20
0.26794919
 11
0
 21
0
  0
LINE
  5
12F
100
AcDbEntity
  8
0
  6
BYBLOCK
 62
     0
100
AcDbLine
 10
-1
 20
-0.26794919
 11
0
 21
0
  0
LINE
  5
130
100
AcDbEntity
  8
0
  6
BYBLOCK
 62
     0
100
AcDbLine
 10
0
 20
0
 11
-1
 21
0
  0
ENDBLK
  5
131
100
AcDbEntity
  8
0
100
AcDbBlockEnd
  0
ENDSEC
  0
SECTION
  2
ENTITIES
  0
POLYLINE
  5
132
100
AcDbEntity
  8
レイヤ1
  6
CONTINUOUS
 62
     0
100
AcDb2dPolyline
 66
     1
 10
0
 20
0
 70
     0
  0
VERTEX
  5
133
100
AcDbEntity
  8
レイヤ1
100
AcDbVertex
100
AcDb2dVertex
 10
14.43766545596
 20
1563.117913365
  0
VERTEX
  5
134
100
AcDbEntity
  8
レイヤ1
100
AcDbVertex
100
AcDb2dVertex
 10
10.58762133437
 20
1572.261768154
  0
VERTEX
  5
135
100
AcDbEntity
  8
レイヤ1
100
AcDbVertex
100
AcDb2dVertex
 10
2.887533091192
 20
1579.480600882
  0
VERTEX
  5
136
100
AcDbEntity
  8
レイヤ1
100
AcDbVertex
100
AcDb2dVertex
 10
-8.181343758378
 20
1581.886878458
  0
VERTEX
  5
137
100
AcDbEntity
  8
レイヤ1
100
AcDbVertex
100
AcDb2dVertex
 10
-18.76896509275
 20
1582.368133973
  0
VERTEX
  5
138
100
AcDbEntity
  8
レイヤ1
100
AcDbVertex
100
AcDb2dVertex
 10
-26.46905333593
 20
1579.961856397
  0
VERTEX
  5
139
100
AcDbEntity
  8
レイヤ1
100
AcDbVertex
100
AcDb2dVertex
 10
-33.68788606391
 20
1575.630556761
  0
VERTEX
  5
13A
100
AcDbEntity
  8
レイヤ1
100
AcDbVertex
100
AcDb2dVertex
 10
-35.1316526095
 20
1571.299257124
  0
VERTEX
  5
13B
100
AcDbEntity
  8
レイヤ1
100
AcDbVertex
100
AcDb2dVertex
 10
-59.67568388464
 20
1559.749124759
  0
VERTEX
  5
13C
100
AcDbEntity
  8
レイヤ1
100
AcDbVertex
100
AcDb2dVertex
 10
-64.48823903662
 20
1559.267869244
  0
VERTEX
  5
13D
100
AcDbEntity
  8
レイヤ1
100
AcDbVertex
100
AcDb2dVertex
 10
-74.5946048558
 20
1553.974058577
  0
VERTEX
  5
13E
100
AcDbEntity
  8
レイヤ1
100
AcDbVertex
100
AcDb2dVertex
 10
-80.36967103818
 20
1547.717736879
  0
VERTEX
  5
13F
100
AcDbEntity
  8
レイヤ1
100
AcDbVertex
100
AcDb2dVertex
 10
-83.73845964457
 20
1539.536393121
  0
VERTEX
  5
140
100
AcDbEntity
  8
レイヤ1
100
AcDbVertex
100
AcDb2dVertex
 10
-83.73845964457
 20
1531.836304877
  0
VERTEX
  5
141
100
AcDbEntity
  8
レイヤ1
100
AcDbVertex
100
AcDb2dVertex
 10
-88.55101479656
 20
1527.505005241
  0
VERTEX
  5
142
100
AcDbEntity
  8
レイヤ1
100
AcDbVertex
100
AcDb2dVertex
 10
-89.51352582696
 20
1521.248683543
  0
VERTEX
  5
143
100
AcDbEntity
  8
レイヤ1
100
AcDbVertex
100
AcDb2dVertex
 10
-89.99478134215
 20
1512.586084269
  0
VERTEX
  5
144
100
AcDbEntity
  8
レイヤ1
100
AcDbVertex
100
AcDb2dVertex
 10
-94.80733649414
 20
1505.848507057
  0
VERTEX
  5
145
100
AcDbEntity
  8
レイヤ1
100
AcDbVertex
100
AcDb2dVertex
 10
-98.17612510053
 20
1490.44833057
  0
VERTEX
  5
146
100
AcDbEntity
  8
レイヤ1
100
AcDbVertex
100
AcDb2dVertex
 10
-97.69486958533
 20
1476.973176145
  0
VERTEX
  5
147
100
AcDbEntity
  8
レイヤ1
100
AcDbVertex
100
AcDb2dVertex
 10
-95.76984752454
 20
1466.38555481
  0
VERTEX
  5
148
100
AcDbEntity
  8
レイヤ1
100
AcDbVertex
100
AcDb2dVertex
 10
-92.88231443335
 20
1462.535510689
  0
VERTEX
  5
149
100
AcDbEntity
  8
レイヤ1
100
AcDbVertex
100
AcDb2dVertex
 10
-100.1011471613
 20
1418.741258806
  0
VERTEX
  5
14A
100
AcDbEntity
  8
レイヤ1
100
AcDbVertex
100
AcDb2dVertex
 10
-99.61989164613
 20
1406.709870926
  0
VERTEX
  5
14B
100
AcDbEntity
  8
レイヤ1
100
AcDbVertex
100
AcDb2dVertex
 10
-97.69486958533
 20
1399.491038198
  0
VERTEX
  5
14C
100
AcDbEntity
  8
レイヤ1
100
AcDbVertex
100
AcDb2dVertex
 10
-95.28859200934
 20
1395.640994076
  0
VERTEX
  5
14D
100
AcDbEntity
  8
レイヤ1
100
AcDbVertex
100
AcDb2dVertex
 10
-100.1011471613
 20
1359.546830436
  0
VERTEX
  5
14E
100
AcDbEntity
  8
レイヤ1
100
AcDbVertex
100
AcDb2dVertex
 10
-99.13863613093
 20
1350.884231163
  0
VERTEX
  5
14F
100
AcDbEntity
  8
レイヤ1
100
AcDbVertex
100
AcDb2dVertex
 10
-96.25110303974
 20
1347.034187041
  0
VERTEX
  5
150
100
AcDbEntity
  8
レイヤ1
100
AcDbVertex
100
AcDb2dVertex
 10
-91.43854788775
 20
1344.14665395
  0
VERTEX
  5
151
100
AcDbEntity
  8
レイヤ1
100
AcDbVertex
100
AcDb2dVertex
 10
-82.29469309898
 20
1343.18414292
  0
VERTEX
  5
152
100
AcDbEntity
  8
レイヤ1
100
AcDbVertex
100
AcDb2dVertex
 10
-81.33218206858
 20
1339.334098798
  0
VERTEX
  5
153
100
AcDbEntity
  8
レイヤ1
100
AcDbVertex
100
AcDb2dVertex
 10
-75.55711588619
 20
1340.296609828
  0
VERTEX
  5
154
100
AcDbEntity
  8
レイヤ1
100
AcDbVertex
100
AcDb2dVertex
 10
-75.075860371
 20
1347.515442556
  0
VERTEX
  5
155
100
AcDbEntity
  8
レイヤ1
100
AcDbVertex
100
AcDb2dVertex
 10
-62.08196146063
 20
1359.065574921
  0
SEQEND
  5
156
100
AcDbEntity
  8
レイヤ1
  0
POLYLINE
  5
157
100
AcDbEntity
  8
レイヤ1
  6
CONTINUOUS
 62
     0
100
AcDb2dPolyline
 66
     1
 10
0
 20
0
 70
     0
  0
VERTEX
  5
158
100
AcDbEntity
  8
レイヤ1
100
AcDbVertex
100
AcDb2dVertex
 10
14.43766545596
 20
1563.117913365
  0
VERTEX
  5
159
100
AcDbEntity
  8
レイヤ1
100
AcDbVertex
100
AcDb2dVertex
 10
26.46905333593
 20
1561.192891305
  0
VERTEX
  5
15A
100
AcDbEntity
  8
レイヤ1
100
AcDbVertex
100
AcDb2dVertex
 10
33.68788606391
 20
1557.824102698
  0
VERTEX
  5
15B
100
AcDbEntity
  8
レイヤ1
100
AcDbVertex
100
AcDb2dVertex
 10
35.1316526095
 20
1555.899080637
  0
VERTEX
  5
15C
100
AcDbEntity
  8
レイヤ1
100
AcDbVertex
100
AcDb2dVertex
 10
44.27550739828
 20
1554.936569607
  0
VERTEX
  5
15D
100
AcDbEntity
  8
レイヤ1
100
AcDbVertex
100
AcDb2dVertex
 10
50.05057358066
 20
1551.567781001
  0
VERTEX
  5
15E
100
AcDbEntity
  8
レイヤ1
100
AcDbVertex
100
AcDb2dVertex
 10
62.56321697583
 20
1543.386437242
  0
VERTEX
  5
15F
100
AcDbEntity
  8
レイヤ1
100
AcDbVertex
100
AcDb2dVertex
 10
64.00698352143
 20
1537.61137106
  0
VERTEX
  5
160
100
AcDbEntity
  8
レイヤ1
100
AcDbVertex
100
AcDb2dVertex
 10
83.73845964457
 20
1513.5485953
  0
VERTEX
  5
161
100
AcDbEntity
  8
レイヤ1
100
AcDbVertex
100
AcDb2dVertex
 10
83.73845964457
 20
1507.773529117
  0
VERTEX
  5
162
100
AcDbEntity
  8
レイヤ1
100
AcDbVertex
100
AcDb2dVertex
 10
87.58850376616
 20
1504.404740511
  0
VERTEX
  5
163
100
AcDbEntity
  8
レイヤ1
100
AcDbVertex
100
AcDb2dVertex
 10
91.91980340295
 20
1495.260885722
  0
VERTEX
  5
164
100
AcDbEntity
  8
レイヤ1
100
AcDbVertex
100
AcDb2dVertex
 10
93.36356994855
 20
1481.785731297
  0
VERTEX
  5
165
100
AcDbEntity
  8
レイヤ1
100
AcDbVertex
100
AcDb2dVertex
 10
90.95729237255
 20
1469.273087902
  0
VERTEX
  5
166
100
AcDbEntity
  8
レイヤ1
100
AcDbVertex
100
AcDb2dVertex
 10
86.14473722057
 20
1459.647977598
  0
VERTEX
  5
167
100
AcDbEntity
  8
レイヤ1
100
AcDbVertex
100
AcDb2dVertex
 10
81.81343758378
 20
1452.910400385
  0
VERTEX
  5
168
100
AcDbEntity
  8
レイヤ1
100
AcDbVertex
100
AcDb2dVertex
 10
72.07238426849
 20
1449.530569587
  0
VERTEX
  5
169
100
AcDbEntity
  8
レイヤ1
100
AcDbVertex
100
AcDb2dVertex
 10
70.05166321424
 20
1448.183422217
  0
VERTEX
  5
16A
100
AcDbEntity
  8
レイヤ1
100
AcDbVertex
100
AcDb2dVertex
 10
69.04130268711
 20
1445.152340636
  0
VERTEX
  5
16B
100
AcDbEntity
  8
レイヤ1
100
AcDbVertex
100
AcDb2dVertex
 10
77.46097374651
 20
1439.763751158
  0
VERTEX
  5
16C
100
AcDbEntity
  8
レイヤ1
100
AcDbVertex
100
AcDb2dVertex
 10
83.85992375166
 20
1427.639424832
  0
VERTEX
  5
16D
100
AcDbEntity
  8
レイヤ1
100
AcDbVertex
100
AcDb2dVertex
 10
89.58530007205
 20
1412.820803768
  0
VERTEX
  5
16E
100
AcDbEntity
  8
レイヤ1
100
AcDbVertex
100
AcDb2dVertex
 10
91.26923428393
 20
1400.696477442
  0
VERTEX
  5
16F
100
AcDbEntity
  8
レイヤ1
100
AcDbVertex
100
AcDb2dVertex
 10
89.92208691443
 20
1385.204282693
  0
VERTEX
  5
170
100
AcDbEntity
  8
レイヤ1
100
AcDbVertex
100
AcDb2dVertex
 10
86.89100533304
 20
1381.162840585
  0
VERTEX
  5
171
100
AcDbEntity
  8
レイヤ1
100
AcDbVertex
100
AcDb2dVertex
 10
82.17598953978
 20
1378.468545846
  0
VERTEX
  5
172
100
AcDbEntity
  8
レイヤ1
100
AcDbVertex
100
AcDb2dVertex
 10
77.12418690414
 20
1378.468545846
  0
VERTEX
  5
173
100
AcDbEntity
  8
レイヤ1
100
AcDbVertex
100
AcDb2dVertex
 10
74.09310532275
 20
1377.794972161
  0
VERTEX
  5
174
100
AcDbEntity
  8
レイヤ1
100
AcDbVertex
100
AcDb2dVertex
 10
72.07238426849
 20
1367.354580047
  0
VERTEX
  5
175
100
AcDbEntity
  8
レイヤ1
100
AcDbVertex
100
AcDb2dVertex
 10
68.70451584473
 20
1360.955630042
  0
VERTEX
  5
176
100
AcDbEntity
  8
レイヤ1
100
AcDbVertex
100
AcDb2dVertex
 10
63.98950005147
 20
1355.903827406
  0
VERTEX
  5
177
100
AcDbEntity
  8
レイヤ1
100
AcDbVertex
100
AcDb2dVertex
 10
55.56982899206
 20
1352.535958983
  0
VERTEX
  5
178
100
AcDbEntity
  8
レイヤ1
100
AcDbVertex
100
AcDb2dVertex
 10
66.68379479048
 20
1361.629203727
  0
VERTEX
  5
179
100
AcDbEntity
  8
レイヤ1
100
AcDbVertex
100
AcDb2dVertex
 10
69.71487637186
 20
1367.691366889
  0
VERTEX
  5
17A
100
AcDbEntity
  8
レイヤ1
100
AcDbVertex
100
AcDb2dVertex
 10
70.72523689899
 20
1377.458185318
  0
VERTEX
  5
17B
100
AcDbEntity
  8
レイヤ1
100
AcDbVertex
100
AcDb2dVertex
 10
66.68379479048
 20
1379.478906373
  0
VERTEX
  5
17C
100
AcDbEntity
  8
レイヤ1
100
AcDbVertex
100
AcDb2dVertex
 10
62.64235268196
 20
1383.183561639
  0
VERTEX
  5
17D
100
AcDbEntity
  8
レイヤ1
100
AcDbVertex
100
AcDb2dVertex
 10
58.26412373107
 20
1390.592872171
  0
VERTEX
  5
17E
100
AcDbEntity
  8
レイヤ1
100
AcDbVertex
100
AcDb2dVertex
 10
58.93769741582
 20
1397.328609019
  0
VERTEX
  5
17F
100
AcDbEntity
  8
レイヤ1
100
AcDbVertex
100
AcDb2dVertex
 10
61.29520531246
 20
1400.3596906
  0
VERTEX
  5
180
100
AcDbEntity
  8
レイヤ1
100
AcDbVertex
100
AcDb2dVertex
 10
66.68379479048
 20
1401.370051127
  0
VERTEX
  5
181
100
AcDbEntity
  8
レイヤ1
100
AcDbVertex
100
AcDb2dVertex
 10
70.05166321424
 20
1398.675756388
  0
VERTEX
  5
182
100
AcDbEntity
  8
レイヤ1
100
AcDbVertex
100
AcDb2dVertex
 10
73.419531638
 20
1393.960740595
  0
VERTEX
  5
183
100
AcDbEntity
  8
レイヤ1
100
AcDbVertex
100
AcDb2dVertex
 10
75.10346584988
 20
1386.21464322
  0
VERTEX
  5
184
100
AcDbEntity
  8
レイヤ1
100
AcDbVertex
100
AcDb2dVertex
 10
73.75631848037
 20
1381.499627427
  0
VERTEX
  5
185
100
AcDbEntity
  8
レイヤ1
100
AcDbVertex
100
AcDb2dVertex
 10
80.15526848552
 20
1382.846774796
  0
VERTEX
  5
186
100
AcDbEntity
  8
レイヤ1
100
AcDbVertex
100
AcDb2dVertex
 10
84.87028427879
 20
1387.56179059
  0
VERTEX
  5
187
100
AcDbEntity
  8
レイヤ1
100
AcDbVertex
100
AcDb2dVertex
 10
87.22779217542
 20
1392.950380068
  0
VERTEX
  5
188
100
AcDbEntity
  8
レイヤ1
100
AcDbVertex
100
AcDb2dVertex
 10
86.89100533304
 20
1403.727559024
  0
VERTEX
  5
189
100
AcDbEntity
  8
レイヤ1
100
AcDbVertex
100
AcDb2dVertex
 10
83.52313690928
 20
1416.188672192
  0
VERTEX
  5
18A
100
AcDbEntity
  8
レイヤ1
100
AcDbVertex
100
AcDb2dVertex
 10
76.11382637701
 20
1424.945130093
  0
VERTEX
  5
18B
100
AcDbEntity
  8
レイヤ1
100
AcDbVertex
100
AcDb2dVertex
 10
68.70451584473
 20
1428.986572202
  0
VERTEX
  5
18C
100
AcDbEntity
  8
レイヤ1
100
AcDbVertex
100
AcDb2dVertex
 10
63.31592636671
 20
1429.996932729
  0
VERTEX
  5
18D
100
AcDbEntity
  8
レイヤ1
100
AcDbVertex
100
AcDb2dVertex
 10
65.33664742097
 20
1416.188672192
  0
VERTEX
  5
18E
100
AcDbEntity
  8
レイヤ1
100
AcDbVertex
100
AcDb2dVertex
 10
64.99986057859
 20
1404.401132708
  0
VERTEX
  5
18F
100
AcDbEntity
  8
レイヤ1
100
AcDbVertex
100
AcDb2dVertex
 10
64.66307373622
 20
1414.841524822
  0
VERTEX
  5
190
100
AcDbEntity
  8
レイヤ1
100
AcDbVertex
100
AcDb2dVertex
 10
61.29520531246
 20
1424.271556409
  0
VERTEX
  5
191
100
AcDbEntity
  8
レイヤ1
100
AcDbVertex
100
AcDb2dVertex
 10
61.96877899721
 20
1413.494377453
  0
VERTEX
  5
192
100
AcDbEntity
  8
レイヤ1
100
AcDbVertex
100
AcDb2dVertex
 10
61.96877899721
 20
1402.717198497
  0
VERTEX
  5
193
100
AcDbEntity
  8
レイヤ1
100
AcDbVertex
100
AcDb2dVertex
 10
60.28484478533
 20
1416.188672192
  0
VERTEX
  5
194
100
AcDbEntity
  8
レイヤ1
100
AcDbVertex
100
AcDb2dVertex
 10
57.9273368887
 20
1422.587622197
  0
VERTEX
  5
195
100
AcDbEntity
  8
レイヤ1
100
AcDbVertex
100
AcDb2dVertex
 10
57.25376320394
 20
1421.57726167
  0
VERTEX
  5
196
100
AcDbEntity
  8
レイヤ1
100
AcDbVertex
100
AcDb2dVertex
 10
57.9273368887
 20
1409.789722187
  0
VERTEX
  5
197
100
AcDbEntity
  8
レイヤ1
100
AcDbVertex
100
AcDb2dVertex
 10
57.9273368887
 20
1383.857135324
  0
VERTEX
  5
198
100
AcDbEntity
  8
レイヤ1
100
AcDbVertex
100
AcDb2dVertex
 10
54.55946846493
 20
1373.41674321
  0
VERTEX
  5
199
100
AcDbEntity
  8
レイヤ1
100
AcDbVertex
100
AcDb2dVertex
 10
56.24340267681
 20
1397.665395861
  0
VERTEX
  5
19A
100
AcDbEntity
  8
レイヤ1
100
AcDbVertex
100
AcDb2dVertex
 10
52.87553425305
 20
1419.219753773
  0
VERTEX
  5
19B
100
AcDbEntity
  8
レイヤ1
100
AcDbVertex
100
AcDb2dVertex
 10
51.86517372593
 20
1426.965851148
  0
VERTEX
  5
19C
100
AcDbEntity
  8
レイヤ1
100
AcDbVertex
100
AcDb2dVertex
 10
48.16051845979
 20
1436.059095892
  0
VERTEX
  5
19D
100
AcDbEntity
  8
レイヤ1
100
AcDbVertex
100
AcDb2dVertex
 10
43.7822895089
 20
1464.012403809
  0
VERTEX
  5
19E
100
AcDbEntity
  8
レイヤ1
100
AcDbVertex
100
AcDb2dVertex
 10
27.27973423247
 20
1492.976072253
  0
VERTEX
  5
19F
100
AcDbEntity
  8
レイヤ1
100
AcDbVertex
100
AcDb2dVertex
 10
23.57507896633
 20
1503.416464367
  0
VERTEX
  5
1A0
100
AcDbEntity
  8
レイヤ1
100
AcDbVertex
100
AcDb2dVertex
 10
19.53363685782
 20
1507.457906476
  0
VERTEX
  5
1A1
100
AcDbEntity
  8
レイヤ1
100
AcDbVertex
100
AcDb2dVertex
 10
11.11396579841
 20
1509.141840687
  0
VERTEX
  5
1A2
100
AcDbEntity
  8
レイヤ1
100
AcDbVertex
100
AcDb2dVertex
 10
-4.041442108514
 20
1489.60820383
  0
VERTEX
  5
1A3
100
AcDbEntity
  8
レイヤ1
100
AcDbVertex
100
AcDb2dVertex
 10
-29.30045528672
 20
1465.696338021
  0
VERTEX
  5
1A4
100
AcDbEntity
  8
レイヤ1
100
AcDbVertex
100
AcDb2dVertex
 10
-42.43514213939
 20
1457.613453804
  0
VERTEX
  5
1A5
100
AcDbEntity
  8
レイヤ1
100
AcDbVertex
100
AcDb2dVertex
 10
-27.95330791722
 20
1469.064206445
  0
VERTEX
  5
1A6
100
AcDbEntity
  8
レイヤ1
100
AcDbVertex
100
AcDb2dVertex
 10
-12.46111316792
 20
1486.240335406
  0
VERTEX
  5
1A7
100
AcDbEntity
  8
レイヤ1
100
AcDbVertex
100
AcDb2dVertex
 10
3.704655266138
 20
1506.784332791
  0
VERTEX
  5
1A8
100
AcDbEntity
  8
レイヤ1
100
AcDbVertex
100
AcDb2dVertex
 10
1.010360527128
 20
1507.121119633
  0
VERTEX
  5
1A9
100
AcDbEntity
  8
レイヤ1
100
AcDbVertex
100
AcDb2dVertex
 10
-5.725376320394
 20
1504.763611737
  0
VERTEX
  5
1AA
100
AcDbEntity
  8
レイヤ1
100
AcDbVertex
100
AcDb2dVertex
 10
-18.52327633069
 20
1486.240335406
  0
VERTEX
  5
1AB
100
AcDbEntity
  8
レイヤ1
100
AcDbVertex
100
AcDb2dVertex
 10
-34.35225792237
 20
1470.411353814
  0
VERTEX
  5
1AC
100
AcDbEntity
  8
レイヤ1
100
AcDbVertex
100
AcDb2dVertex
 10
-49.84445267167
 20
1457.276666962
  0
VERTEX
  5
1AD
100
AcDbEntity
  8
レイヤ1
100
AcDbVertex
100
AcDb2dVertex
 10
-20.54399738494
 20
1488.934630145
  0
VERTEX
  5
1AE
100
AcDbEntity
  8
レイヤ1
100
AcDbVertex
100
AcDb2dVertex
 10
-7.072523689899
 20
1507.121119633
  0
VERTEX
  5
1AF
100
AcDbEntity
  8
レイヤ1
100
AcDbVertex
100
AcDb2dVertex
 10
-25.25901317821
 20
1494.323219623
  0
VERTEX
  5
1B0
100
AcDbEntity
  8
レイヤ1
100
AcDbVertex
100
AcDb2dVertex
 10
-48.16051845979
 20
1474.789582765
  0
VERTEX
  5
1B1
100
AcDbEntity
  8
レイヤ1
100
AcDbVertex
100
AcDb2dVertex
 10
-59.61127110058
 20
1457.276666962
  0
VERTEX
  5
1B2
100
AcDbEntity
  8
レイヤ1
100
AcDbVertex
100
AcDb2dVertex
 10
-66.01022110572
 20
1439.763751158
  0
VERTEX
  5
1B3
100
AcDbEntity
  8
レイヤ1
100
AcDbVertex
100
AcDb2dVertex
 10
-71.06202374137
 20
1412.484016926
  0
VERTEX
  5
1B4
100
AcDbEntity
  8
レイヤ1
100
AcDbVertex
100
AcDb2dVertex
 10
-71.73559742612
 20
1391.940019541
  0
VERTEX
  5
1B5
100
AcDbEntity
  8
レイヤ1
100
AcDbVertex
100
AcDb2dVertex
 10
-72.74595795325
 20
1405.748280078
  0
VERTEX
  5
1B6
100
AcDbEntity
  8
レイヤ1
100
AcDbVertex
100
AcDb2dVertex
 10
-71.73559742612
 20
1421.240474827
  0
VERTEX
  5
1B7
100
AcDbEntity
  8
レイヤ1
100
AcDbVertex
100
AcDb2dVertex
 10
-75.44025269225
 20
1404.737919551
  0
VERTEX
  5
1B8
100
AcDbEntity
  8
レイヤ1
100
AcDbVertex
100
AcDb2dVertex
 10
-76.45061321938
 20
1391.603232698
  0
VERTEX
  5
1B9
100
AcDbEntity
  8
レイヤ1
100
AcDbVertex
100
AcDb2dVertex
 10
-76.45061321938
 20
1411.136869556
  0
VERTEX
  5
1BA
100
AcDbEntity
  8
レイヤ1
100
AcDbVertex
100
AcDb2dVertex
 10
-75.10346584988
 20
1428.312998517
  0
VERTEX
  5
1BB
100
AcDbEntity
  8
レイヤ1
100
AcDbVertex
100
AcDb2dVertex
 10
-71.06202374137
 20
1450.877716956
  0
VERTEX
  5
1BC
100
AcDbEntity
  8
レイヤ1
100
AcDbVertex
100
AcDb2dVertex
 10
-84.53349743641
 20
1415.178311665
  0
VERTEX
  5
1BD
100
AcDbEntity
  8
レイヤ1
100
AcDbVertex
100
AcDb2dVertex
 10
-85.88064480592
 20
1394.971101122
  0
VERTEX
  5
1BE
100
AcDbEntity
  8
レイヤ1
100
AcDbVertex
100
AcDb2dVertex
 10
-84.53349743641
 20
1384.867495851
  0
VERTEX
  5
1BF
100
AcDbEntity
  8
レイヤ1
100
AcDbVertex
100
AcDb2dVertex
 10
-79.81848164314
 20
1367.691366889
  0
VERTEX
  5
1C0
100
AcDbEntity
  8
レイヤ1
100
AcDbVertex
100
AcDb2dVertex
 10
-79.81848164314
 20
1355.567040564
  0
VERTEX
  5
1C1
100
AcDbEntity
  8
レイヤ1
100
AcDbVertex
100
AcDb2dVertex
 10
-66.68379479048
 20
1367.017793205
  0
SEQEND
  5
1C2
100
AcDbEntity
  8
レイヤ1
  0
POLYLINE
  5
1C3
100
AcDbEntity
  8
レイヤ1
  6
CONTINUOUS
 62
     0
100
AcDb2dPolyline
 66
     1
 10
0
 20
0
 70
     0
  0
VERTEX
  5
1C4
100
AcDbEntity
  8
レイヤ1
100
AcDbVertex
100
AcDb2dVertex
 10
70.05166321424
 20
1398.675756388
  0
VERTEX
  5
1C5
100
AcDbEntity
  8
レイヤ1
100
AcDbVertex
100
AcDb2dVertex
 10
78.01444978675
 20
1404.09516075
  0
VERTEX
  5
1C6
100
AcDbEntity
  8
レイヤ1
100
AcDbVertex
100
AcDb2dVertex
 10
83.82706680554
 20
1415.064131576
  0
SEQEND
  5
1C7
100
AcDbEntity
  8
レイヤ1
  0
POLYLINE
  5
1C8
100
AcDbEntity
  8
レイヤ1
  6
CONTINUOUS
 62
     0
100
AcDb2dPolyline
 66
     1
 10
0
 20
0
 70
     0
  0
VERTEX
  5
1C9
100
AcDbEntity
  8
レイヤ1
100
AcDbVertex
100
AcDb2dVertex
 10
86.65598197234
 20
1420.402568261
  0
VERTEX
  5
1CA
100
AcDbEntity
  8
レイヤ1
100
AcDbVertex
100
AcDb2dVertex
 10
88.24044531905
 20
1423.392603932
  0
VERTEX
  5
1CB
100
AcDbEntity
  8
レイヤ1
100
AcDbVertex
100
AcDb2dVertex
 10
90.21967026079
 20
1435.432888994
  0
VERTEX
  5
1CC
100
AcDbEntity
  8
レイヤ1
100
AcDbVertex
100
AcDb2dVertex
 10
90.3846056726
 20
1443.514724173
  0
VERTEX
  5
1CD
100
AcDbEntity
  8
レイヤ1
100
AcDbVertex
100
AcDb2dVertex
 10
87.41576826
 20
1447.967980292
  0
VERTEX
  5
1CE
100
AcDbEntity
  8
レイヤ1
100
AcDbVertex
100
AcDb2dVertex
 10
81.81343758378
 20
1452.910400385
  0
SEQEND
  5
1CF
100
AcDbEntity
  8
レイヤ1
  0
POLYLINE
  5
1D0
100
AcDbEntity
  8
レイヤ1
  6
CONTINUOUS
 62
     0
100
AcDb2dPolyline
 66
     1
 10
0
 20
0
 70
     1
  0
VERTEX
  5
1D1
100
AcDbEntity
  8
レイヤ1
100
AcDbVertex
100
AcDb2dVertex
 10
71.58196872611
 20
1383.478234273
  0
VERTEX
  5
1D2
100
AcDbEntity
  8
レイヤ1
100
AcDbVertex
100
AcDb2dVertex
 10
71.91183954973
 20
1387.436684157
  0
VERTEX
  5
1D3
100
AcDbEntity
  8
レイヤ1
100
AcDbVertex
100
AcDb2dVertex
 10
69.60274378438
 20
1393.539294394
  0
VERTEX
  5
1D4
100
AcDbEntity
  8
レイヤ1
100
AcDbVertex
100
AcDb2dVertex
 10
66.13910013634
 20
1396.178260983
  0
VERTEX
  5
1D5
100
AcDbEntity
  8
レイヤ1
100
AcDbVertex
100
AcDb2dVertex
 10
64.1598751946
 20
1396.343196395
  0
VERTEX
  5
1D6
100
AcDbEntity
  8
レイヤ1
100
AcDbVertex
100
AcDb2dVertex
 10
62.51052107649
 20
1395.188648512
  0
VERTEX
  5
1D7
100
AcDbEntity
  8
レイヤ1
100
AcDbVertex
100
AcDb2dVertex
 10
66.13910013634
 20
1388.261361216
  0
SEQEND
  5
1D8
100
AcDbEntity
  8
レイヤ1
  0
POLYLINE
  5
1D9
100
AcDbEntity
  8
レイヤ1
  6
CONTINUOUS
 62
     0
100
AcDb2dPolyline
 66
     1
 10
0
 20
0
 70
     1
  0
VERTEX
  5
1DA
100
AcDbEntity
  8
レイヤ1
100
AcDbVertex
100
AcDb2dVertex
 10
69.76767919619
 20
1380.674332273
  0
VERTEX
  5
1DB
100
AcDbEntity
  8
レイヤ1
100
AcDbVertex
100
AcDb2dVertex
 10
64.81961684185
 20
1385.457459215
  0
VERTEX
  5
1DC
100
AcDbEntity
  8
レイヤ1
100
AcDbVertex
100
AcDb2dVertex
 10
62.18065025287
 20
1390.405521569
  0
VERTEX
  5
1DD
100
AcDbEntity
  8
レイヤ1
100
AcDbVertex
100
AcDb2dVertex
 10
61.02610237019
 20
1394.363971453
  0
VERTEX
  5
1DE
100
AcDbEntity
  8
レイヤ1
100
AcDbVertex
100
AcDb2dVertex
 10
59.87155448751
 20
1393.20942357
  0
VERTEX
  5
1DF
100
AcDbEntity
  8
レイヤ1
100
AcDbVertex
100
AcDb2dVertex
 10
61.52090860562
 20
1388.096425804
  0
VERTEX
  5
1E0
100
AcDbEntity
  8
レイヤ1
100
AcDbVertex
100
AcDb2dVertex
 10
65.80922931272
 20
1382.653557214
  0
SEQEND
  5
1E1
100
AcDbEntity
  8
レイヤ1
  0
POLYLINE
  5
1E2
100
AcDbEntity
  8
レイヤ1
  6
CONTINUOUS
 62
     0
100
AcDb2dPolyline
 66
     1
 10
0
 20
0
 70
     0
  0
VERTEX
  5
1E3
100
AcDbEntity
  8
レイヤ1
100
AcDbVertex
100
AcDb2dVertex
 10
-85.04132476454
 20
1407.560901743
  0
VERTEX
  5
1E4
100
AcDbEntity
  8
レイヤ1
100
AcDbVertex
100
AcDb2dVertex
 10
-82.96161085469
 20
1404.926597457
  0
VERTEX
  5
1E5
100
AcDbEntity
  8
レイヤ1
100
AcDbVertex
100
AcDb2dVertex
 10
-79.42631493759
 20
1403.041106301
  0
VERTEX
  5
1E6
100
AcDbEntity
  8
レイヤ1
100
AcDbVertex
100
AcDb2dVertex
 10
-75.65533262601
 20
1384.893253927
  0
VERTEX
  5
1E7
100
AcDbEntity
  8
レイヤ1
100
AcDbVertex
100
AcDb2dVertex
 10
-70.94160473654
 20
1372.166188625
  0
VERTEX
  5
1E8
100
AcDbEntity
  8
レイヤ1
100
AcDbVertex
100
AcDb2dVertex
 10
-60.10003059076
 20
1357.317945773
  0
VERTEX
  5
1E9
100
AcDbEntity
  8
レイヤ1
100
AcDbVertex
100
AcDb2dVertex
 10
-46.43021971129
 20
1343.412448499
  0
VERTEX
  5
1EA
100
AcDbEntity
  8
レイヤ1
100
AcDbVertex
100
AcDb2dVertex
 10
-32.52472243735
 20
1333.042247142
  0
VERTEX
  5
1EB
100
AcDbEntity
  8
レイヤ1
100
AcDbVertex
100
AcDb2dVertex
 10
-21.68314829157
 20
1328.092832858
  0
VERTEX
  5
1EC
100
AcDbEntity
  8
レイヤ1
100
AcDbVertex
100
AcDb2dVertex
 10
-13.19843809052
 20
1325.971655308
  0
VERTEX
  5
1ED
100
AcDbEntity
  8
レイヤ1
100
AcDbVertex
100
AcDb2dVertex
 10
-6.599219045259
 20
1325.735968914
  0
VERTEX
  5
1EE
100
AcDbEntity
  8
レイヤ1
100
AcDbVertex
100
AcDb2dVertex
 10
2.356863944735
 20
1326.678714492
  0
VERTEX
  5
1EF
100
AcDbEntity
  8
レイヤ1
100
AcDbVertex
100
AcDb2dVertex
 10
12.4913789071
 20
1331.156755987
  0
VERTEX
  5
1F0
100
AcDbEntity
  8
レイヤ1
100
AcDbVertex
100
AcDb2dVertex
 10
24.51138502525
 20
1339.877152582
  0
VERTEX
  5
1F1
100
AcDbEntity
  8
レイヤ1
100
AcDbVertex
100
AcDb2dVertex
 10
39.35962787708
 20
1351.425785911
  0
VERTEX
  5
1F2
100
AcDbEntity
  8
レイヤ1
100
AcDbVertex
100
AcDb2dVertex
 10
51.85100678418
 20
1364.624224002
  0
VERTEX
  5
1F3
100
AcDbEntity
  8
レイヤ1
100
AcDbVertex
100
AcDb2dVertex
 10
55.98027715225
 20
1373.767543641
  0
VERTEX
  5
1F4
100
AcDbEntity
  8
レイヤ1
100
AcDbVertex
100
AcDb2dVertex
 10
58.28874218946
 20
1383.00140379
  0
VERTEX
  5
1F5
100
AcDbEntity
  8
レイヤ1
100
AcDbVertex
100
AcDb2dVertex
 10
58.26412373107
 20
1390.592872171
  0
SEQEND
  5
1F6
100
AcDbEntity
  8
レイヤ1
  0
POLYLINE
  5
1F7
100
AcDbEntity
  8
レイヤ1
  6
CONTINUOUS
 62
     0
100
AcDb2dPolyline
 66
     1
 10
0
 20
0
 70
     0
  0
VERTEX
  5
1F8
100
AcDbEntity
  8
レイヤ1
100
AcDbVertex
100
AcDb2dVertex
 10
-52.6537119759
 20
1563.053582128
  0
VERTEX
  5
1F9
100
AcDbEntity
  8
レイヤ1
100
AcDbVertex
100
AcDb2dVertex
 10
-48.98581730796
 20
1566.721476796
  0
VERTEX
  5
1FA
100
AcDbEntity
  8
レイヤ1
100
AcDbVertex
100
AcDb2dVertex
 10
-46.84165695441
 20
1569.85524962
  0
VERTEX
  5
1FB
100
AcDbEntity
  8
レイヤ1
100
AcDbVertex
100
AcDb2dVertex
 10
-46.84165695441
 20
1571.339668326
  0
VERTEX
  5
1FC
100
AcDbEntity
  8
レイヤ1
100
AcDbVertex
100
AcDb2dVertex
 10
-38.42995095204
 20
1575.957859857
  0
VERTEX
  5
1FD
100
AcDbEntity
  8
レイヤ1
100
AcDbVertex
100
AcDb2dVertex
 10
-30.07846969992
 20
1577.796206579
  0
SEQEND
  5
1FE
100
AcDbEntity
  8
レイヤ1
  0
POLYLINE
  5
1FF
100
AcDbEntity
  8
レイヤ1
  6
CONTINUOUS
 62
     0
100
AcDb2dPolyline
 66
     1
 10
0
 20
0
 70
     0
  0
VERTEX
  5
200
100
AcDbEntity
  8
レイヤ1
100
AcDbVertex
100
AcDb2dVertex
 10
-25.62396191299
 20
1579.567201708
  0
VERTEX
  5
201
100
AcDbEntity
  8
レイヤ1
100
AcDbVertex
100
AcDb2dVertex
 10
-35.31951506925
 20
1579.68262496
  0
VERTEX
  5
202
100
AcDbEntity
  8
レイヤ1
100
AcDbVertex
100
AcDb2dVertex
 10
-40.51356140297
 20
1578.297545938
  0
VERTEX
  5
203
100
AcDbEntity
  8
レイヤ1
100
AcDbVertex
100
AcDb2dVertex
 10
-45.3613379811
 20
1576.681620412
  0
VERTEX
  5
204
100
AcDbEntity
  8
レイヤ1
100
AcDbVertex
100
AcDb2dVertex
 10
-47.55437976645
 20
1574.604001878
  0
VERTEX
  5
205
100
AcDbEntity
  8
レイヤ1
100
AcDbVertex
100
AcDb2dVertex
 10
-47.32353326273
 20
1577.83585293
  0
VERTEX
  5
206
100
AcDbEntity
  8
レイヤ1
100
AcDbVertex
100
AcDb2dVertex
 10
-48.36234252947
 20
1579.105508701
  0
VERTEX
  5
207
100
AcDbEntity
  8
レイヤ1
100
AcDbVertex
100
AcDb2dVertex
 10
-52.94426719143
 20
1579.091632682
  0
VERTEX
  5
208
100
AcDbEntity
  8
レイヤ1
100
AcDbVertex
100
AcDb2dVertex
 10
-55.91310460404
 20
1577.772149387
  0
VERTEX
  5
209
100
AcDbEntity
  8
レイヤ1
100
AcDbVertex
100
AcDb2dVertex
 10
-58.05726495758
 20
1575.29811821
  0
VERTEX
  5
20A
100
AcDbEntity
  8
レイヤ1
100
AcDbVertex
100
AcDb2dVertex
 10
-59.7066190757
 20
1569.525378796
  0
VERTEX
  5
20B
100
AcDbEntity
  8
レイヤ1
100
AcDbVertex
100
AcDb2dVertex
 10
-62.34558566468
 20
1577.772149387
  0
VERTEX
  5
20C
100
AcDbEntity
  8
レイヤ1
100
AcDbVertex
100
AcDb2dVertex
 10
-67.12871260721
 20
1583.050082565
  0
VERTEX
  5
20D
100
AcDbEntity
  8
レイヤ1
100
AcDbVertex
100
AcDb2dVertex
 10
-72.57158119698
 20
1586.678661625
  0
VERTEX
  5
20E
100
AcDbEntity
  8
レイヤ1
100
AcDbVertex
100
AcDb2dVertex
 10
-77.84951437494
 20
1587.008532448
  0
VERTEX
  5
20F
100
AcDbEntity
  8
レイヤ1
100
AcDbVertex
100
AcDb2dVertex
 10
-82.13783508204
 20
1586.183855389
  0
VERTEX
  5
210
100
AcDbEntity
  8
レイヤ1
100
AcDbVertex
100
AcDb2dVertex
 10
-95.33266802694
 20
1576.452666093
  0
VERTEX
  5
211
100
AcDbEntity
  8
レイヤ1
100
AcDbVertex
100
AcDb2dVertex
 10
-97.47682838049
 20
1571.339668326
  0
VERTEX
  5
212
100
AcDbEntity
  8
レイヤ1
100
AcDbVertex
100
AcDb2dVertex
 10
-97.6417637923
 20
1567.876024678
  0
VERTEX
  5
213
100
AcDbEntity
  8
レイヤ1
100
AcDbVertex
100
AcDb2dVertex
 10
-94.01318473245
 20
1560.288995735
  0
VERTEX
  5
214
100
AcDbEntity
  8
レイヤ1
100
AcDbVertex
100
AcDb2dVertex
 10
-91.20928273166
 20
1559.629254088
  0
VERTEX
  5
215
100
AcDbEntity
  8
レイヤ1
100
AcDbVertex
100
AcDb2dVertex
 10
-88.9001869663
 20
1561.60847903
  0
VERTEX
  5
216
100
AcDbEntity
  8
レイヤ1
100
AcDbVertex
100
AcDb2dVertex
 10
-87.08589743638
 20
1565.237058089
  0
VERTEX
  5
217
100
AcDbEntity
  8
レイヤ1
100
AcDbVertex
100
AcDb2dVertex
 10
-87.74563908362
 20
1566.391605972
  0
VERTEX
  5
218
100
AcDbEntity
  8
レイヤ1
100
AcDbVertex
100
AcDb2dVertex
 10
-90.54954108441
 20
1565.731864325
  0
VERTEX
  5
219
100
AcDbEntity
  8
レイヤ1
100
AcDbVertex
100
AcDb2dVertex
 10
-92.03395979071
 20
1564.41238103
  0
VERTEX
  5
21A
100
AcDbEntity
  8
レイヤ1
100
AcDbVertex
100
AcDb2dVertex
 10
-92.69370143796
 20
1571.174732915
  0
VERTEX
  5
21B
100
AcDbEntity
  8
レイヤ1
100
AcDbVertex
100
AcDb2dVertex
 10
-82.46770590566
 20
1580.081245152
  0
VERTEX
  5
21C
100
AcDbEntity
  8
レイヤ1
100
AcDbVertex
100
AcDb2dVertex
 10
-78.674191434
 20
1581.400728447
  0
VERTEX
  5
21D
100
AcDbEntity
  8
レイヤ1
100
AcDbVertex
100
AcDb2dVertex
 10
-74.71574155053
 20
1581.565663859
  0
VERTEX
  5
21E
100
AcDbEntity
  8
レイヤ1
100
AcDbVertex
100
AcDb2dVertex
 10
-72.24171037336
 20
1580.576051388
  0
VERTEX
  5
21F
100
AcDbEntity
  8
レイヤ1
100
AcDbVertex
100
AcDb2dVertex
 10
-65.6442939009
 20
1574.143570327
  0
VERTEX
  5
220
100
AcDbEntity
  8
レイヤ1
100
AcDbVertex
100
AcDb2dVertex
 10
-63.00532731192
 20
1570.185120444
  0
VERTEX
  5
221
100
AcDbEntity
  8
レイヤ1
100
AcDbVertex
100
AcDb2dVertex
 10
-62.51052107649
 20
1566.556541384
  0
VERTEX
  5
222
100
AcDbEntity
  8
レイヤ1
100
AcDbVertex
100
AcDb2dVertex
 10
-62.84039190011
 20
1563.092897736
  0
VERTEX
  5
223
100
AcDbEntity
  8
レイヤ1
100
AcDbVertex
100
AcDb2dVertex
 10
-62.01571484106
 20
1560.948737382
  0
VERTEX
  5
224
100
AcDbEntity
  8
レイヤ1
100
AcDbVertex
100
AcDb2dVertex
 10
-59.67568388464
 20
1559.749124759
  0
SEQEND
  5
225
100
AcDbEntity
  8
レイヤ1
  0
POLYLINE
  5
226
100
AcDbEntity
  8
レイヤ1
  6
CONTINUOUS
 62
     0
100
AcDb2dPolyline
 66
     1
 10
0
 20
0
 70
     0
  0
VERTEX
  5
227
100
AcDbEntity
  8
レイヤ1
100
AcDbVertex
100
AcDb2dVertex
 10
-64.48823903662
 20
1559.267869244
  0
VERTEX
  5
228
100
AcDbEntity
  8
レイヤ1
100
AcDbVertex
100
AcDb2dVertex
 10
-73.53415507575
 20
1560.715304204
  0
VERTEX
  5
229
100
AcDbEntity
  8
レイヤ1
100
AcDbVertex
100
AcDb2dVertex
 10
-81.0761196989
 20
1559.772558626
  0
VERTEX
  5
22A
100
AcDbEntity
  8
レイヤ1
100
AcDbVertex
100
AcDb2dVertex
 10
-89.32514350547
 20
1554.823144342
  0
VERTEX
  5
22B
100
AcDbEntity
  8
レイヤ1
100
AcDbVertex
100
AcDb2dVertex
 10
-91.21063466126
 20
1552.466280397
  0
VERTEX
  5
22C
100
AcDbEntity
  8
レイヤ1
100
AcDbVertex
100
AcDb2dVertex
 10
-95.45298976179
 20
1558.122753865
  0
VERTEX
  5
22D
100
AcDbEntity
  8
レイヤ1
100
AcDbVertex
100
AcDb2dVertex
 10
-97.57416731205
 20
1564.486286515
  0
VERTEX
  5
22E
100
AcDbEntity
  8
レイヤ1
100
AcDbVertex
100
AcDb2dVertex
 10
-99.22397207336
 20
1564.957659304
  0
VERTEX
  5
22F
100
AcDbEntity
  8
レイヤ1
100
AcDbVertex
100
AcDb2dVertex
 10
-103.9376999628
 20
1563.307854543
  0
VERTEX
  5
230
100
AcDbEntity
  8
レイヤ1
100
AcDbVertex
100
AcDb2dVertex
 10
-114.5435877141
 20
1554.587457948
  0
VERTEX
  5
231
100
AcDbEntity
  8
レイヤ1
100
AcDbVertex
100
AcDb2dVertex
 10
-118.0788836312
 20
1549.873730058
  0
VERTEX
  5
232
100
AcDbEntity
  8
レイヤ1
100
AcDbVertex
100
AcDb2dVertex
 10
-118.3145700257
 20
1547.281179719
  0
VERTEX
  5
233
100
AcDbEntity
  8
レイヤ1
100
AcDbVertex
100
AcDb2dVertex
 10
-117.1361380534
 20
1542.09607904
  0
VERTEX
  5
234
100
AcDbEntity
  8
レイヤ1
100
AcDbVertex
100
AcDb2dVertex
 10
-109.1228006413
 20
1537.382351151
  0
VERTEX
  5
235
100
AcDbEntity
  8
レイヤ1
100
AcDbVertex
100
AcDb2dVertex
 10
-106.530250302
 20
1536.910978362
  0
VERTEX
  5
236
100
AcDbEntity
  8
レイヤ1
100
AcDbVertex
100
AcDb2dVertex
 10
-99.22397207336
 20
1539.503528701
  0
VERTEX
  5
237
100
AcDbEntity
  8
レイヤ1
100
AcDbVertex
100
AcDb2dVertex
 10
-94.74593057837
 20
1542.803138224
  0
VERTEX
  5
238
100
AcDbEntity
  8
レイヤ1
100
AcDbVertex
100
AcDb2dVertex
 10
-92.38906663363
 20
1548.93098448
  0
VERTEX
  5
239
100
AcDbEntity
  8
レイヤ1
100
AcDbVertex
100
AcDb2dVertex
 10
-90.0322026889
 20
1548.93098448
  0
VERTEX
  5
23A
100
AcDbEntity
  8
レイヤ1
100
AcDbVertex
100
AcDb2dVertex
 10
-87.67533874416
 20
1545.867061352
  0
VERTEX
  5
23B
100
AcDbEntity
  8
レイヤ1
100
AcDbVertex
100
AcDb2dVertex
 10
-82.05406534138
 20
1543.627065
  0
SEQEND
  5
23C
100
AcDbEntity
  8
レイヤ1
  0
POLYLINE
  5
23D
100
AcDbEntity
  8
レイヤ1
  6
CONTINUOUS
 62
     0
100
AcDb2dPolyline
 66
     1
 10
0
 20
0
 70
     0
  0
VERTEX
  5
23E
100
AcDbEntity
  8
レイヤ1
100
AcDbVertex
100
AcDb2dVertex
 10
-95.52423915029
 20
1502.571237771
  0
VERTEX
  5
23F
100
AcDbEntity
  8
レイヤ1
100
AcDbVertex
100
AcDb2dVertex
 10
-102.2878952015
 20
1499.672528035
  0
VERTEX
  5
240
100
AcDbEntity
  8
レイヤ1
100
AcDbVertex
100
AcDb2dVertex
 10
-104.8804455407
 20
1499.672528035
  0
VERTEX
  5
241
100
AcDbEntity
  8
レイヤ1
100
AcDbVertex
100
AcDb2dVertex
 10
-105.5875047241
 20
1501.793705585
  0
VERTEX
  5
242
100
AcDbEntity
  8
レイヤ1
100
AcDbVertex
100
AcDb2dVertex
 10
-105.1161319352
 20
1506.036060686
  0
VERTEX
  5
243
100
AcDbEntity
  8
レイヤ1
100
AcDbVertex
100
AcDb2dVertex
 10
-102.052208807
 20
1510.98547497
  0
VERTEX
  5
244
100
AcDbEntity
  8
レイヤ1
100
AcDbVertex
100
AcDb2dVertex
 10
-98.75259928442
 20
1512.163906942
  0
VERTEX
  5
245
100
AcDbEntity
  8
レイヤ1
100
AcDbVertex
100
AcDb2dVertex
 10
-89.89521643182
 20
1514.378252655
  0
SEQEND
  5
246
100
AcDbEntity
  8
レイヤ1
  0
POLYLINE
  5
247
100
AcDbEntity
  8
レイヤ1
  6
CONTINUOUS
 62
     0
100
AcDb2dPolyline
 66
     1
 10
0
 20
0
 70
     0
  0
VERTEX
  5
248
100
AcDbEntity
  8
レイヤ1
100
AcDbVertex
100
AcDb2dVertex
 10
-111.1992493867
 20
1538.603791589
  0
VERTEX
  5
249
100
AcDbEntity
  8
レイヤ1
100
AcDbVertex
100
AcDb2dVertex
 10
-112.1867237694
 20
1536.910978362
  0
VERTEX
  5
24A
100
AcDbEntity
  8
レイヤ1
100
AcDbVertex
100
AcDb2dVertex
 10
-111.7153509805
 20
1534.082741628
  0
VERTEX
  5
24B
100
AcDbEntity
  8
レイヤ1
100
AcDbVertex
100
AcDb2dVertex
 10
-110.7726054026
 20
1533.13999605
  0
VERTEX
  5
24C
100
AcDbEntity
  8
レイヤ1
100
AcDbVertex
100
AcDb2dVertex
 10
-115.2506468976
 20
1530.547445711
  0
VERTEX
  5
24D
100
AcDbEntity
  8
レイヤ1
100
AcDbVertex
100
AcDb2dVertex
 10
-119.2573156036
 20
1527.483522583
  0
VERTEX
  5
24E
100
AcDbEntity
  8
レイヤ1
100
AcDbVertex
100
AcDb2dVertex
 10
-122.0855523373
 20
1523.005481088
  0
VERTEX
  5
24F
100
AcDbEntity
  8
レイヤ1
100
AcDbVertex
100
AcDb2dVertex
 10
-119.964374787
 20
1519.234498776
  0
VERTEX
  5
250
100
AcDbEntity
  8
レイヤ1
100
AcDbVertex
100
AcDb2dVertex
 10
-115.957706081
 20
1516.641948437
  0
VERTEX
  5
251
100
AcDbEntity
  8
レイヤ1
100
AcDbVertex
100
AcDb2dVertex
 10
-107.7086822744
 20
1514.049398098
  0
VERTEX
  5
252
100
AcDbEntity
  8
レイヤ1
100
AcDbVertex
100
AcDb2dVertex
 10
-107.001623091
 20
1512.635279731
  0
VERTEX
  5
253
100
AcDbEntity
  8
レイヤ1
100
AcDbVertex
100
AcDb2dVertex
 10
-110.5369190081
 20
1508.392924631
  0
VERTEX
  5
254
100
AcDbEntity
  8
レイヤ1
100
AcDbVertex
100
AcDb2dVertex
 10
-111.9510373749
 20
1503.679196741
  0
VERTEX
  5
255
100
AcDbEntity
  8
レイヤ1
100
AcDbVertex
100
AcDb2dVertex
 10
-111.9510373749
 20
1499.201155246
  0
VERTEX
  5
256
100
AcDbEntity
  8
レイヤ1
100
AcDbVertex
100
AcDb2dVertex
 10
-110.3012326136
 20
1496.608604907
  0
VERTEX
  5
257
100
AcDbEntity
  8
レイヤ1
100
AcDbVertex
100
AcDb2dVertex
 10
-106.530250302
 20
1495.19448654
  0
VERTEX
  5
258
100
AcDbEntity
  8
レイヤ1
100
AcDbVertex
100
AcDb2dVertex
 10
-102.7592679905
 20
1495.665859329
  0
VERTEX
  5
259
100
AcDbEntity
  8
レイヤ1
100
AcDbVertex
100
AcDb2dVertex
 10
-96.49173079734
 20
1498.148418814
  0
SEQEND
  5
25A
100
AcDbEntity
  8
レイヤ1
  0
POLYLINE
  5
25B
100
AcDbEntity
  8
レイヤ1
  6
CONTINUOUS
 62
     0
100
AcDb2dPolyline
 66
     1
 10
0
 20
0
 70
     0
  0
VERTEX
  5
25C
100
AcDbEntity
  8
レイヤ1
100
AcDbVertex
100
AcDb2dVertex
 10
-87.67533874416
 20
1545.867061352
  0
VERTEX
  5
25D
100
AcDbEntity
  8
レイヤ1
100
AcDbVertex
100
AcDb2dVertex
 10
-90.50357547784
 20
1544.68862938
  0
VERTEX
  5
25E
100
AcDbEntity
  8
レイヤ1
100
AcDbVertex
100
AcDb2dVertex
 10
-92.86043942258
 20
1542.331765435
  0
VERTEX
  5
25F
100
AcDbEntity
  8
レイヤ1
100
AcDbVertex
100
AcDb2dVertex
 10
-93.567498606
 20
1540.210587885
  0
VERTEX
  5
260
100
AcDbEntity
  8
レイヤ1
100
AcDbVertex
100
AcDb2dVertex
 10
-83.73845964457
 20
1539.536393121
  0
SEQEND
  5
261
100
AcDbEntity
  8
レイヤ1
  0
POLYLINE
  5
262
100
AcDbEntity
  8
レイヤ1
  6
CONTINUOUS
 62
     0
100
AcDb2dPolyline
 66
     1
 10
0
 20
0
 70
     0
  0
VERTEX
  5
263
100
AcDbEntity
  8
レイヤ1
100
AcDbVertex
100
AcDb2dVertex
 10
52.5748609052
 20
1549.917285442
  0
VERTEX
  5
264
100
AcDbEntity
  8
レイヤ1
100
AcDbVertex
100
AcDb2dVertex
 10
53.26512515102
 20
1553.64471237
  0
VERTEX
  5
265
100
AcDbEntity
  8
レイヤ1
100
AcDbVertex
100
AcDb2dVertex
 10
53.02943875655
 20
1558.122753865
  0
VERTEX
  5
266
100
AcDbEntity
  8
レイヤ1
100
AcDbVertex
100
AcDb2dVertex
 10
51.14394760076
 20
1561.658049782
  0
VERTEX
  5
267
100
AcDbEntity
  8
レイヤ1
100
AcDbVertex
100
AcDb2dVertex
 10
49.25845644497
 20
1569.200014405
  0
VERTEX
  5
268
100
AcDbEntity
  8
レイヤ1
100
AcDbVertex
100
AcDb2dVertex
 10
57.27179385707
 20
1563.779227332
  0
VERTEX
  5
269
100
AcDbEntity
  8
レイヤ1
100
AcDbVertex
100
AcDb2dVertex
 10
59.15728501286
 20
1560.243931415
  0
VERTEX
  5
26A
100
AcDbEntity
  8
レイヤ1
100
AcDbVertex
100
AcDb2dVertex
 10
59.86434419628
 20
1556.001576314
  0
VERTEX
  5
26B
100
AcDbEntity
  8
レイヤ1
100
AcDbVertex
100
AcDb2dVertex
 10
62.92826732444
 20
1553.880398764
  0
VERTEX
  5
26C
100
AcDbEntity
  8
レイヤ1
100
AcDbVertex
100
AcDb2dVertex
 10
68.5847407918
 20
1555.530203525
  0
VERTEX
  5
26D
100
AcDbEntity
  8
レイヤ1
100
AcDbVertex
100
AcDb2dVertex
 10
72.35572310338
 20
1554.823144342
  0
VERTEX
  5
26E
100
AcDbEntity
  8
レイヤ1
100
AcDbVertex
100
AcDb2dVertex
 10
76.83376459838
 20
1551.05216203
  0
VERTEX
  5
26F
100
AcDbEntity
  8
レイヤ1
100
AcDbVertex
100
AcDb2dVertex
 10
79.19062854311
 20
1547.281179719
  0
VERTEX
  5
270
100
AcDbEntity
  8
レイヤ1
100
AcDbVertex
100
AcDb2dVertex
 10
68.11336800286
 20
1547.988238902
  0
VERTEX
  5
271
100
AcDbEntity
  8
レイヤ1
100
AcDbVertex
100
AcDb2dVertex
 10
65.75650405812
 20
1545.867061352
  0
VERTEX
  5
272
100
AcDbEntity
  8
レイヤ1
100
AcDbVertex
100
AcDb2dVertex
 10
60.94823284994
 20
1544.442388401
  0
SEQEND
  5
273
100
AcDbEntity
  8
レイヤ1
  0
POLYLINE
  5
274
100
AcDbEntity
  8
レイヤ1
  6
CONTINUOUS
 62
     0
100
AcDb2dPolyline
 66
     1
 10
0
 20
0
 70
     0
  0
VERTEX
  5
275
100
AcDbEntity
  8
レイヤ1
100
AcDbVertex
100
AcDb2dVertex
 10
64.00698352143
 20
1537.61137106
  0
VERTEX
  5
276
100
AcDbEntity
  8
レイヤ1
100
AcDbVertex
100
AcDb2dVertex
 10
68.28326048988
 20
1541.156487965
  0
VERTEX
  5
277
100
AcDbEntity
  8
レイヤ1
100
AcDbVertex
100
AcDb2dVertex
 10
71.4170333143
 20
1544.785067025
  0
VERTEX
  5
278
100
AcDbEntity
  8
レイヤ1
100
AcDbVertex
100
AcDb2dVertex
 10
73.65199827298
 20
1547.634709311
  0
SEQEND
  5
279
100
AcDbEntity
  8
レイヤ1
  0
POLYLINE
  5
27A
100
AcDbEntity
  8
レイヤ1
  6
CONTINUOUS
 62
     0
100
AcDb2dPolyline
 66
     1
 10
0
 20
0
 70
     0
  0
VERTEX
  5
27B
100
AcDbEntity
  8
レイヤ1
100
AcDbVertex
100
AcDb2dVertex
 10
69.74426674101
 20
1547.884138983
  0
VERTEX
  5
27C
100
AcDbEntity
  8
レイヤ1
100
AcDbVertex
100
AcDb2dVertex
 10
67.12871260721
 20
1545.609744084
  0
VERTEX
  5
27D
100
AcDbEntity
  8
レイヤ1
100
AcDbVertex
100
AcDb2dVertex
 10
62.56321697583
 20
1543.386437242
  0
SEQEND
  5
27E
100
AcDbEntity
  8
レイヤ1
  0
POLYLINE
  5
27F
100
AcDbEntity
  8
レイヤ1
  6
CONTINUOUS
 62
     0
100
AcDb2dPolyline
 66
     1
 10
0
 20
0
 70
     0
  0
VERTEX
  5
280
100
AcDbEntity
  8
レイヤ1
100
AcDbVertex
100
AcDb2dVertex
 10
66.29357680065
 20
1534.822842671
  0
VERTEX
  5
281
100
AcDbEntity
  8
レイヤ1
100
AcDbVertex
100
AcDb2dVertex
 10
70.92222707887
 20
1536.703231846
  0
VERTEX
  5
282
100
AcDbEntity
  8
レイヤ1
100
AcDbVertex
100
AcDb2dVertex
 10
79.82873931668
 20
1541.486358789
  0
VERTEX
  5
283
100
AcDbEntity
  8
レイヤ1
100
AcDbVertex
100
AcDb2dVertex
 10
84.61186625921
 20
1550.557806438
  0
VERTEX
  5
284
100
AcDbEntity
  8
レイヤ1
100
AcDbVertex
100
AcDb2dVertex
 10
86.42615578913
 20
1552.207160556
  0
VERTEX
  5
285
100
AcDbEntity
  8
レイヤ1
100
AcDbVertex
100
AcDb2dVertex
 10
88.9001869663
 20
1552.372095968
  0
VERTEX
  5
286
100
AcDbEntity
  8
レイヤ1
100
AcDbVertex
100
AcDb2dVertex
 10
92.36383061434
 20
1555.011062557
  0
VERTEX
  5
287
100
AcDbEntity
  8
レイヤ1
100
AcDbVertex
100
AcDb2dVertex
 10
94.01318473245
 20
1555.011062557
  0
VERTEX
  5
288
100
AcDbEntity
  8
レイヤ1
100
AcDbVertex
100
AcDb2dVertex
 10
99.1261824986
 20
1552.701966792
  0
VERTEX
  5
289
100
AcDbEntity
  8
レイヤ1
100
AcDbVertex
100
AcDb2dVertex
 10
100.2807303813
 20
1550.392871026
  0
VERTEX
  5
28A
100
AcDbEntity
  8
レイヤ1
100
AcDbVertex
100
AcDb2dVertex
 10
100.4456657931
 20
1546.599356555
  0
VERTEX
  5
28B
100
AcDbEntity
  8
レイヤ1
100
AcDbVertex
100
AcDb2dVertex
 10
99.78592414585
 20
1544.620131613
  0
VERTEX
  5
28C
100
AcDbEntity
  8
レイヤ1
100
AcDbVertex
100
AcDb2dVertex
 10
95.66253885056
 20
1541.816229612
  0
VERTEX
  5
28D
100
AcDbEntity
  8
レイヤ1
100
AcDbVertex
100
AcDb2dVertex
 10
101.2703428521
 20
1542.970777495
  0
VERTEX
  5
28E
100
AcDbEntity
  8
レイヤ1
100
AcDbVertex
100
AcDb2dVertex
 10
102.259955323
 20
1542.311035848
  0
VERTEX
  5
28F
100
AcDbEntity
  8
レイヤ1
100
AcDbVertex
100
AcDb2dVertex
 10
102.0950199112
 20
1540.496746318
  0
VERTEX
  5
290
100
AcDbEntity
  8
レイヤ1
100
AcDbVertex
100
AcDb2dVertex
 10
92.85863684977
 20
1538.022715141
  0
VERTEX
  5
291
100
AcDbEntity
  8
レイヤ1
100
AcDbVertex
100
AcDb2dVertex
 10
96.157345086
 20
1535.548683963
  0
VERTEX
  5
292
100
AcDbEntity
  8
レイヤ1
100
AcDbVertex
100
AcDb2dVertex
 10
97.80669920411
 20
1533.239588198
  0
VERTEX
  5
293
100
AcDbEntity
  8
レイヤ1
100
AcDbVertex
100
AcDb2dVertex
 10
97.6417637923
 20
1528.621396667
  0
VERTEX
  5
294
100
AcDbEntity
  8
レイヤ1
100
AcDbVertex
100
AcDb2dVertex
 10
96.157345086
 20
1526.642171726
  0
VERTEX
  5
295
100
AcDbEntity
  8
レイヤ1
100
AcDbVertex
100
AcDb2dVertex
 10
93.02357226158
 20
1525.487623843
  0
VERTEX
  5
296
100
AcDbEntity
  8
レイヤ1
100
AcDbVertex
100
AcDb2dVertex
 10
85.43654331826
 20
1525.487623843
  0
VERTEX
  5
297
100
AcDbEntity
  8
レイヤ1
100
AcDbVertex
100
AcDb2dVertex
 10
81.6430288466
 20
1527.136977961
  0
VERTEX
  5
298
100
AcDbEntity
  8
レイヤ1
100
AcDbVertex
100
AcDb2dVertex
 10
78.34432061038
 20
1530.105815374
  0
VERTEX
  5
299
100
AcDbEntity
  8
レイヤ1
100
AcDbVertex
100
AcDb2dVertex
 10
76.03522484502
 20
1534.394136081
  0
VERTEX
  5
29A
100
AcDbEntity
  8
レイヤ1
100
AcDbVertex
100
AcDb2dVertex
 10
68.8908358209
 20
1531.655453621
  0
SEQEND
  5
29B
100
AcDbEntity
  8
レイヤ1
  0
POLYLINE
  5
29C
100
AcDbEntity
  8
レイヤ1
  6
CONTINUOUS
 62
     0
100
AcDb2dPolyline
 66
     1
 10
0
 20
0
 70
     0
  0
VERTEX
  5
29D
100
AcDbEntity
  8
レイヤ1
100
AcDbVertex
100
AcDb2dVertex
 10
-21.68314829157
 20
1328.092832858
  0
VERTEX
  5
29E
100
AcDbEntity
  8
レイヤ1
100
AcDbVertex
100
AcDb2dVertex
 10
-20.94679730004
 20
1312.391071783
  0
VERTEX
  5
29F
100
AcDbEntity
  8
レイヤ1
100
AcDbVertex
100
AcDb2dVertex
 10
-18.9675723583
 20
1304.474172016
  0
VERTEX
  5
2A0
100
AcDbEntity
  8
レイヤ1
100
AcDbVertex
100
AcDb2dVertex
 10
-15.66886412208
 20
1299.36117425
  0
VERTEX
  5
2A1
100
AcDbEntity
  8
レイヤ1
100
AcDbVertex
100
AcDb2dVertex
 10
-14.5143162394
 20
1298.701432602
  0
SEQEND
  5
2A2
100
AcDbEntity
  8
レイヤ1
  0
POLYLINE
  5
2A3
100
AcDbEntity
  8
レイヤ1
  6
CONTINUOUS
 62
     0
100
AcDb2dPolyline
 66
     1
 10
0
 20
0
 70
     0
  0
VERTEX
  5
2A4
100
AcDbEntity
  8
レイヤ1
100
AcDbVertex
100
AcDb2dVertex
 10
53.91564196822
 20
1369.195883822
  0
VERTEX
  5
2A5
100
AcDbEntity
  8
レイヤ1
100
AcDbVertex
100
AcDb2dVertex
 10
53.9338796623
 20
1359.562599561
  0
VERTEX
  5
2A6
100
AcDbEntity
  8
レイヤ1
100
AcDbVertex
100
AcDb2dVertex
 10
55.08842754498
 20
1349.996345676
  0
SEQEND
  5
2A7
100
AcDbEntity
  8
レイヤ1
  0
POLYLINE
  5
2A8
100
AcDbEntity
  8
レイヤ1
  6
CONTINUOUS
 62
     0
100
AcDb2dPolyline
 66
     1
 10
0
 20
0
 70
     0
  0
VERTEX
  5
2A9
100
AcDbEntity
  8
レイヤ1
100
AcDbVertex
100
AcDb2dVertex
 10
-20.94679730004
 20
1312.391071783
  0
VERTEX
  5
2AA
100
AcDbEntity
  8
レイヤ1
100
AcDbVertex
100
AcDb2dVertex
 10
-20.78186188823
 20
1301.010528368
  0
VERTEX
  5
2AB
100
AcDbEntity
  8
レイヤ1
100
AcDbVertex
100
AcDb2dVertex
 10
-19.79224941736
 20
1291.444274483
  0
SEQEND
  5
2AC
100
AcDbEntity
  8
レイヤ1
  0
POLYLINE
  5
2AD
100
AcDbEntity
  8
レイヤ1
  6
CONTINUOUS
 62
     0
100
AcDb2dPolyline
 66
     1
 10
0
 20
0
 70
     0
  0
VERTEX
  5
2AE
100
AcDbEntity
  8
レイヤ1
100
AcDbVertex
100
AcDb2dVertex
 10
104.4090727518
 20
1333.98499272
  0
VERTEX
  5
2AF
100
AcDbEntity
  8
レイヤ1
100
AcDbVertex
100
AcDb2dVertex
 10
98.51691288994
 20
1343.412448499
  0
VERTEX
  5
2B0
100
AcDbEntity
  8
レイヤ1
100
AcDbVertex
100
AcDb2dVertex
 10
90.0322026889
 20
1349.540294756
  0
VERTEX
  5
2B1
100
AcDbEntity
  8
レイヤ1
100
AcDbVertex
100
AcDb2dVertex
 10
81.54749248785
 20
1352.839904278
  0
VERTEX
  5
2B2
100
AcDbEntity
  8
レイヤ1
100
AcDbVertex
100
AcDb2dVertex
 10
70.70591834206
 20
1352.839904278
  0
VERTEX
  5
2B3
100
AcDbEntity
  8
レイヤ1
100
AcDbVertex
100
AcDb2dVertex
 10
62.92826732444
 20
1351.8971587
  0
VERTEX
  5
2B4
100
AcDbEntity
  8
レイヤ1
100
AcDbVertex
100
AcDb2dVertex
 10
55.08842754498
 20
1349.996345676
  0
VERTEX
  5
2B5
100
AcDbEntity
  8
レイヤ1
100
AcDbVertex
100
AcDb2dVertex
 10
37.47413672129
 20
1343.176762105
  0
VERTEX
  5
2B6
100
AcDbEntity
  8
レイヤ1
100
AcDbVertex
100
AcDb2dVertex
 10
24.27569863078
 20
1334.692051904
  0
VERTEX
  5
2B7
100
AcDbEntity
  8
レイヤ1
100
AcDbVertex
100
AcDb2dVertex
 10
10.84157414578
 20
1325.971655308
  0
VERTEX
  5
2B8
100
AcDbEntity
  8
レイヤ1
100
AcDbVertex
100
AcDb2dVertex
 10
-3.770982311577
 20
1312.773217218
  0
VERTEX
  5
2B9
100
AcDbEntity
  8
レイヤ1
100
AcDbVertex
100
AcDb2dVertex
 10
-27.57530815341
 20
1279.070062808
  0
SEQEND
  5
2BA
100
AcDbEntity
  8
レイヤ1
  0
POLYLINE
  5
2BB
100
AcDbEntity
  8
レイヤ1
  6
CONTINUOUS
 62
     0
100
AcDb2dPolyline
 66
     1
 10
0
 20
0
 70
     0
  0
VERTEX
  5
2BC
100
AcDbEntity
  8
レイヤ1
100
AcDbVertex
100
AcDb2dVertex
 10
37.47413672129
 20
1343.176762105
  0
VERTEX
  5
2BD
100
AcDbEntity
  8
レイヤ1
100
AcDbVertex
100
AcDb2dVertex
 10
13.43412448499
 20
1324.086164152
  0
VERTEX
  5
2BE
100
AcDbEntity
  8
レイヤ1
100
AcDbVertex
100
AcDb2dVertex
 10
-1.885491155788
 20
1308.530862117
  0
VERTEX
  5
2BF
100
AcDbEntity
  8
レイヤ1
100
AcDbVertex
100
AcDb2dVertex
 10
-27.57530815341
 20
1279.070062808
  0
VERTEX
  5
2C0
100
AcDbEntity
  8
レイヤ1
100
AcDbVertex
100
AcDb2dVertex
 10
-37.47413672129
 20
1267.992802268
  0
VERTEX
  5
2C1
100
AcDbEntity
  8
レイヤ1
100
AcDbVertex
100
AcDb2dVertex
 10
-55.85767549023
 20
1243.952790031
  0
VERTEX
  5
2C2
100
AcDbEntity
  8
レイヤ1
100
AcDbVertex
100
AcDb2dVertex
 10
-67.02058163285
 20
1227.924827303
  0
VERTEX
  5
2C3
100
AcDbEntity
  8
レイヤ1
100
AcDbVertex
100
AcDb2dVertex
 10
-77.12418690413
 20
1210.4119115
  0
VERTEX
  5
2C4
100
AcDbEntity
  8
レイヤ1
100
AcDbVertex
100
AcDb2dVertex
 10
-80.82884217027
 20
1202.329027283
  0
VERTEX
  5
2C5
100
AcDbEntity
  8
レイヤ1
100
AcDbVertex
100
AcDb2dVertex
 10
-92.27959481106
 20
1164.272114094
  0
VERTEX
  5
2C6
100
AcDbEntity
  8
レイヤ1
100
AcDbVertex
100
AcDb2dVertex
 10
-99.01533165858
 20
1138.676314074
  0
VERTEX
  5
2C7
100
AcDbEntity
  8
レイヤ1
100
AcDbVertex
100
AcDb2dVertex
 10
-99.01533165858
 20
1128.572708802
  0
VERTEX
  5
2C8
100
AcDbEntity
  8
レイヤ1
100
AcDbVertex
100
AcDb2dVertex
 10
-96.65782376195
 20
1119.479464058
  0
VERTEX
  5
2C9
100
AcDbEntity
  8
レイヤ1
100
AcDbVertex
100
AcDb2dVertex
 10
-97.3313974467
 20
1103.650482467
  0
VERTEX
  5
2CA
100
AcDbEntity
  8
レイヤ1
100
AcDbVertex
100
AcDb2dVertex
 10
-93.62674218057
 20
1089.842221929
  0
VERTEX
  5
2CB
100
AcDbEntity
  8
レイヤ1
100
AcDbVertex
100
AcDb2dVertex
 10
-86.55421849067
 20
1078.728256131
  0
SEQEND
  5
2CC
100
AcDbEntity
  8
レイヤ1
  0
POLYLINE
  5
2CD
100
AcDbEntity
  8
レイヤ1
  6
CONTINUOUS
 62
     0
100
AcDb2dPolyline
 66
     1
 10
0
 20
0
 70
     0
  0
VERTEX
  5
2CE
100
AcDbEntity
  8
レイヤ1
100
AcDbVertex
100
AcDb2dVertex
 10
-21.17719304412
 20
1317.303971973
  0
VERTEX
  5
2CF
100
AcDbEntity
  8
レイヤ1
100
AcDbVertex
100
AcDb2dVertex
 10
-26.26937370534
 20
1311.447964213
  0
VERTEX
  5
2D0
100
AcDbEntity
  8
レイヤ1
100
AcDbVertex
100
AcDb2dVertex
 10
-28.62688160197
 20
1306.059374735
  0
VERTEX
  5
2D1
100
AcDbEntity
  8
レイヤ1
100
AcDbVertex
100
AcDb2dVertex
 10
-31.32117634098
 20
1291.24075367
  0
VERTEX
  5
2D2
100
AcDbEntity
  8
レイヤ1
100
AcDbVertex
100
AcDb2dVertex
 10
-32.45896577977
 20
1273.605017369
  0
SEQEND
  5
2D3
100
AcDbEntity
  8
レイヤ1
  0
POLYLINE
  5
2D4
100
AcDbEntity
  8
レイヤ1
  6
CONTINUOUS
 62
     0
100
AcDb2dPolyline
 66
     1
 10
0
 20
0
 70
     0
  0
VERTEX
  5
2D5
100
AcDbEntity
  8
レイヤ1
100
AcDbVertex
100
AcDb2dVertex
 10
-21.24886829442
 20
1318.832356763
  0
VERTEX
  5
2D6
100
AcDbEntity
  8
レイヤ1
100
AcDbVertex
100
AcDb2dVertex
 10
-26.05979506619
 20
1315.524844607
  0
VERTEX
  5
2D7
100
AcDbEntity
  8
レイヤ1
100
AcDbVertex
100
AcDb2dVertex
 10
-32.65721153864
 20
1307.937815664
  0
VERTEX
  5
2D8
100
AcDbEntity
  8
レイヤ1
100
AcDbVertex
100
AcDb2dVertex
 10
-41.08799476989
 20
1292.251114197
  0
VERTEX
  5
2D9
100
AcDbEntity
  8
レイヤ1
100
AcDbVertex
100
AcDb2dVertex
 10
-44.79265003603
 20
1281.810722084
  0
VERTEX
  5
2DA
100
AcDbEntity
  8
レイヤ1
100
AcDbVertex
100
AcDb2dVertex
 10
-50.51802635642
 20
1265.64495365
  0
VERTEX
  5
2DB
100
AcDbEntity
  8
レイヤ1
100
AcDbVertex
100
AcDb2dVertex
 10
-51.52838688355
 20
1256.551708905
  0
VERTEX
  5
2DC
100
AcDbEntity
  8
レイヤ1
100
AcDbVertex
100
AcDb2dVertex
 10
-52.05426466225
 20
1248.926481114
  0
SEQEND
  5
2DD
100
AcDbEntity
  8
レイヤ1
  0
POLYLINE
  5
2DE
100
AcDbEntity
  8
レイヤ1
  6
CONTINUOUS
 62
     0
100
AcDb2dPolyline
 66
     1
 10
0
 20
0
 70
     0
  0
VERTEX
  5
2DF
100
AcDbEntity
  8
レイヤ1
100
AcDbVertex
100
AcDb2dVertex
 10
-44.79265003603
 20
1281.810722084
  0
VERTEX
  5
2E0
100
AcDbEntity
  8
レイヤ1
100
AcDbVertex
100
AcDb2dVertex
 10
-54.55946846493
 20
1271.707116812
  0
VERTEX
  5
2E1
100
AcDbEntity
  8
レイヤ1
100
AcDbVertex
100
AcDb2dVertex
 10
-63.98950005147
 20
1256.214922063
  0
VERTEX
  5
2E2
100
AcDbEntity
  8
レイヤ1
100
AcDbVertex
100
AcDb2dVertex
 10
-72.07238426849
 20
1236.00771152
  0
VERTEX
  5
2E3
100
AcDbEntity
  8
レイヤ1
100
AcDbVertex
100
AcDb2dVertex
 10
-80.15526848552
 20
1209.738337815
  0
VERTEX
  5
2E4
100
AcDbEntity
  8
レイヤ1
100
AcDbVertex
100
AcDb2dVertex
 10
-83.96371116371
 20
1191.910197981
  0
SEQEND
  5
2E5
100
AcDbEntity
  8
レイヤ1
  0
POLYLINE
  5
2E6
100
AcDbEntity
  8
レイヤ1
  6
CONTINUOUS
 62
     0
100
AcDb2dPolyline
 66
     1
 10
0
 20
0
 70
     0
  0
VERTEX
  5
2E7
100
AcDbEntity
  8
レイヤ1
100
AcDbVertex
100
AcDb2dVertex
 10
-43.37801330638
 20
1283.692310127
  0
VERTEX
  5
2E8
100
AcDbEntity
  8
レイヤ1
100
AcDbVertex
100
AcDb2dVertex
 10
-67.12871260721
 20
1266.044221064
  0
VERTEX
  5
2E9
100
AcDbEntity
  8
レイヤ1
100
AcDbVertex
100
AcDb2dVertex
 10
-84.611415616
 20
1248.666517921
  0
VERTEX
  5
2EA
100
AcDbEntity
  8
レイヤ1
100
AcDbVertex
100
AcDb2dVertex
 10
-97.57416731205
 20
1231.461411124
  0
VERTEX
  5
2EB
100
AcDbEntity
  8
レイヤ1
100
AcDbVertex
100
AcDb2dVertex
 10
-115.517886935
 20
1189.531127273
  0
VERTEX
  5
2EC
100
AcDbEntity
  8
レイヤ1
100
AcDbVertex
100
AcDb2dVertex
 10
-124.9479185215
 20
1148.443132503
  0
VERTEX
  5
2ED
100
AcDbEntity
  8
レイヤ1
100
AcDbVertex
100
AcDb2dVertex
 10
-132.0204422114
 20
1095.56759825
  0
VERTEX
  5
2EE
100
AcDbEntity
  8
レイヤ1
100
AcDbVertex
100
AcDb2dVertex
 10
-135.0515237928
 20
1086.474353505
  0
VERTEX
  5
2EF
100
AcDbEntity
  8
レイヤ1
100
AcDbVertex
100
AcDb2dVertex
 10
-136.3986711623
 20
1056.837111376
  0
VERTEX
  5
2F0
100
AcDbEntity
  8
レイヤ1
100
AcDbVertex
100
AcDb2dVertex
 10
-137.7458185318
 20
994.1947586943
  0
VERTEX
  5
2F1
100
AcDbEntity
  8
レイヤ1
100
AcDbVertex
100
AcDb2dVertex
 10
-135.7250974776
 20
939.6352902294
  0
VERTEX
  5
2F2
100
AcDbEntity
  8
レイヤ1
100
AcDbVertex
100
AcDb2dVertex
 10
-130.6732948419
 20
887.7701165035
  0
VERTEX
  5
2F3
100
AcDbEntity
  8
レイヤ1
100
AcDbVertex
100
AcDb2dVertex
 10
-145.8287027489
 20
838.2624506742
  0
VERTEX
  5
2F4
100
AcDbEntity
  8
レイヤ1
100
AcDbVertex
100
AcDb2dVertex
 10
-154.5851606506
 20
790.1019322144
  0
VERTEX
  5
2F5
100
AcDbEntity
  8
レイヤ1
100
AcDbVertex
100
AcDb2dVertex
 10
-155.9323080201
 20
773.2625900956
  0
VERTEX
  5
2F6
100
AcDbEntity
  8
レイヤ1
100
AcDbVertex
100
AcDb2dVertex
 10
-155.2587343354
 20
767.2004269328
  0
VERTEX
  5
2F7
100
AcDbEntity
  8
レイヤ1
100
AcDbVertex
100
AcDb2dVertex
 10
-152.9012264388
 20
764.8429190362
  0
VERTEX
  5
2F8
100
AcDbEntity
  8
レイヤ1
100
AcDbVertex
100
AcDb2dVertex
 10
-136.3986711623
 20
712.3041716255
  0
VERTEX
  5
2F9
100
AcDbEntity
  8
レイヤ1
100
AcDbVertex
100
AcDb2dVertex
 10
-148.1862106455
 20
589.0401873159
  0
VERTEX
  5
2FA
100
AcDbEntity
  8
レイヤ1
100
AcDbVertex
100
AcDb2dVertex
 10
-156.9426685473
 20
478.5741030165
  0
VERTEX
  5
2FB
100
AcDbEntity
  8
レイヤ1
100
AcDbVertex
100
AcDb2dVertex
 10
-163.6784053948
 20
356.6572660763
  0
VERTEX
  5
2FC
100
AcDbEntity
  8
レイヤ1
100
AcDbVertex
100
AcDb2dVertex
 10
-167.3830606609
 20
173.1084369813
  0
VERTEX
  5
2FD
100
AcDbEntity
  8
レイヤ1
100
AcDbVertex
100
AcDb2dVertex
 10
-124.9479185215
 20
170.4141422423
  0
VERTEX
  5
2FE
100
AcDbEntity
  8
レイヤ1
100
AcDbVertex
100
AcDb2dVertex
 10
-118.8701122541
 20
157.37055347
  0
VERTEX
  5
2FF
100
AcDbEntity
  8
レイヤ1
100
AcDbVertex
100
AcDb2dVertex
 10
-117.9076012237
 20
102.9886802525
  0
VERTEX
  5
300
100
AcDbEntity
  8
レイヤ1
100
AcDbVertex
100
AcDb2dVertex
 10
-41.26174335228
 20
101.0912712131
  0
VERTEX
  5
301
100
AcDbEntity
  8
レイヤ1
100
AcDbVertex
100
AcDb2dVertex
 10
-30.31909745752
 20
81.33218206858
  0
VERTEX
  5
302
100
AcDbEntity
  8
レイヤ1
100
AcDbVertex
100
AcDb2dVertex
 10
3.368788606391
 20
95.28859200934
  0
VERTEX
  5
303
100
AcDbEntity
  8
レイヤ1
100
AcDbVertex
100
AcDb2dVertex
 10
52.45685115666
 20
124.1639229213
  0
VERTEX
  5
304
100
AcDbEntity
  8
レイヤ1
100
AcDbVertex
100
AcDb2dVertex
 10
57.75066182384
 20
114.5388126173
  0
VERTEX
  5
305
100
AcDbEntity
  8
レイヤ1
100
AcDbVertex
100
AcDb2dVertex
 10
70.26330521901
 20
97.69486958533
  0
VERTEX
  5
306
100
AcDbEntity
  8
レイヤ1
100
AcDbVertex
100
AcDb2dVertex
 10
106.3574688589
 20
128.0139670428
  0
VERTEX
  5
307
100
AcDbEntity
  8
レイヤ1
100
AcDbVertex
100
AcDb2dVertex
 10
122.2389008605
 20
136.6765663164
  0
VERTEX
  5
308
100
AcDbEntity
  8
レイヤ1
100
AcDbVertex
100
AcDb2dVertex
 10
143.4141435292
 20
153.0392538332
  0
VERTEX
  5
309
100
AcDbEntity
  8
レイヤ1
100
AcDbVertex
100
AcDb2dVertex
 10
150.6329762572
 20
154.4830203788
  0
VERTEX
  5
30A
100
AcDbEntity
  8
レイヤ1
100
AcDbVertex
100
AcDb2dVertex
 10
170.8457078955
 20
154.4830203788
  0
VERTEX
  5
30B
100
AcDbEntity
  8
レイヤ1
100
AcDbVertex
100
AcDb2dVertex
 10
174.2144965019
 20
156.8892979548
  0
VERTEX
  5
30C
100
AcDbEntity
  8
レイヤ1
100
AcDbVertex
100
AcDb2dVertex
 10
197.3147612315
 20
157.8518089852
  0
VERTEX
  5
30D
100
AcDbEntity
  8
レイヤ1
100
AcDbVertex
100
AcDb2dVertex
 10
205.0148494746
 20
161.7018531068
  0
VERTEX
  5
30E
100
AcDbEntity
  8
レイヤ1
100
AcDbVertex
100
AcDb2dVertex
 10
291.1595866952
 20
195.3897391707
  0
VERTEX
  5
30F
100
AcDbEntity
  8
レイヤ1
100
AcDbVertex
100
AcDb2dVertex
 10
297.4159083928
 20
202.1273163834
  0
VERTEX
  5
310
100
AcDbEntity
  8
レイヤ1
100
AcDbVertex
100
AcDb2dVertex
 10
276.7219212392
 20
382.598134583
  0
VERTEX
  5
311
100
AcDbEntity
  8
レイヤ1
100
AcDbVertex
100
AcDb2dVertex
 10
256.0279340857
 20
554.8876090241
  0
VERTEX
  5
312
100
AcDbEntity
  8
レイヤ1
100
AcDbVertex
100
AcDb2dVertex
 10
239.1839910537
 20
703.1143077053
  0
VERTEX
  5
313
100
AcDbEntity
  8
レイヤ1
100
AcDbVertex
100
AcDb2dVertex
 10
217.0462373546
 20
872.9975045704
  0
VERTEX
  5
314
100
AcDbEntity
  8
レイヤ1
100
AcDbVertex
100
AcDb2dVertex
 10
204.5335939594
 20
976.4674403381
  0
VERTEX
  5
315
100
AcDbEntity
  8
レイヤ1
100
AcDbVertex
100
AcDb2dVertex
 10
205.0148494746
 20
1014.967881554
  0
VERTEX
  5
316
100
AcDbEntity
  8
レイヤ1
100
AcDbVertex
100
AcDb2dVertex
 10
199.2397832923
 20
1033.255591132
  0
VERTEX
  5
317
100
AcDbEntity
  8
レイヤ1
100
AcDbVertex
100
AcDb2dVertex
 10
184.3208623211
 20
1049.618278648
  0
VERTEX
  5
318
100
AcDbEntity
  8
レイヤ1
100
AcDbVertex
100
AcDb2dVertex
 10
182.8770957755
 20
1112.181495624
  0
VERTEX
  5
319
100
AcDbEntity
  8
レイヤ1
100
AcDbVertex
100
AcDb2dVertex
 10
178.5457961387
 20
1134.319249323
  0
VERTEX
  5
31A
100
AcDbEntity
  8
レイヤ1
100
AcDbVertex
100
AcDb2dVertex
 10
179.5083071691
 20
1224.795286181
  0
VERTEX
  5
31B
100
AcDbEntity
  8
レイヤ1
100
AcDbVertex
100
AcDb2dVertex
 10
179.0270516539
 20
1234.901652
  0
VERTEX
  5
31C
100
AcDbEntity
  8
レイヤ1
100
AcDbVertex
100
AcDb2dVertex
 10
173.7332409867
 20
1250.783084001
  0
VERTEX
  5
31D
100
AcDbEntity
  8
レイヤ1
100
AcDbVertex
100
AcDb2dVertex
 10
162.6643641372
 20
1267.627027033
  0
VERTEX
  5
31E
100
AcDbEntity
  8
レイヤ1
100
AcDbVertex
100
AcDb2dVertex
 10
146.3016766204
 20
1283.98971455
  0
VERTEX
  5
31F
100
AcDbEntity
  8
レイヤ1
100
AcDbVertex
100
AcDb2dVertex
 10
127.5327115277
 20
1295.0585914
  0
VERTEX
  5
320
100
AcDbEntity
  8
レイヤ1
100
AcDbVertex
100
AcDb2dVertex
 10
107.8012354045
 20
1309.977512371
  0
VERTEX
  5
321
100
AcDbEntity
  8
レイヤ1
100
AcDbVertex
100
AcDb2dVertex
 10
104.8804455407
 20
1314.423021979
  0
VERTEX
  5
322
100
AcDbEntity
  8
レイヤ1
100
AcDbVertex
100
AcDb2dVertex
 10
104.4090727518
 20
1333.98499272
  0
SEQEND
  5
323
100
AcDbEntity
  8
レイヤ1
  0
POLYLINE
  5
324
100
AcDbEntity
  8
レイヤ1
  6
CONTINUOUS
 62
     0
100
AcDb2dPolyline
 66
     1
 10
0
 20
0
 70
     0
  0
VERTEX
  5
325
100
AcDbEntity
  8
レイヤ1
100
AcDbVertex
100
AcDb2dVertex
 10
-69.54818213464
 20
101.7915170728
  0
VERTEX
  5
326
100
AcDbEntity
  8
レイヤ1
100
AcDbVertex
100
AcDb2dVertex
 10
-73.08274479562
 20
96.99461060433
  0
VERTEX
  5
327
100
AcDbEntity
  8
レイヤ1
100
AcDbVertex
100
AcDb2dVertex
 10
-74.09310532275
 20
93.96352902294
  0
VERTEX
  5
328
100
AcDbEntity
  8
レイヤ1
100
AcDbVertex
100
AcDb2dVertex
 10
-73.75631848037
 20
86.89100533304
  0
VERTEX
  5
329
100
AcDbEntity
  8
レイヤ1
100
AcDbVertex
100
AcDb2dVertex
 10
-55.23304214969
 20
89.24851322968
  0
VERTEX
  5
32A
100
AcDbEntity
  8
レイヤ1
100
AcDbVertex
100
AcDb2dVertex
 10
-34.70318662519
 20
89.24851322968
  0
SEQEND
  5
32B
100
AcDbEntity
  8
レイヤ1
  0
POLYLINE
  5
32C
100
AcDbEntity
  8
レイヤ1
  6
CONTINUOUS
 62
     0
100
AcDb2dPolyline
 66
     1
 10
0
 20
0
 70
     0
  0
VERTEX
  5
32D
100
AcDbEntity
  8
レイヤ1
100
AcDbVertex
100
AcDb2dVertex
 10
-95.64746323482
 20
86.21743164829
  0
VERTEX
  5
32E
100
AcDbEntity
  8
レイヤ1
100
AcDbVertex
100
AcDb2dVertex
 10
-110.129297457
 20
81.8392026974
  0
VERTEX
  5
32F
100
AcDbEntity
  8
レイヤ1
100
AcDbVertex
100
AcDb2dVertex
 10
-112.4868053536
 20
79.14490795839
  0
VERTEX
  5
330
100
AcDbEntity
  8
レイヤ1
100
AcDbVertex
100
AcDb2dVertex
 10
-113.4971658808
 20
71.39881058374
  0
VERTEX
  5
331
100
AcDbEntity
  8
レイヤ1
100
AcDbVertex
100
AcDb2dVertex
 10
-110.8028711417
 20
57.59055004632
  0
VERTEX
  5
332
100
AcDbEntity
  8
レイヤ1
100
AcDbVertex
100
AcDb2dVertex
 10
-108.1085764027
 20
53.88589478018
  0
VERTEX
  5
333
100
AcDbEntity
  8
レイヤ1
100
AcDbVertex
100
AcDb2dVertex
 10
-93.28995533819
 20
46.47658424791
  0
VERTEX
  5
334
100
AcDbEntity
  8
レイヤ1
100
AcDbVertex
100
AcDb2dVertex
 10
-83.52313690928
 20
45.1294368784
  0
SEQEND
  5
335
100
AcDbEntity
  8
レイヤ1
  0
POLYLINE
  5
336
100
AcDbEntity
  8
レイヤ1
  6
CONTINUOUS
 62
     0
100
AcDb2dPolyline
 66
     1
 10
0
 20
0
 70
     0
  0
VERTEX
  5
337
100
AcDbEntity
  8
レイヤ1
100
AcDbVertex
100
AcDb2dVertex
 10
-46.47658424791
 20
66.01022110572
  0
VERTEX
  5
338
100
AcDbEntity
  8
レイヤ1
100
AcDbVertex
100
AcDb2dVertex
 10
-69.04130268711
 20
56.58018951919
  0
VERTEX
  5
339
100
AcDbEntity
  8
レイヤ1
100
AcDbVertex
100
AcDb2dVertex
 10
-77.79776058889
 20
55.90661583444
  0
VERTEX
  5
33A
100
AcDbEntity
  8
レイヤ1
100
AcDbVertex
100
AcDb2dVertex
 10
-81.50241585502
 20
53.88589478018
  0
VERTEX
  5
33B
100
AcDbEntity
  8
レイヤ1
100
AcDbVertex
100
AcDb2dVertex
 10
-82.84956322453
 20
51.19160004117
  0
VERTEX
  5
33C
100
AcDbEntity
  8
レイヤ1
100
AcDbVertex
100
AcDb2dVertex
 10
-83.52313690928
 20
45.1294368784
  0
VERTEX
  5
33D
100
AcDbEntity
  8
レイヤ1
100
AcDbVertex
100
AcDb2dVertex
 10
-82.84956322453
 20
39.06727371563
  0
VERTEX
  5
33E
100
AcDbEntity
  8
レイヤ1
100
AcDbVertex
100
AcDb2dVertex
 10
-79.81848164314
 20
36.709765819
  0
VERTEX
  5
33F
100
AcDbEntity
  8
レイヤ1
100
AcDbVertex
100
AcDb2dVertex
 10
-66.01022110572
 20
34.68904476474
  0
VERTEX
  5
340
100
AcDbEntity
  8
レイヤ1
100
AcDbVertex
100
AcDb2dVertex
 10
-67.6941553176
 20
32.66832371048
  0
VERTEX
  5
341
100
AcDbEntity
  8
レイヤ1
100
AcDbVertex
100
AcDb2dVertex
 10
-68.70451584473
 20
28.62688160197
  0
VERTEX
  5
342
100
AcDbEntity
  8
レイヤ1
100
AcDbVertex
100
AcDb2dVertex
 10
-67.6941553176
 20
26.60616054771
  0
VERTEX
  5
343
100
AcDbEntity
  8
レイヤ1
100
AcDbVertex
100
AcDb2dVertex
 10
-54.22268162256
 20
19.87042370019
  0
VERTEX
  5
344
100
AcDbEntity
  8
レイヤ1
100
AcDbVertex
100
AcDb2dVertex
 10
-38.73048687326
 20
16.83934211881
  0
VERTEX
  5
345
100
AcDbEntity
  8
レイヤ1
100
AcDbVertex
100
AcDb2dVertex
 10
-19.19685001544
 20
15.4921947493
  0
VERTEX
  5
346
100
AcDbEntity
  8
レイヤ1
100
AcDbVertex
100
AcDb2dVertex
 10
-12.46111316792
 20
15.82898159168
  0
VERTEX
  5
347
100
AcDbEntity
  8
レイヤ1
100
AcDbVertex
100
AcDb2dVertex
 10
11.78753948316
 20
22.90150528158
  0
VERTEX
  5
348
100
AcDbEntity
  8
レイヤ1
100
AcDbVertex
100
AcDb2dVertex
 10
25.25901317821
 20
28.2900947596
  0
VERTEX
  5
349
100
AcDbEntity
  8
レイヤ1
100
AcDbVertex
100
AcDb2dVertex
 10
57.92733688869
 20
44.79265003603
  0
VERTEX
  5
34A
100
AcDbEntity
  8
レイヤ1
100
AcDbVertex
100
AcDb2dVertex
 10
66.3470079481
 20
43.10871582414
  0
VERTEX
  5
34B
100
AcDbEntity
  8
レイヤ1
100
AcDbVertex
100
AcDb2dVertex
 10
78.13454743126
 20
45.46622372078
  0
VERTEX
  5
34C
100
AcDbEntity
  8
レイヤ1
100
AcDbVertex
100
AcDb2dVertex
 10
89.92208691443
 20
52.87553425305
  0
VERTEX
  5
34D
100
AcDbEntity
  8
レイヤ1
100
AcDbVertex
100
AcDb2dVertex
 10
93.62674218056
 20
58.93769741582
  0
SEQEND
  5
34E
100
AcDbEntity
  8
レイヤ1
  0
POLYLINE
  5
34F
100
AcDbEntity
  8
レイヤ1
  6
CONTINUOUS
 62
     0
100
AcDb2dPolyline
 66
     1
 10
0
 20
0
 70
     0
  0
VERTEX
  5
350
100
AcDbEntity
  8
レイヤ1
100
AcDbVertex
100
AcDb2dVertex
 10
-46.47658424791
 20
66.01022110572
  0
VERTEX
  5
351
100
AcDbEntity
  8
レイヤ1
100
AcDbVertex
100
AcDb2dVertex
 10
-49.84445267167
 20
60.6216316277
  0
VERTEX
  5
352
100
AcDbEntity
  8
レイヤ1
100
AcDbVertex
100
AcDb2dVertex
 10
-50.8548131988
 20
56.24340267681
  0
VERTEX
  5
353
100
AcDbEntity
  8
レイヤ1
100
AcDbVertex
100
AcDb2dVertex
 10
-50.8548131988
 20
45.46622372078
  0
VERTEX
  5
354
100
AcDbEntity
  8
レイヤ1
100
AcDbVertex
100
AcDb2dVertex
 10
-46.81337109028
 20
47.82373161741
  0
VERTEX
  5
355
100
AcDbEntity
  8
レイヤ1
100
AcDbVertex
100
AcDb2dVertex
 10
12.12432632554
 20
48.49730530216
  0
VERTEX
  5
356
100
AcDbEntity
  8
レイヤ1
100
AcDbVertex
100
AcDb2dVertex
 10
49.84445267167
 20
47.15015793266
  0
VERTEX
  5
357
100
AcDbEntity
  8
レイヤ1
100
AcDbVertex
100
AcDb2dVertex
 10
57.92733688869
 20
44.79265003603
  0
SEQEND
  5
358
100
AcDbEntity
  8
レイヤ1
  0
POLYLINE
  5
359
100
AcDbEntity
  8
レイヤ1
  6
CONTINUOUS
 62
     0
100
AcDb2dPolyline
 66
     1
 10
0
 20
0
 70
     0
  0
VERTEX
  5
35A
100
AcDbEntity
  8
レイヤ1
100
AcDbVertex
100
AcDb2dVertex
 10
-7.833994165397
 20
90.64743914674
  0
VERTEX
  5
35B
100
AcDbEntity
  8
レイヤ1
100
AcDbVertex
100
AcDb2dVertex
 10
-21.2175710697
 20
78.80812111602
  0
VERTEX
  5
35C
100
AcDbEntity
  8
レイヤ1
100
AcDbVertex
100
AcDb2dVertex
 10
-32.33153686811
 20
61.96877899721
  0
VERTEX
  5
35D
100
AcDbEntity
  8
レイヤ1
100
AcDbVertex
100
AcDb2dVertex
 10
-17.17612896118
 20
63.65271320909
  0
VERTEX
  5
35E
100
AcDbEntity
  8
レイヤ1
100
AcDbVertex
100
AcDb2dVertex
 10
27.27973423247
 20
65.33664742097
  0
VERTEX
  5
35F
100
AcDbEntity
  8
レイヤ1
100
AcDbVertex
100
AcDb2dVertex
 10
56.91697636157
 20
63.65271320909
  0
VERTEX
  5
360
100
AcDbEntity
  8
レイヤ1
100
AcDbVertex
100
AcDb2dVertex
 10
76.11382637701
 20
58.26412373107
  0
VERTEX
  5
361
100
AcDbEntity
  8
レイヤ1
100
AcDbVertex
100
AcDb2dVertex
 10
81.16562901265
 20
55.23304214969
  0
VERTEX
  5
362
100
AcDbEntity
  8
レイヤ1
100
AcDbVertex
100
AcDb2dVertex
 10
93.62674218056
 20
58.93769741582
  0
VERTEX
  5
363
100
AcDbEntity
  8
レイヤ1
100
AcDbVertex
100
AcDb2dVertex
 10
115.517886935
 20
65.33664742097
  0
VERTEX
  5
364
100
AcDbEntity
  8
レイヤ1
100
AcDbVertex
100
AcDb2dVertex
 10
121.9168369402
 20
69.04130268711
  0
VERTEX
  5
365
100
AcDbEntity
  8
レイヤ1
100
AcDbVertex
100
AcDb2dVertex
 10
129.6629343148
 20
74.42989216513
  0
VERTEX
  5
366
100
AcDbEntity
  8
レイヤ1
100
AcDbVertex
100
AcDb2dVertex
 10
132.6940158962
 20
78.13454743126
  0
VERTEX
  5
367
100
AcDbEntity
  8
レイヤ1
100
AcDbVertex
100
AcDb2dVertex
 10
135.0515237928
 20
84.87028427879
  0
VERTEX
  5
368
100
AcDbEntity
  8
レイヤ1
100
AcDbVertex
100
AcDb2dVertex
 10
135.7250974776
 20
91.94280796868
  0
VERTEX
  5
369
100
AcDbEntity
  8
レイヤ1
100
AcDbVertex
100
AcDb2dVertex
 10
133.7043764233
 20
101.0360527128
  0
VERTEX
  5
36A
100
AcDbEntity
  8
レイヤ1
100
AcDbVertex
100
AcDb2dVertex
 10
125.9582790487
 20
124.9479185215
  0
VERTEX
  5
36B
100
AcDbEntity
  8
レイヤ1
100
AcDbVertex
100
AcDb2dVertex
 10
123.9033130741
 20
137.962703027
  0
SEQEND
  5
36C
100
AcDbEntity
  8
レイヤ1
  0
POLYLINE
  5
36D
100
AcDbEntity
  8
レイヤ1
  6
CONTINUOUS
 62
     0
100
AcDb2dPolyline
 66
     1
 10
0
 20
0
 70
     0
  0
VERTEX
  5
36E
100
AcDbEntity
  8
レイヤ1
100
AcDbVertex
100
AcDb2dVertex
 10
-82.84956322453
 20
39.06727371563
  0
VERTEX
  5
36F
100
AcDbEntity
  8
レイヤ1
100
AcDbVertex
100
AcDb2dVertex
 10
-87.56457901779
 20
37.38333950375
  0
VERTEX
  5
370
100
AcDbEntity
  8
レイヤ1
100
AcDbVertex
100
AcDb2dVertex
 10
-89.58530007205
 20
34.35225792237
  0
VERTEX
  5
371
100
AcDbEntity
  8
レイヤ1
100
AcDbVertex
100
AcDb2dVertex
 10
-89.58530007205
 20
14.81862106455
  0
VERTEX
  5
372
100
AcDbEntity
  8
レイヤ1
100
AcDbVertex
100
AcDb2dVertex
 10
-77.79776058889
 20
5.725376320394
  0
VERTEX
  5
373
100
AcDbEntity
  8
レイヤ1
100
AcDbVertex
100
AcDb2dVertex
 10
-65.33664742097
 20
1.347147369505
  0
VERTEX
  5
374
100
AcDbEntity
  8
レイヤ1
100
AcDbVertex
100
AcDb2dVertex
 10
-41.08799476989
 20
-2.694294739009
  0
VERTEX
  5
375
100
AcDbEntity
  8
レイヤ1
100
AcDbVertex
100
AcDb2dVertex
 10
-13.13468685267
 20
-2.694294739009
  0
VERTEX
  5
376
100
AcDbEntity
  8
レイヤ1
100
AcDbVertex
100
AcDb2dVertex
 10
11.45075264079
 20
-1.347147369505
  0
VERTEX
  5
377
100
AcDbEntity
  8
レイヤ1
100
AcDbVertex
100
AcDb2dVertex
 10
57.92733688869
 20
7.072523689899
  0
VERTEX
  5
378
100
AcDbEntity
  8
レイヤ1
100
AcDbVertex
100
AcDb2dVertex
 10
98.34175797383
 20
19.19685001544
  0
VERTEX
  5
379
100
AcDbEntity
  8
レイヤ1
100
AcDbVertex
100
AcDb2dVertex
 10
114.8443132503
 20
26.26937370534
  0
VERTEX
  5
37A
100
AcDbEntity
  8
レイヤ1
100
AcDbVertex
100
AcDb2dVertex
 10
119.2225422012
 20
29.97402897148
  0
VERTEX
  5
37B
100
AcDbEntity
  8
レイヤ1
100
AcDbVertex
100
AcDb2dVertex
 10
123.5077699013
 20
70.14803866005
  0
SEQEND
  5
37C
100
AcDbEntity
  8
レイヤ1
  0
LINE
  5
37D
100
AcDbEntity
  8
レイヤ1
  6
CONTINUOUS
 62
     0
100
AcDbLine
 10
-31.99475002573
 20
75.77703953463
 11
-21.08878679182
 21
85.15616791579
  0
POLYLINE
  5
37E
100
AcDbEntity
  8
レイヤ1
  6
CONTINUOUS
 62
     0
100
AcDb2dPolyline
 66
     1
 10
0
 20
0
 70
     0
  0
VERTEX
  5
37F
100
AcDbEntity
  8
レイヤ1
100
AcDbVertex
100
AcDb2dVertex
 10
-79.58467228798
 20
102.0399757328
  0
VERTEX
  5
380
100
AcDbEntity
  8
レイヤ1
100
AcDbVertex
100
AcDb2dVertex
 10
-92.61638165344
 20
90.2588737568
  0
VERTEX
  5
381
100
AcDbEntity
  8
レイヤ1
100
AcDbVertex
100
AcDb2dVertex
 10
-95.64746323482
 20
86.21743164829
  0
VERTEX
  5
382
100
AcDbEntity
  8
レイヤ1
100
AcDbVertex
100
AcDb2dVertex
 10
-96.65782376195
 20
81.8392026974
  0
VERTEX
  5
383
100
AcDbEntity
  8
レイヤ1
100
AcDbVertex
100
AcDb2dVertex
 10
-95.64746323482
 20
79.81848164314
  0
VERTEX
  5
384
100
AcDbEntity
  8
レイヤ1
100
AcDbVertex
100
AcDb2dVertex
 10
-93.28995533819
 20
80.15526848552
  0
VERTEX
  5
385
100
AcDbEntity
  8
レイヤ1
100
AcDbVertex
100
AcDb2dVertex
 10
-95.64746323482
 20
75.44025269225
  0
VERTEX
  5
386
100
AcDbEntity
  8
レイヤ1
100
AcDbVertex
100
AcDb2dVertex
 10
-96.32103691957
 20
71.39881058374
  0
VERTEX
  5
387
100
AcDbEntity
  8
レイヤ1
100
AcDbVertex
100
AcDb2dVertex
 10
-94.97388955007
 20
68.36772900235
  0
VERTEX
  5
388
100
AcDbEntity
  8
レイヤ1
100
AcDbVertex
100
AcDb2dVertex
 10
-87.22779217542
 20
63.31592636671
  0
VERTEX
  5
389
100
AcDbEntity
  8
レイヤ1
100
AcDbVertex
100
AcDb2dVertex
 10
-78.47133427364
 20
60.6216316277
  0
VERTEX
  5
38A
100
AcDbEntity
  8
レイヤ1
100
AcDbVertex
100
AcDb2dVertex
 10
-64.32628689384
 20
59.94805794295
  0
VERTEX
  5
38B
100
AcDbEntity
  8
レイヤ1
100
AcDbVertex
100
AcDb2dVertex
 10
-46.47658424791
 20
66.01022110572
  0
VERTEX
  5
38C
100
AcDbEntity
  8
レイヤ1
100
AcDbVertex
100
AcDb2dVertex
 10
-37.72012634613
 20
73.75631848037
  0
VERTEX
  5
38D
100
AcDbEntity
  8
レイヤ1
100
AcDbVertex
100
AcDb2dVertex
 10
-31.99475002573
 20
75.77703953463
  0
VERTEX
  5
38E
100
AcDbEntity
  8
レイヤ1
100
AcDbVertex
100
AcDb2dVertex
 10
-31.99475002573
 20
75.77703953463
  0
SEQEND
  5
38F
100
AcDbEntity
  8
レイヤ1
  0
POLYLINE
  5
390
100
AcDbEntity
  8
レイヤ1
  6
CONTINUOUS
 62
     0
100
AcDb2dPolyline
 66
     1
 10
0
 20
0
 70
     0
  0
VERTEX
  5
391
100
AcDbEntity
  8
レイヤ1
100
AcDbVertex
100
AcDb2dVertex
 10
-54.89625530731
 20
1184.816111479
  0
VERTEX
  5
392
100
AcDbEntity
  8
レイヤ1
100
AcDbVertex
100
AcDb2dVertex
 10
-73.419531638
 20
1129.246282487
  0
VERTEX
  5
393
100
AcDbEntity
  8
レイヤ1
100
AcDbVertex
100
AcDb2dVertex
 10
-77.46097374651
 20
1102.976908782
  0
VERTEX
  5
394
100
AcDbEntity
  8
レイヤ1
100
AcDbVertex
100
AcDb2dVertex
 10
-77.79776058889
 20
1094.894024565
  0
VERTEX
  5
395
100
AcDbEntity
  8
レイヤ1
100
AcDbVertex
100
AcDb2dVertex
 10
-76.45061321938
 20
1089.842221929
  0
VERTEX
  5
396
100
AcDbEntity
  8
レイヤ1
100
AcDbVertex
100
AcDb2dVertex
 10
-69.04130268711
 20
1083.106485082
  0
SEQEND
  5
397
100
AcDbEntity
  8
レイヤ1
  0
POLYLINE
  5
398
100
AcDbEntity
  8
レイヤ1
  6
CONTINUOUS
 62
     0
100
AcDb2dPolyline
 66
     1
 10
0
 20
0
 70
     0
  0
VERTEX
  5
399
100
AcDbEntity
  8
レイヤ1
100
AcDbVertex
100
AcDb2dVertex
 10
-89.32514350547
 20
1077.558195533
  0
VERTEX
  5
39A
100
AcDbEntity
  8
レイヤ1
100
AcDbVertex
100
AcDb2dVertex
 10
-86.55421849067
 20
1078.728256131
  0
VERTEX
  5
39B
100
AcDbEntity
  8
レイヤ1
100
AcDbVertex
100
AcDb2dVertex
 10
-69.04130268711
 20
1083.106485082
  0
VERTEX
  5
39C
100
AcDbEntity
  8
レイヤ1
100
AcDbVertex
100
AcDb2dVertex
 10
-59.62865780181
 20
1083.921728184
  0
VERTEX
  5
39D
100
AcDbEntity
  8
レイヤ1
100
AcDbVertex
100
AcDb2dVertex
 10
14.37687006289
 20
1087.692710495
  0
VERTEX
  5
39E
100
AcDbEntity
  8
レイヤ1
100
AcDbVertex
100
AcDb2dVertex
 10
31.34629046498
 20
1086.514278523
  0
SEQEND
  5
39F
100
AcDbEntity
  8
レイヤ1
  0
POLYLINE
  5
3A0
100
AcDbEntity
  8
レイヤ1
  6
CONTINUOUS
 62
     0
100
AcDb2dPolyline
 66
     1
 10
0
 20
0
 70
     0
  0
VERTEX
  5
3A1
100
AcDbEntity
  8
レイヤ1
100
AcDbVertex
100
AcDb2dVertex
 10
104.8804455407
 20
1314.423021979
  0
VERTEX
  5
3A2
100
AcDbEntity
  8
レイヤ1
100
AcDbVertex
100
AcDb2dVertex
 10
91.94280796868
 20
1317.173340533
  0
VERTEX
  5
3A3
100
AcDbEntity
  8
レイヤ1
100
AcDbVertex
100
AcDb2dVertex
 10
76.11382637701
 20
1316.162980006
  0
VERTEX
  5
3A4
100
AcDbEntity
  8
レイヤ1
100
AcDbVertex
100
AcDb2dVertex
 10
52.53874741068
 20
1304.375440523
  0
VERTEX
  5
3A5
100
AcDbEntity
  8
レイヤ1
100
AcDbVertex
100
AcDb2dVertex
 10
38.39370003088
 20
1293.935048409
  0
VERTEX
  5
3A6
100
AcDbEntity
  8
レイヤ1
100
AcDbVertex
100
AcDb2dVertex
 10
22.90150528158
 20
1275.074985236
  0
VERTEX
  5
3A7
100
AcDbEntity
  8
レイヤ1
100
AcDbVertex
100
AcDb2dVertex
 10
-13.47147369505
 20
1239.375579944
  0
VERTEX
  5
3A8
100
AcDbEntity
  8
レイヤ1
100
AcDbVertex
100
AcDb2dVertex
 10
-35.36261844949
 20
1213.442993081
  0
VERTEX
  5
3A9
100
AcDbEntity
  8
レイヤ1
100
AcDbVertex
100
AcDb2dVertex
 10
-54.89625530731
 20
1184.816111479
  0
VERTEX
  5
3AA
100
AcDbEntity
  8
レイヤ1
100
AcDbVertex
100
AcDb2dVertex
 10
-70.38845005661
 20
1149.790279872
  0
VERTEX
  5
3AB
100
AcDbEntity
  8
レイヤ1
100
AcDbVertex
100
AcDb2dVertex
 10
-79.48169480077
 20
1120.826611428
  0
VERTEX
  5
3AC
100
AcDbEntity
  8
レイヤ1
100
AcDbVertex
100
AcDb2dVertex
 10
-84.53349743641
 20
1099.9458272
  0
VERTEX
  5
3AD
100
AcDbEntity
  8
レイヤ1
100
AcDbVertex
100
AcDb2dVertex
 10
-84.87028427879
 20
1088.49507456
  0
VERTEX
  5
3AE
100
AcDbEntity
  8
レイヤ1
100
AcDbVertex
100
AcDb2dVertex
 10
-82.84956322453
 20
1085.800779821
  0
VERTEX
  5
3AF
100
AcDbEntity
  8
レイヤ1
100
AcDbVertex
100
AcDb2dVertex
 10
-77.22157105133
 20
1081.061417991
  0
SEQEND
  5
3B0
100
AcDbEntity
  8
レイヤ1
  0
POLYLINE
  5
3B1
100
AcDbEntity
  8
レイヤ1
  6
CONTINUOUS
 62
     0
100
AcDb2dPolyline
 66
     1
 10
0
 20
0
 70
     0
  0
VERTEX
  5
3B2
100
AcDbEntity
  8
レイヤ1
100
AcDbVertex
100
AcDb2dVertex
 10
-58.23191733904
 20
1131.431716232
  0
VERTEX
  5
3B3
100
AcDbEntity
  8
レイヤ1
100
AcDbVertex
100
AcDb2dVertex
 10
-63.31592636671
 20
1103.987269309
  0
VERTEX
  5
3B4
100
AcDbEntity
  8
レイヤ1
100
AcDbVertex
100
AcDb2dVertex
 10
-63.65271320909
 20
1098.261892989
  0
VERTEX
  5
3B5
100
AcDbEntity
  8
レイヤ1
100
AcDbVertex
100
AcDb2dVertex
 10
-61.29520531246
 20
1092.536516668
  0
VERTEX
  5
3B6
100
AcDbEntity
  8
レイヤ1
100
AcDbVertex
100
AcDb2dVertex
 10
-56.77811834387
 20
1084.066978602
  0
SEQEND
  5
3B7
100
AcDbEntity
  8
レイヤ1
  0
POLYLINE
  5
3B8
100
AcDbEntity
  8
レイヤ1
  6
CONTINUOUS
 62
     0
100
AcDb2dPolyline
 66
     1
 10
0
 20
0
 70
     0
  0
VERTEX
  5
3B9
100
AcDbEntity
  8
レイヤ1
100
AcDbVertex
100
AcDb2dVertex
 10
-116.1914606198
 20
1168.313556203
  0
VERTEX
  5
3BA
100
AcDbEntity
  8
レイヤ1
100
AcDbVertex
100
AcDb2dVertex
 10
-108.7821500875
 20
1123.184119324
  0
VERTEX
  5
3BB
100
AcDbEntity
  8
レイヤ1
100
AcDbVertex
100
AcDb2dVertex
 10
-95.64746323482
 20
1087.821500875
  0
VERTEX
  5
3BC
100
AcDbEntity
  8
レイヤ1
100
AcDbVertex
100
AcDb2dVertex
 10
-89.32514350547
 20
1077.558195533
  0
VERTEX
  5
3BD
100
AcDbEntity
  8
レイヤ1
100
AcDbVertex
100
AcDb2dVertex
 10
-85.88064480591
 20
1071.992519283
  0
SEQEND
  5
3BE
100
AcDbEntity
  8
レイヤ1
  0
POLYLINE
  5
3BF
100
AcDbEntity
  8
レイヤ1
  6
CONTINUOUS
 62
     0
100
AcDb2dPolyline
 66
     1
 10
0
 20
0
 70
     0
  0
VERTEX
  5
3C0
100
AcDbEntity
  8
レイヤ1
100
AcDbVertex
100
AcDb2dVertex
 10
-78.95494214864
 20
1071.430349277
  0
VERTEX
  5
3C1
100
AcDbEntity
  8
レイヤ1
100
AcDbVertex
100
AcDb2dVertex
 10
-87.43965234969
 20
1066.952307782
  0
VERTEX
  5
3C2
100
AcDbEntity
  8
レイヤ1
100
AcDbVertex
100
AcDb2dVertex
 10
-89.79651629442
 20
1064.831130231
  0
VERTEX
  5
3C3
100
AcDbEntity
  8
レイヤ1
100
AcDbVertex
100
AcDb2dVertex
 10
-91.91769384468
 20
1061.531520709
  0
VERTEX
  5
3C4
100
AcDbEntity
  8
レイヤ1
100
AcDbVertex
100
AcDb2dVertex
 10
-92.95316849581
 20
1004.635150808
  0
VERTEX
  5
3C5
100
AcDbEntity
  8
レイヤ1
100
AcDbVertex
100
AcDb2dVertex
 10
-97.3313974467
 20
967.5885981466
  0
VERTEX
  5
3C6
100
AcDbEntity
  8
レイヤ1
100
AcDbVertex
100
AcDb2dVertex
 10
-101.0360527128
 20
951.0860428702
  0
VERTEX
  5
3C7
100
AcDbEntity
  8
レイヤ1
100
AcDbVertex
100
AcDb2dVertex
 10
-106.7614290332
 20
856.7857270049
  0
VERTEX
  5
3C8
100
AcDbEntity
  8
レイヤ1
100
AcDbVertex
100
AcDb2dVertex
 10
-111.8132316689
 20
809.2987822298
  0
VERTEX
  5
3C9
100
AcDbEntity
  8
レイヤ1
100
AcDbVertex
100
AcDb2dVertex
 10
-111.4764448265
 20
777.9776058889
  0
VERTEX
  5
3CA
100
AcDbEntity
  8
レイヤ1
100
AcDbVertex
100
AcDb2dVertex
 10
-113.1603790384
 20
732.5113821681
  0
VERTEX
  5
3CB
100
AcDbEntity
  8
レイヤ1
100
AcDbVertex
100
AcDb2dVertex
 10
-99.01533165858
 20
731.501021641
  0
VERTEX
  5
3CC
100
AcDbEntity
  8
レイヤ1
100
AcDbVertex
100
AcDb2dVertex
 10
-88.9117263873
 20
727.7963663748
  0
VERTEX
  5
3CD
100
AcDbEntity
  8
レイヤ1
100
AcDbVertex
100
AcDb2dVertex
 10
-82.51277638215
 20
726.4492190053
  0
VERTEX
  5
3CE
100
AcDbEntity
  8
レイヤ1
100
AcDbVertex
100
AcDb2dVertex
 10
-79.81848164314
 20
726.4492190053
  0
VERTEX
  5
3CF
100
AcDbEntity
  8
レイヤ1
100
AcDbVertex
100
AcDb2dVertex
 10
-77.46097374651
 20
808.9619953875
  0
VERTEX
  5
3D0
100
AcDbEntity
  8
レイヤ1
100
AcDbVertex
100
AcDb2dVertex
 10
-72.40917111087
 20
882.7183138678
  0
VERTEX
  5
3D1
100
AcDbEntity
  8
レイヤ1
100
AcDbVertex
100
AcDb2dVertex
 10
-70.72523689899
 20
939.298503387
  0
VERTEX
  5
3D2
100
AcDbEntity
  8
レイヤ1
100
AcDbVertex
100
AcDb2dVertex
 10
-68.36772900235
 20
1001.267282384
  0
VERTEX
  5
3D3
100
AcDbEntity
  8
レイヤ1
100
AcDbVertex
100
AcDb2dVertex
 10
-66.01022110572
 20
1011.034100813
  0
VERTEX
  5
3D4
100
AcDbEntity
  8
レイヤ1
100
AcDbVertex
100
AcDb2dVertex
 10
-51.52838688355
 20
1044.712785051
  0
VERTEX
  5
3D5
100
AcDbEntity
  8
レイヤ1
100
AcDbVertex
100
AcDb2dVertex
 10
-41.76156845464
 20
1064.246421909
  0
VERTEX
  5
3D6
100
AcDbEntity
  8
レイヤ1
100
AcDbVertex
100
AcDb2dVertex
 10
-38.0569131885
 20
1066.940716648
  0
VERTEX
  5
3D7
100
AcDbEntity
  8
レイヤ1
100
AcDbVertex
100
AcDb2dVertex
 10
-35.35295917103
 20
1069.073485332
  0
VERTEX
  5
3D8
100
AcDbEntity
  8
レイヤ1
100
AcDbVertex
100
AcDb2dVertex
 10
-31.34629046498
 20
1069.780544515
  0
VERTEX
  5
3D9
100
AcDbEntity
  8
レイヤ1
100
AcDbVertex
100
AcDb2dVertex
 10
-29.93217209814
 20
1069.544858121
  0
SEQEND
  5
3DA
100
AcDbEntity
  8
レイヤ1
  0
POLYLINE
  5
3DB
100
AcDbEntity
  8
レイヤ1
  6
CONTINUOUS
 62
     0
100
AcDb2dPolyline
 66
     1
 10
0
 20
0
 70
     0
  0
VERTEX
  5
3DC
100
AcDbEntity
  8
レイヤ1
100
AcDbVertex
100
AcDb2dVertex
 10
-78.95494214864
 20
1071.430349277
  0
VERTEX
  5
3DD
100
AcDbEntity
  8
レイヤ1
100
AcDbVertex
100
AcDb2dVertex
 10
-69.99885915864
 20
1074.965645194
  0
VERTEX
  5
3DE
100
AcDbEntity
  8
レイヤ1
100
AcDbVertex
100
AcDb2dVertex
 10
-61.04277616865
 20
1075.437017983
  0
VERTEX
  5
3DF
100
AcDbEntity
  8
レイヤ1
100
AcDbVertex
100
AcDb2dVertex
 10
-46.90159250024
 20
1078.029568322
  0
VERTEX
  5
3E0
100
AcDbEntity
  8
レイヤ1
100
AcDbVertex
100
AcDb2dVertex
 10
-41.24511903287
 20
1079.915059478
  0
VERTEX
  5
3E1
100
AcDbEntity
  8
レイヤ1
100
AcDbVertex
100
AcDb2dVertex
 10
-38.65256869366
 20
1079.443686689
  0
VERTEX
  5
3E2
100
AcDbEntity
  8
レイヤ1
100
AcDbVertex
100
AcDb2dVertex
 10
-33.70315440972
 20
1073.315840433
  0
VERTEX
  5
3E3
100
AcDbEntity
  8
レイヤ1
100
AcDbVertex
100
AcDb2dVertex
 10
-29.22511291472
 20
1072.608781249
  0
VERTEX
  5
3E4
100
AcDbEntity
  8
レイヤ1
100
AcDbVertex
100
AcDb2dVertex
 10
-27.33962175893
 20
1070.723290093
  0
SEQEND
  5
3E5
100
AcDbEntity
  8
レイヤ1
  0
POLYLINE
  5
3E6
100
AcDbEntity
  8
レイヤ1
  6
CONTINUOUS
 62
     0
100
AcDb2dPolyline
 66
     1
 10
0
 20
0
 70
     0
  0
VERTEX
  5
3E7
100
AcDbEntity
  8
レイヤ1
100
AcDbVertex
100
AcDb2dVertex
 10
-122.5569251262
 20
1009.44482753
  0
VERTEX
  5
3E8
100
AcDbEntity
  8
レイヤ1
100
AcDbVertex
100
AcDb2dVertex
 10
-117.1361380534
 20
1014.15855542
  0
VERTEX
  5
3E9
100
AcDbEntity
  8
レイヤ1
100
AcDbVertex
100
AcDb2dVertex
 10
-105.8231911186
 20
1019.815028887
  0
VERTEX
  5
3EA
100
AcDbEntity
  8
レイヤ1
100
AcDbVertex
100
AcDb2dVertex
 10
-97.1027945231
 20
1022.171892832
  0
VERTEX
  5
3EB
100
AcDbEntity
  8
レイヤ1
100
AcDbVertex
100
AcDb2dVertex
 10
-92.63401189829
 20
1022.171892832
  0
SEQEND
  5
3EC
100
AcDbEntity
  8
レイヤ1
  0
POLYLINE
  5
3ED
100
AcDbEntity
  8
レイヤ1
  6
CONTINUOUS
 62
     0
100
AcDb2dPolyline
 66
     1
 10
0
 20
0
 70
     0
  0
VERTEX
  5
3EE
100
AcDbEntity
  8
レイヤ1
100
AcDbVertex
100
AcDb2dVertex
 10
-78.95494214864
 20
1071.430349277
  0
VERTEX
  5
3EF
100
AcDbEntity
  8
レイヤ1
100
AcDbVertex
100
AcDb2dVertex
 10
-85.88064480591
 20
1071.992519283
  0
VERTEX
  5
3F0
100
AcDbEntity
  8
レイヤ1
100
AcDbVertex
100
AcDb2dVertex
 10
-100.8737768347
 20
1068.366426149
  0
VERTEX
  5
3F1
100
AcDbEntity
  8
レイヤ1
100
AcDbVertex
100
AcDb2dVertex
 10
-118.5502564202
 20
1066.480934993
  0
VERTEX
  5
3F2
100
AcDbEntity
  8
レイヤ1
100
AcDbVertex
100
AcDb2dVertex
 10
-131.7486945107
 20
1058.93897037
  0
VERTEX
  5
3F3
100
AcDbEntity
  8
レイヤ1
100
AcDbVertex
100
AcDb2dVertex
 10
-125.1494754655
 20
1028.771111877
  0
VERTEX
  5
3F4
100
AcDbEntity
  8
レイヤ1
100
AcDbVertex
100
AcDb2dVertex
 10
-122.5569251262
 20
1009.44482753
  0
VERTEX
  5
3F5
100
AcDbEntity
  8
レイヤ1
100
AcDbVertex
100
AcDb2dVertex
 10
-121.1428067594
 20
1007.559336374
  0
VERTEX
  5
3F6
100
AcDbEntity
  8
レイヤ1
100
AcDbVertex
100
AcDb2dVertex
 10
-111.9510373749
 20
1006.616590797
  0
VERTEX
  5
3F7
100
AcDbEntity
  8
レイヤ1
100
AcDbVertex
100
AcDb2dVertex
 10
-98.98828567889
 20
1015.336987392
  0
VERTEX
  5
3F8
100
AcDbEntity
  8
レイヤ1
100
AcDbVertex
100
AcDb2dVertex
 10
-92.73564370507
 20
1016.587515787
  0
SEQEND
  5
3F9
100
AcDbEntity
  8
レイヤ1
  0
POLYLINE
  5
3FA
100
AcDbEntity
  8
レイヤ1
  6
CONTINUOUS
 62
     0
100
AcDb2dPolyline
 66
     1
 10
0
 20
0
 70
     0
  0
VERTEX
  5
3FB
100
AcDbEntity
  8
レイヤ1
100
AcDbVertex
100
AcDb2dVertex
 10
-31.34629046498
 20
1069.780544515
  0
VERTEX
  5
3FC
100
AcDbEntity
  8
レイヤ1
100
AcDbVertex
100
AcDb2dVertex
 10
-37.70982311577
 20
1065.066816626
  0
VERTEX
  5
3FD
100
AcDbEntity
  8
レイヤ1
100
AcDbVertex
100
AcDb2dVertex
 10
-47.84433807813
 20
1047.39033704
  0
VERTEX
  5
3FE
100
AcDbEntity
  8
レイヤ1
100
AcDbVertex
100
AcDb2dVertex
 10
-49.49414283944
 20
1039.848372417
  0
VERTEX
  5
3FF
100
AcDbEntity
  8
レイヤ1
100
AcDbVertex
100
AcDb2dVertex
 10
-64.57807208575
 20
1010.387573108
  0
VERTEX
  5
400
100
AcDbEntity
  8
レイヤ1
100
AcDbVertex
100
AcDb2dVertex
 10
-68.36772900235
 20
1001.267282384
  0
SEQEND
  5
401
100
AcDbEntity
  8
レイヤ1
  0
POLYLINE
  5
402
100
AcDbEntity
  8
レイヤ1
  6
CONTINUOUS
 62
     0
100
AcDb2dPolyline
 66
     1
 10
0
 20
0
 70
     0
  0
VERTEX
  5
403
100
AcDbEntity
  8
レイヤ1
100
AcDbVertex
100
AcDb2dVertex
 10
-37.70982311577
 20
1065.066816626
  0
VERTEX
  5
404
100
AcDbEntity
  8
レイヤ1
100
AcDbVertex
100
AcDb2dVertex
 10
-29.93217209814
 20
1069.544858121
  0
VERTEX
  5
405
100
AcDbEntity
  8
レイヤ1
100
AcDbVertex
100
AcDb2dVertex
 10
-27.33962175893
 20
1070.723290093
  0
VERTEX
  5
406
100
AcDbEntity
  8
レイヤ1
100
AcDbVertex
100
AcDb2dVertex
 10
-17.67647958552
 20
1075.437017983
  0
VERTEX
  5
407
100
AcDbEntity
  8
レイヤ1
100
AcDbVertex
100
AcDb2dVertex
 10
-11.07726054026
 20
1075.908390772
  0
VERTEX
  5
408
100
AcDbEntity
  8
レイヤ1
100
AcDbVertex
100
AcDb2dVertex
 10
-3.770982311577
 20
1071.666035671
  0
VERTEX
  5
409
100
AcDbEntity
  8
レイヤ1
100
AcDbVertex
100
AcDb2dVertex
 10
11.5486333292
 20
1060.824461525
  0
VERTEX
  5
40A
100
AcDbEntity
  8
レイヤ1
100
AcDbVertex
100
AcDb2dVertex
 10
21.55435791207
 20
1044.039211366
  0
VERTEX
  5
40B
100
AcDbEntity
  8
レイヤ1
100
AcDbVertex
100
AcDb2dVertex
 10
21.55435791207
 20
1041.008129785
  0
VERTEX
  5
40C
100
AcDbEntity
  8
レイヤ1
100
AcDbVertex
100
AcDb2dVertex
 10
19.19685001544
 20
1038.98740873
  0
VERTEX
  5
40D
100
AcDbEntity
  8
レイヤ1
100
AcDbVertex
100
AcDb2dVertex
 10
12.46111316792
 20
1032.588458725
  0
VERTEX
  5
40E
100
AcDbEntity
  8
レイヤ1
100
AcDbVertex
100
AcDb2dVertex
 10
7.409310532275
 20
1021.811279769
  0
VERTEX
  5
40F
100
AcDbEntity
  8
レイヤ1
100
AcDbVertex
100
AcDb2dVertex
 10
2.694294739009
 20
1017.433050818
  0
VERTEX
  5
410
100
AcDbEntity
  8
レイヤ1
100
AcDbVertex
100
AcDb2dVertex
 10
-2.694294739009
 20
1006.655871862
  0
VERTEX
  5
411
100
AcDbEntity
  8
レイヤ1
100
AcDbVertex
100
AcDb2dVertex
 10
-5.051802635642
 20
1005.308724493
  0
VERTEX
  5
412
100
AcDbEntity
  8
レイヤ1
100
AcDbVertex
100
AcDb2dVertex
 10
-9.093244744156
 20
1005.982298178
  0
VERTEX
  5
413
100
AcDbEntity
  8
レイヤ1
100
AcDbVertex
100
AcDb2dVertex
 10
-42.77192898177
 20
1039.324195573
  0
VERTEX
  5
414
100
AcDbEntity
  8
レイヤ1
100
AcDbVertex
100
AcDb2dVertex
 10
-44.30904216103
 20
1043.855041123
  0
VERTEX
  5
415
100
AcDbEntity
  8
レイヤ1
100
AcDbVertex
100
AcDb2dVertex
 10
-45.80291832295
 20
1050.950952892
  0
SEQEND
  5
416
100
AcDbEntity
  8
レイヤ1
  0
POLYLINE
  5
417
100
AcDbEntity
  8
レイヤ1
  6
CONTINUOUS
 62
     0
100
AcDb2dPolyline
 66
     1
 10
0
 20
0
 70
     0
  0
VERTEX
  5
418
100
AcDbEntity
  8
レイヤ1
100
AcDbVertex
100
AcDb2dVertex
 10
-35.02583160712
 20
1062.562487697
  0
VERTEX
  5
419
100
AcDbEntity
  8
レイヤ1
100
AcDbVertex
100
AcDb2dVertex
 10
-21.2175710697
 20
1070.645371914
  0
VERTEX
  5
41A
100
AcDbEntity
  8
レイヤ1
100
AcDbVertex
100
AcDb2dVertex
 10
-19.53363685782
 20
1069.971798229
  0
VERTEX
  5
41B
100
AcDbEntity
  8
レイヤ1
100
AcDbVertex
100
AcDb2dVertex
 10
-18.86006317306
 20
1066.940716648
  0
VERTEX
  5
41C
100
AcDbEntity
  8
レイヤ1
100
AcDbVertex
100
AcDb2dVertex
 10
-18.86006317306
 20
1062.225700854
  0
VERTEX
  5
41D
100
AcDbEntity
  8
レイヤ1
100
AcDbVertex
100
AcDb2dVertex
 10
-16.50255527643
 20
1059.868192958
  0
VERTEX
  5
41E
100
AcDbEntity
  8
レイヤ1
100
AcDbVertex
100
AcDb2dVertex
 10
-12.46111316792
 20
1058.521045588
  0
VERTEX
  5
41F
100
AcDbEntity
  8
レイヤ1
100
AcDbVertex
100
AcDb2dVertex
 10
-10.44039211366
 20
1056.500324534
  0
VERTEX
  5
420
100
AcDbEntity
  8
レイヤ1
100
AcDbVertex
100
AcDb2dVertex
 10
-11.11396579841
 20
1049.764587686
  0
VERTEX
  5
421
100
AcDbEntity
  8
レイヤ1
100
AcDbVertex
100
AcDb2dVertex
 10
-12.46111316792
 20
1048.754227159
  0
VERTEX
  5
422
100
AcDbEntity
  8
レイヤ1
100
AcDbVertex
100
AcDb2dVertex
 10
-14.48183422217
 20
1049.764587686
  0
VERTEX
  5
423
100
AcDbEntity
  8
レイヤ1
100
AcDbVertex
100
AcDb2dVertex
 10
-17.51291580356
 20
1057.173898219
  0
VERTEX
  5
424
100
AcDbEntity
  8
レイヤ1
100
AcDbVertex
100
AcDb2dVertex
 10
-21.55435791207
 20
1057.847471903
  0
VERTEX
  5
425
100
AcDbEntity
  8
レイヤ1
100
AcDbVertex
100
AcDb2dVertex
 10
-32.66832371048
 20
1059.531406115
  0
VERTEX
  5
426
100
AcDbEntity
  8
レイヤ1
100
AcDbVertex
100
AcDb2dVertex
 10
-38.73048687326
 20
1060.541766642
  0
SEQEND
  5
427
100
AcDbEntity
  8
レイヤ1
  0
POLYLINE
  5
428
100
AcDbEntity
  8
レイヤ1
  6
CONTINUOUS
 62
     0
100
AcDb2dPolyline
 66
     1
 10
0
 20
0
 70
     0
  0
VERTEX
  5
429
100
AcDbEntity
  8
レイヤ1
100
AcDbVertex
100
AcDb2dVertex
 10
-8.082884217027
 20
1071.655732441
  0
VERTEX
  5
42A
100
AcDbEntity
  8
レイヤ1
100
AcDbVertex
100
AcDb2dVertex
 10
-1.683934211881
 20
1061.888914012
  0
VERTEX
  5
42B
100
AcDbEntity
  8
レイヤ1
100
AcDbVertex
100
AcDb2dVertex
 10
0.6735736847523
 20
1055.153177164
  0
VERTEX
  5
42C
100
AcDbEntity
  8
レイヤ1
100
AcDbVertex
100
AcDb2dVertex
 10
0.6735736847523
 20
1043.028850839
  0
VERTEX
  5
42D
100
AcDbEntity
  8
レイヤ1
100
AcDbVertex
100
AcDb2dVertex
 10
-1.683934211881
 20
1036.629900834
  0
VERTEX
  5
42E
100
AcDbEntity
  8
レイヤ1
100
AcDbVertex
100
AcDb2dVertex
 10
-4.715015793266
 20
1031.578098198
  0
VERTEX
  5
42F
100
AcDbEntity
  8
レイヤ1
100
AcDbVertex
100
AcDb2dVertex
 10
-7.746097374651
 20
1029.557377144
  0
VERTEX
  5
430
100
AcDbEntity
  8
レイヤ1
100
AcDbVertex
100
AcDb2dVertex
 10
-15.15540790693
 20
1027.53665609
  0
VERTEX
  5
431
100
AcDbEntity
  8
レイヤ1
100
AcDbVertex
100
AcDb2dVertex
 10
-23.23829212395
 20
1027.53665609
  0
VERTEX
  5
432
100
AcDbEntity
  8
レイヤ1
100
AcDbVertex
100
AcDb2dVertex
 10
-31.32117634098
 20
1030.904524513
  0
SEQEND
  5
433
100
AcDbEntity
  8
レイヤ1
  0
POLYLINE
  5
434
100
AcDbEntity
  8
レイヤ1
  6
CONTINUOUS
 62
     0
100
AcDb2dPolyline
 66
     1
 10
0
 20
0
 70
     0
  0
VERTEX
  5
435
100
AcDbEntity
  8
レイヤ1
100
AcDbVertex
100
AcDb2dVertex
 10
-45.95884692234
 20
1045.033473096
  0
VERTEX
  5
436
100
AcDbEntity
  8
レイヤ1
100
AcDbVertex
100
AcDb2dVertex
 10
-45.25178773892
 20
1039.141313234
  0
VERTEX
  5
437
100
AcDbEntity
  8
レイヤ1
100
AcDbVertex
100
AcDb2dVertex
 10
-42.89492379419
 20
1036.548762895
  0
VERTEX
  5
438
100
AcDbEntity
  8
レイヤ1
100
AcDbVertex
100
AcDb2dVertex
 10
-50.67257481181
 20
1029.713857455
  0
VERTEX
  5
439
100
AcDbEntity
  8
レイヤ1
100
AcDbVertex
100
AcDb2dVertex
 10
-58.21453943497
 20
1019.579342493
  0
SEQEND
  5
43A
100
AcDbEntity
  8
レイヤ1
  0
POLYLINE
  5
43B
100
AcDbEntity
  8
レイヤ1
  6
CONTINUOUS
 62
     0
100
AcDb2dPolyline
 66
     1
 10
0
 20
0
 70
     0
  0
VERTEX
  5
43C
100
AcDbEntity
  8
レイヤ1
100
AcDbVertex
100
AcDb2dVertex
 10
-39.40406055801
 20
1031.578098198
  0
VERTEX
  5
43D
100
AcDbEntity
  8
レイヤ1
100
AcDbVertex
100
AcDb2dVertex
 10
-53.21232109543
 20
1010.697313971
  0
VERTEX
  5
43E
100
AcDbEntity
  8
レイヤ1
100
AcDbVertex
100
AcDb2dVertex
 10
-62.97913952434
 20
1000.930495542
  0
VERTEX
  5
43F
100
AcDbEntity
  8
レイヤ1
100
AcDbVertex
100
AcDb2dVertex
 10
-64.66307373622
 20
997.8994139605
  0
VERTEX
  5
440
100
AcDbEntity
  8
レイヤ1
100
AcDbVertex
100
AcDb2dVertex
 10
-64.66307373622
 20
994.5315455367
  0
VERTEX
  5
441
100
AcDbEntity
  8
レイヤ1
100
AcDbVertex
100
AcDb2dVertex
 10
-62.97913952434
 20
992.8476113248
  0
VERTEX
  5
442
100
AcDbEntity
  8
レイヤ1
100
AcDbVertex
100
AcDb2dVertex
 10
-58.60091057345
 20
992.1740376401
  0
VERTEX
  5
443
100
AcDbEntity
  8
レイヤ1
100
AcDbVertex
100
AcDb2dVertex
 10
-53.54910793781
 20
994.8683323791
  0
VERTEX
  5
444
100
AcDbEntity
  8
レイヤ1
100
AcDbVertex
100
AcDb2dVertex
 10
-44.45586319365
 20
1009.350166601
  0
VERTEX
  5
445
100
AcDbEntity
  8
レイヤ1
100
AcDbVertex
100
AcDb2dVertex
 10
-41.08799476989
 20
1019.790558715
  0
VERTEX
  5
446
100
AcDbEntity
  8
レイヤ1
100
AcDbVertex
100
AcDb2dVertex
 10
-40.75120792751
 20
1025.515935035
  0
SEQEND
  5
447
100
AcDbEntity
  8
レイヤ1
  0
POLYLINE
  5
448
100
AcDbEntity
  8
レイヤ1
  6
CONTINUOUS
 62
     0
100
AcDb2dPolyline
 66
     1
 10
0
 20
0
 70
     0
  0
VERTEX
  5
449
100
AcDbEntity
  8
レイヤ1
100
AcDbVertex
100
AcDb2dVertex
 10
-3.770982311577
 20
1071.666035671
  0
VERTEX
  5
44A
100
AcDbEntity
  8
レイヤ1
100
AcDbVertex
100
AcDb2dVertex
 10
14.84824285183
 20
1073.080154038
  0
VERTEX
  5
44B
100
AcDbEntity
  8
レイヤ1
100
AcDbVertex
100
AcDb2dVertex
 10
28.28236733683
 20
1075.437017983
  0
SEQEND
  5
44C
100
AcDbEntity
  8
レイヤ1
  0
POLYLINE
  5
44D
100
AcDbEntity
  8
レイヤ1
  6
CONTINUOUS
 62
     0
100
AcDb2dPolyline
 66
     1
 10
0
 20
0
 70
     0
  0
VERTEX
  5
44E
100
AcDbEntity
  8
レイヤ1
100
AcDbVertex
100
AcDb2dVertex
 10
8.685424325559
 20
1024.533655862
  0
VERTEX
  5
44F
100
AcDbEntity
  8
レイヤ1
100
AcDbVertex
100
AcDb2dVertex
 10
13.19843809052
 20
1020.52208807
  0
VERTEX
  5
450
100
AcDbEntity
  8
レイヤ1
100
AcDbVertex
100
AcDb2dVertex
 10
20.5047163192
 20
1018.165224126
  0
VERTEX
  5
451
100
AcDbEntity
  8
レイヤ1
100
AcDbVertex
100
AcDb2dVertex
 10
26.63256257551
 20
1017.929537731
  0
SEQEND
  5
452
100
AcDbEntity
  8
レイヤ1
  0
POLYLINE
  5
453
100
AcDbEntity
  8
レイヤ1
  6
CONTINUOUS
 62
     0
100
AcDb2dPolyline
 66
     1
 10
0
 20
0
 70
     0
  0
VERTEX
  5
454
100
AcDbEntity
  8
レイヤ1
100
AcDbVertex
100
AcDb2dVertex
 10
-71.56720400493
 20
911.0084086274
  0
VERTEX
  5
455
100
AcDbEntity
  8
レイヤ1
100
AcDbVertex
100
AcDb2dVertex
 10
-68.7695722538
 20
841.7395643865
  0
VERTEX
  5
456
100
AcDbEntity
  8
レイヤ1
100
AcDbVertex
100
AcDb2dVertex
 10
-63.98950005146
 20
776.9672453617
  0
VERTEX
  5
457
100
AcDbEntity
  8
レイヤ1
100
AcDbVertex
100
AcDb2dVertex
 10
-62.30556583958
 20
775.2833111499
  0
VERTEX
  5
458
100
AcDbEntity
  8
レイヤ1
100
AcDbVertex
100
AcDb2dVertex
 10
-48.83409214454
 20
777.3040322041
  0
VERTEX
  5
459
100
AcDbEntity
  8
レイヤ1
100
AcDbVertex
100
AcDb2dVertex
 10
-45.1294368784
 20
778.987966416
  0
VERTEX
  5
45A
100
AcDbEntity
  8
レイヤ1
100
AcDbVertex
100
AcDb2dVertex
 10
-14.1450473798
 20
780.3351137855
  0
VERTEX
  5
45B
100
AcDbEntity
  8
レイヤ1
100
AcDbVertex
100
AcDb2dVertex
 10
-5.051802635642
 20
778.6511795736
  0
VERTEX
  5
45C
100
AcDbEntity
  8
レイヤ1
100
AcDbVertex
100
AcDb2dVertex
 10
-4.041442108514
 20
779.3247532584
  0
VERTEX
  5
45D
100
AcDbEntity
  8
レイヤ1
100
AcDbVertex
100
AcDb2dVertex
 10
-4.37822895089
 20
804.920553279
  0
VERTEX
  5
45E
100
AcDbEntity
  8
レイヤ1
100
AcDbVertex
100
AcDb2dVertex
 10
-7.409310532275
 20
828.4956322453
  0
SEQEND
  5
45F
100
AcDbEntity
  8
レイヤ1
  0
POLYLINE
  5
460
100
AcDbEntity
  8
レイヤ1
  6
CONTINUOUS
 62
     0
100
AcDb2dPolyline
 66
     1
 10
0
 20
0
 70
     0
  0
VERTEX
  5
461
100
AcDbEntity
  8
レイヤ1
100
AcDbVertex
100
AcDb2dVertex
 10
-10.10360527128
 20
884.7390349221
  0
VERTEX
  5
462
100
AcDbEntity
  8
レイヤ1
100
AcDbVertex
100
AcDb2dVertex
 10
-20.21273163834
 20
986.5738061573
  0
VERTEX
  5
463
100
AcDbEntity
  8
レイヤ1
100
AcDbVertex
100
AcDb2dVertex
 10
-25.93258686296
 20
1022.653246875
  0
SEQEND
  5
464
100
AcDbEntity
  8
レイヤ1
  0
POLYLINE
  5
465
100
AcDbEntity
  8
レイヤ1
  6
CONTINUOUS
 62
     0
100
AcDb2dPolyline
 66
     1
 10
0
 20
0
 70
     0
  0
VERTEX
  5
466
100
AcDbEntity
  8
レイヤ1
100
AcDbVertex
100
AcDb2dVertex
 10
-92.95316849581
 20
1004.635150808
  0
VERTEX
  5
467
100
AcDbEntity
  8
レイヤ1
100
AcDbVertex
100
AcDb2dVertex
 10
-107.435002718
 20
934.5834875938
  0
VERTEX
  5
468
100
AcDbEntity
  8
レイヤ1
100
AcDbVertex
100
AcDb2dVertex
 10
-121.9168369402
 20
839.9463848861
  0
VERTEX
  5
469
100
AcDbEntity
  8
レイヤ1
100
AcDbVertex
100
AcDb2dVertex
 10
-129.4577335884
 20
772.8963574091
  0
VERTEX
  5
46A
100
AcDbEntity
  8
レイヤ1
100
AcDbVertex
100
AcDb2dVertex
 10
-136.3986711623
 20
712.3041716255
  0
SEQEND
  5
46B
100
AcDbEntity
  8
レイヤ1
  0
POLYLINE
  5
46C
100
AcDbEntity
  8
レイヤ1
  6
CONTINUOUS
 62
     0
100
AcDb2dPolyline
 66
     1
 10
0
 20
0
 70
     0
  0
VERTEX
  5
46D
100
AcDbEntity
  8
レイヤ1
100
AcDbVertex
100
AcDb2dVertex
 10
-130.6732948419
 20
887.7701165035
  0
VERTEX
  5
46E
100
AcDbEntity
  8
レイヤ1
100
AcDbVertex
100
AcDb2dVertex
 10
-111.0440696893
 20
950.2620830931
  0
VERTEX
  5
46F
100
AcDbEntity
  8
レイヤ1
100
AcDbVertex
100
AcDb2dVertex
 10
-98.97830408834
 20
975.4903088721
  0
SEQEND
  5
470
100
AcDbEntity
  8
レイヤ1
  0
POLYLINE
  5
471
100
AcDbEntity
  8
レイヤ1
  6
CONTINUOUS
 62
     0
100
AcDb2dPolyline
 66
     1
 10
0
 20
0
 70
     0
  0
VERTEX
  5
472
100
AcDbEntity
  8
レイヤ1
100
AcDbVertex
100
AcDb2dVertex
 10
-126.7686699592
 20
796.8062183496
  0
VERTEX
  5
473
100
AcDbEntity
  8
レイヤ1
100
AcDbVertex
100
AcDb2dVertex
 10
-136.8514487851
 20
785.3485151384
  0
VERTEX
  5
474
100
AcDbEntity
  8
レイヤ1
100
AcDbVertex
100
AcDb2dVertex
 10
-149.2299717907
 20
777.7838621905
  0
VERTEX
  5
475
100
AcDbEntity
  8
レイヤ1
100
AcDbVertex
100
AcDb2dVertex
 10
-150.6053632358
 20
769.53151352
  0
VERTEX
  5
476
100
AcDbEntity
  8
レイヤ1
100
AcDbVertex
100
AcDb2dVertex
 10
-143.0407102879
 20
752.3391204566
  0
VERTEX
  5
477
100
AcDbEntity
  8
レイヤ1
100
AcDbVertex
100
AcDb2dVertex
 10
-135.1528434825
 20
723.17985253
  0
SEQEND
  5
478
100
AcDbEntity
  8
レイヤ1
  0
POLYLINE
  5
479
100
AcDbEntity
  8
レイヤ1
  6
CONTINUOUS
 62
     0
100
AcDb2dPolyline
 66
     1
 10
0
 20
0
 70
     0
  0
VERTEX
  5
47A
100
AcDbEntity
  8
レイヤ1
100
AcDbVertex
100
AcDb2dVertex
 10
91.43854788775
 20
1285.914736611
  0
VERTEX
  5
47B
100
AcDbEntity
  8
レイヤ1
100
AcDbVertex
100
AcDb2dVertex
 10
89.51352582695
 20
1276.289626307
  0
VERTEX
  5
47C
100
AcDbEntity
  8
レイヤ1
100
AcDbVertex
100
AcDb2dVertex
 10
72.1883272798
 20
1254.633128123
  0
VERTEX
  5
47D
100
AcDbEntity
  8
レイヤ1
100
AcDbVertex
100
AcDb2dVertex
 10
58.71317285424
 20
1232.976629939
  0
VERTEX
  5
47E
100
AcDbEntity
  8
レイヤ1
100
AcDbVertex
100
AcDb2dVertex
 10
49.56931806546
 20
1217.576453453
  0
VERTEX
  5
47F
100
AcDbEntity
  8
レイヤ1
100
AcDbVertex
100
AcDb2dVertex
 10
44.75676291348
 20
1203.620043512
  0
VERTEX
  5
480
100
AcDbEntity
  8
レイヤ1
100
AcDbVertex
100
AcDb2dVertex
 10
41.38797430709
 20
1183.888567389
  0
VERTEX
  5
481
100
AcDbEntity
  8
レイヤ1
100
AcDbVertex
100
AcDb2dVertex
 10
36.0941636399
 20
1172.338435024
  0
VERTEX
  5
482
100
AcDbEntity
  8
レイヤ1
100
AcDbVertex
100
AcDb2dVertex
 10
30.80035297272
 20
1112.181495624
  0
VERTEX
  5
483
100
AcDbEntity
  8
レイヤ1
100
AcDbVertex
100
AcDb2dVertex
 10
31.28160848791
 20
1103.037640835
  0
VERTEX
  5
484
100
AcDbEntity
  8
レイヤ1
100
AcDbVertex
100
AcDb2dVertex
 10
31.34629046498
 20
1086.514278523
  0
VERTEX
  5
485
100
AcDbEntity
  8
レイヤ1
100
AcDbVertex
100
AcDb2dVertex
 10
28.28236733683
 20
1075.437017983
  0
VERTEX
  5
486
100
AcDbEntity
  8
レイヤ1
100
AcDbVertex
100
AcDb2dVertex
 10
25.50654230553
 20
1062.130922043
  0
VERTEX
  5
487
100
AcDbEntity
  8
レイヤ1
100
AcDbVertex
100
AcDb2dVertex
 10
26.63256257551
 20
1017.929537731
  0
VERTEX
  5
488
100
AcDbEntity
  8
レイヤ1
100
AcDbVertex
100
AcDb2dVertex
 10
26.95030885113
 20
1011.117837432
  0
VERTEX
  5
489
100
AcDbEntity
  8
レイヤ1
100
AcDbVertex
100
AcDb2dVertex
 10
22.61900921434
 20
984.1675285813
  0
VERTEX
  5
48A
100
AcDbEntity
  8
レイヤ1
100
AcDbVertex
100
AcDb2dVertex
 10
21.65649818394
 20
974.5424182773
  0
VERTEX
  5
48B
100
AcDbEntity
  8
レイヤ1
100
AcDbVertex
100
AcDb2dVertex
 10
17.80645406235
 20
954.8109421542
  0
VERTEX
  5
48C
100
AcDbEntity
  8
レイヤ1
100
AcDbVertex
100
AcDb2dVertex
 10
12.03138787997
 20
912.9417123319
  0
VERTEX
  5
48D
100
AcDbEntity
  8
レイヤ1
100
AcDbVertex
100
AcDb2dVertex
 10
3.850044121589
 20
859.5223501448
  0
VERTEX
  5
48E
100
AcDbEntity
  8
レイヤ1
100
AcDbVertex
100
AcDb2dVertex
 10
-0.9625110303974
 20
847.4909622649
  0
VERTEX
  5
48F
100
AcDbEntity
  8
レイヤ1
100
AcDbVertex
100
AcDb2dVertex
 10
-2.887533091192
 20
839.3096185065
  0
VERTEX
  5
490
100
AcDbEntity
  8
レイヤ1
100
AcDbVertex
100
AcDb2dVertex
 10
-2.887533091192
 20
834.4970633545
  0
VERTEX
  5
491
100
AcDbEntity
  8
レイヤ1
100
AcDbVertex
100
AcDb2dVertex
 10
-1.443766545596
 20
829.6845082025
  0
VERTEX
  5
492
100
AcDbEntity
  8
レイヤ1
100
AcDbVertex
100
AcDb2dVertex
 10
5.775066182384
 20
824.3906975353
  0
VERTEX
  5
493
100
AcDbEntity
  8
レイヤ1
100
AcDbVertex
100
AcDb2dVertex
 10
39.94420776149
 20
778.1901680763
  0
VERTEX
  5
494
100
AcDbEntity
  8
レイヤ1
100
AcDbVertex
100
AcDb2dVertex
 10
48.12555151987
 20
762.3087360747
  0
VERTEX
  5
495
100
AcDbEntity
  8
レイヤ1
100
AcDbVertex
100
AcDb2dVertex
 10
50.05057358066
 20
760.8649695291
  0
VERTEX
  5
496
100
AcDbEntity
  8
レイヤ1
100
AcDbVertex
100
AcDb2dVertex
 10
69.30079418861
 20
761.8274805595
  0
VERTEX
  5
497
100
AcDbEntity
  8
レイヤ1
100
AcDbVertex
100
AcDb2dVertex
 10
77.48213794699
 20
766.1587801963
  0
VERTEX
  5
498
100
AcDbEntity
  8
レイヤ1
100
AcDbVertex
100
AcDb2dVertex
 10
89.03227031176
 20
767.6025467419
  0
VERTEX
  5
499
100
AcDbEntity
  8
レイヤ1
100
AcDbVertex
100
AcDb2dVertex
 10
117.9076012237
 20
771.4525908635
  0
VERTEX
  5
49A
100
AcDbEntity
  8
レイヤ1
100
AcDbVertex
100
AcDb2dVertex
 10
149.1892097116
 20
778.6714235915
  0
VERTEX
  5
49B
100
AcDbEntity
  8
レイヤ1
100
AcDbVertex
100
AcDb2dVertex
 10
220.8962814762
 20
793.5903445626
  0
VERTEX
  5
49C
100
AcDbEntity
  8
レイヤ1
100
AcDbVertex
100
AcDb2dVertex
 10
222.7236427775
 20
793.5560901924
  0
SEQEND
  5
49D
100
AcDbEntity
  8
レイヤ1
  0
POLYLINE
  5
49E
100
AcDbEntity
  8
レイヤ1
  6
CONTINUOUS
 62
     0
100
AcDb2dPolyline
 66
     1
 10
0
 20
0
 70
     0
  0
VERTEX
  5
49F
100
AcDbEntity
  8
レイヤ1
100
AcDbVertex
100
AcDb2dVertex
 10
48.12555151987
 20
762.3087360747
  0
VERTEX
  5
4A0
100
AcDbEntity
  8
レイヤ1
100
AcDbVertex
100
AcDb2dVertex
 10
33.67868423761
 20
729.4803005867
  0
VERTEX
  5
4A1
100
AcDbEntity
  8
レイヤ1
100
AcDbVertex
100
AcDb2dVertex
 10
33.34189739524
 20
727.4595795324
  0
SEQEND
  5
4A2
100
AcDbEntity
  8
レイヤ1
  0
POLYLINE
  5
4A3
100
AcDbEntity
  8
レイヤ1
  6
CONTINUOUS
 62
     0
100
AcDb2dPolyline
 66
     1
 10
0
 20
0
 70
     0
  0
VERTEX
  5
4A4
100
AcDbEntity
  8
レイヤ1
100
AcDbVertex
100
AcDb2dVertex
 10
66.01022110572
 20
759.4543295582
  0
VERTEX
  5
4A5
100
AcDbEntity
  8
レイヤ1
100
AcDbVertex
100
AcDb2dVertex
 10
61.29520531246
 20
750.6978716564
  0
VERTEX
  5
4A6
100
AcDbEntity
  8
レイヤ1
100
AcDbVertex
100
AcDb2dVertex
 10
52.87553425305
 20
740.9310532275
  0
VERTEX
  5
4A7
100
AcDbEntity
  8
レイヤ1
100
AcDbVertex
100
AcDb2dVertex
 10
45.46622372078
 20
735.5424637495
  0
VERTEX
  5
4A8
100
AcDbEntity
  8
レイヤ1
100
AcDbVertex
100
AcDb2dVertex
 10
42.09835529702
 20
734.5321032223
  0
VERTEX
  5
4A9
100
AcDbEntity
  8
レイヤ1
100
AcDbVertex
100
AcDb2dVertex
 10
40.75120792751
 20
730.8274479562
  0
VERTEX
  5
4AA
100
AcDbEntity
  8
レイヤ1
100
AcDbVertex
100
AcDb2dVertex
 10
45.80301056315
 20
728.8067269019
  0
VERTEX
  5
4AB
100
AcDbEntity
  8
レイヤ1
100
AcDbVertex
100
AcDb2dVertex
 10
51.52838688355
 20
725.4388584782
  0
VERTEX
  5
4AC
100
AcDbEntity
  8
レイヤ1
100
AcDbVertex
100
AcDb2dVertex
 10
55.56982899206
 20
720.7238426849
  0
SEQEND
  5
4AD
100
AcDbEntity
  8
レイヤ1
  0
LINE
  5
4AE
100
AcDbEntity
  8
レイヤ1
  6
CONTINUOUS
 62
     0
100
AcDbLine
 10
184.3208623211
 20
1049.618278648
 11
186.0064869455
 21
1014.220161536
  0
POLYLINE
  5
4AF
100
AcDbEntity
  8
レイヤ1
  6
CONTINUOUS
 62
     0
100
AcDb2dPolyline
 66
     1
 10
0
 20
0
 70
     0
  0
VERTEX
  5
4B0
100
AcDbEntity
  8
レイヤ1
100
AcDbVertex
100
AcDb2dVertex
 10
12.03138787997
 20
912.9417123319
  0
VERTEX
  5
4B1
100
AcDbEntity
  8
レイヤ1
100
AcDbVertex
100
AcDb2dVertex
 10
-1.925022060795
 20
893.2102362087
  0
VERTEX
  5
4B2
100
AcDbEntity
  8
レイヤ1
100
AcDbVertex
100
AcDb2dVertex
 10
-10.10360527128
 20
884.7390349221
  0
VERTEX
  5
4B3
100
AcDbEntity
  8
レイヤ1
100
AcDbVertex
100
AcDb2dVertex
 10
-29.35658642712
 20
856.6348170536
  0
VERTEX
  5
4B4
100
AcDbEntity
  8
レイヤ1
100
AcDbVertex
100
AcDb2dVertex
 10
-30.80035297272
 20
848.9347288105
  0
VERTEX
  5
4B5
100
AcDbEntity
  8
レイヤ1
100
AcDbVertex
100
AcDb2dVertex
 10
-29.83784194232
 20
847.0097067497
  0
VERTEX
  5
4B6
100
AcDbEntity
  8
レイヤ1
100
AcDbVertex
100
AcDb2dVertex
 10
-7.409310532275
 20
828.4956322453
  0
VERTEX
  5
4B7
100
AcDbEntity
  8
レイヤ1
100
AcDbVertex
100
AcDb2dVertex
 10
-1.925022060795
 20
825.3532085657
  0
VERTEX
  5
4B8
100
AcDbEntity
  8
レイヤ1
100
AcDbVertex
100
AcDb2dVertex
 10
-0.4812555151987
 20
815.2468427466
  0
VERTEX
  5
4B9
100
AcDbEntity
  8
レイヤ1
100
AcDbVertex
100
AcDb2dVertex
 10
32.72537503351
 20
724.7708058892
  0
VERTEX
  5
4BA
100
AcDbEntity
  8
レイヤ1
100
AcDbVertex
100
AcDb2dVertex
 10
36.5754191551
 20
720.4395062524
  0
VERTEX
  5
4BB
100
AcDbEntity
  8
レイヤ1
100
AcDbVertex
100
AcDb2dVertex
 10
54.47941257617
 20
709.9955100901
  0
SEQEND
  5
4BC
100
AcDbEntity
  8
レイヤ1
  0
POLYLINE
  5
4BD
100
AcDbEntity
  8
レイヤ1
  6
CONTINUOUS
 62
     0
100
AcDb2dPolyline
 66
     1
 10
0
 20
0
 70
     0
  0
VERTEX
  5
4BE
100
AcDbEntity
  8
レイヤ1
100
AcDbVertex
100
AcDb2dVertex
 10
51.61022558808
 20
760.9429521295
  0
VERTEX
  5
4BF
100
AcDbEntity
  8
レイヤ1
100
AcDbVertex
100
AcDb2dVertex
 10
36.29570474893
 20
727.7995861343
  0
VERTEX
  5
4C0
100
AcDbEntity
  8
レイヤ1
100
AcDbVertex
100
AcDb2dVertex
 10
36.29570474893
 20
726.3854677675
  0
VERTEX
  5
4C1
100
AcDbEntity
  8
レイヤ1
100
AcDbVertex
100
AcDb2dVertex
 10
55.81084770651
 20
712.917270515
  0
SEQEND
  5
4C2
100
AcDbEntity
  8
レイヤ1
  0
POLYLINE
  5
4C3
100
AcDbEntity
  8
レイヤ1
  6
CONTINUOUS
 62
     0
100
AcDb2dPolyline
 66
     1
 10
0
 20
0
 70
     0
  0
VERTEX
  5
4C4
100
AcDbEntity
  8
レイヤ1
100
AcDbVertex
100
AcDb2dVertex
 10
175.8027317203
 20
771.5786558837
  0
VERTEX
  5
4C5
100
AcDbEntity
  8
レイヤ1
100
AcDbVertex
100
AcDb2dVertex
 10
194.9084836555
 20
680.9765540061
  0
VERTEX
  5
4C6
100
AcDbEntity
  8
レイヤ1
100
AcDbVertex
100
AcDb2dVertex
 10
194.9084836555
 20
659.8013113374
  0
VERTEX
  5
4C7
100
AcDbEntity
  8
レイヤ1
100
AcDbVertex
100
AcDb2dVertex
 10
191.631713312
 20
644.9468031503
  0
VERTEX
  5
4C8
100
AcDbEntity
  8
レイヤ1
100
AcDbVertex
100
AcDb2dVertex
 10
187.2534843611
 20
638.5478531451
  0
VERTEX
  5
4C9
100
AcDbEntity
  8
レイヤ1
100
AcDbVertex
100
AcDb2dVertex
 10
182.8752554102
 20
636.1903452485
  0
VERTEX
  5
4CA
100
AcDbEntity
  8
レイヤ1
100
AcDbVertex
100
AcDb2dVertex
 10
179.1706001441
 20
635.8535584061
  0
VERTEX
  5
4CB
100
AcDbEntity
  8
レイヤ1
100
AcDbVertex
100
AcDb2dVertex
 10
168.3934211881
 20
639.5582136723
  0
VERTEX
  5
4CC
100
AcDbEntity
  8
レイヤ1
100
AcDbVertex
100
AcDb2dVertex
 10
130.4622727265
 20
664.1541927528
  0
SEQEND
  5
4CD
100
AcDbEntity
  8
レイヤ1
  0
POLYLINE
  5
4CE
100
AcDbEntity
  8
レイヤ1
  6
CONTINUOUS
 62
     0
100
AcDb2dPolyline
 66
     1
 10
0
 20
0
 70
     0
  0
VERTEX
  5
4CF
100
AcDbEntity
  8
レイヤ1
100
AcDbVertex
100
AcDb2dVertex
 10
122.6693156019
 20
772.5514480277
  0
VERTEX
  5
4D0
100
AcDbEntity
  8
レイヤ1
100
AcDbVertex
100
AcDb2dVertex
 10
123.2639843097
 20
734.19531638
  0
VERTEX
  5
4D1
100
AcDbEntity
  8
レイヤ1
100
AcDbVertex
100
AcDb2dVertex
 10
128.9893606301
 20
709.9466637289
  0
VERTEX
  5
4D2
100
AcDbEntity
  8
レイヤ1
100
AcDbVertex
100
AcDb2dVertex
 10
129.6629343148
 20
701.1902058271
  0
VERTEX
  5
4D3
100
AcDbEntity
  8
レイヤ1
100
AcDbVertex
100
AcDb2dVertex
 10
130.6732948419
 20
654.3768347368
  0
VERTEX
  5
4D4
100
AcDbEntity
  8
レイヤ1
100
AcDbVertex
100
AcDb2dVertex
 10
129.6629343148
 20
645.620376835
  0
VERTEX
  5
4D5
100
AcDbEntity
  8
レイヤ1
100
AcDbVertex
100
AcDb2dVertex
 10
127.6422132606
 20
643.5996557808
  0
VERTEX
  5
4D6
100
AcDbEntity
  8
レイヤ1
100
AcDbVertex
100
AcDb2dVertex
 10
122.5904106249
 20
642.5892952537
  0
VERTEX
  5
4D7
100
AcDbEntity
  8
レイヤ1
100
AcDbVertex
100
AcDb2dVertex
 10
119.2225422012
 20
643.2628689384
  0
VERTEX
  5
4D8
100
AcDbEntity
  8
レイヤ1
100
AcDbVertex
100
AcDb2dVertex
 10
117.5386079893
 20
645.9571636774
  0
VERTEX
  5
4D9
100
AcDbEntity
  8
レイヤ1
100
AcDbVertex
100
AcDb2dVertex
 10
116.1914606198
 20
652.0193268402
  0
VERTEX
  5
4DA
100
AcDbEntity
  8
レイヤ1
100
AcDbVertex
100
AcDb2dVertex
 10
115.8546737774
 20
635.5167715638
  0
VERTEX
  5
4DB
100
AcDbEntity
  8
レイヤ1
100
AcDbVertex
100
AcDb2dVertex
 10
114.1707395655
 20
628.1074610315
  0
VERTEX
  5
4DC
100
AcDbEntity
  8
レイヤ1
100
AcDbVertex
100
AcDb2dVertex
 10
111.4764448265
 20
626.4235268196
  0
VERTEX
  5
4DD
100
AcDbEntity
  8
レイヤ1
100
AcDbVertex
100
AcDb2dVertex
 10
106.0878553485
 20
625.4131662925
  0
VERTEX
  5
4DE
100
AcDbEntity
  8
レイヤ1
100
AcDbVertex
100
AcDb2dVertex
 10
100.3624790281
 20
627.4338873467
  0
VERTEX
  5
4DF
100
AcDbEntity
  8
レイヤ1
100
AcDbVertex
100
AcDb2dVertex
 10
98.67854481621
 20
629.1178215586
  0
VERTEX
  5
4E0
100
AcDbEntity
  8
レイヤ1
100
AcDbVertex
100
AcDb2dVertex
 10
98.00497113145
 20
625.0763794501
  0
VERTEX
  5
4E1
100
AcDbEntity
  8
レイヤ1
100
AcDbVertex
100
AcDb2dVertex
 10
95.9842500772
 20
622.7188715535
  0
VERTEX
  5
4E2
100
AcDbEntity
  8
レイヤ1
100
AcDbVertex
100
AcDb2dVertex
 10
86.89100533304
 20
622.3820847111
  0
VERTEX
  5
4E3
100
AcDbEntity
  8
レイヤ1
100
AcDbVertex
100
AcDb2dVertex
 10
84.53349743641
 20
624.7395926077
  0
VERTEX
  5
4E4
100
AcDbEntity
  8
レイヤ1
100
AcDbVertex
100
AcDb2dVertex
 10
82.17598953978
 20
628.1074610315
  0
VERTEX
  5
4E5
100
AcDbEntity
  8
レイヤ1
100
AcDbVertex
100
AcDb2dVertex
 10
81.50241585502
 20
623.0556583958
  0
VERTEX
  5
4E6
100
AcDbEntity
  8
レイヤ1
100
AcDbVertex
100
AcDb2dVertex
 10
78.47133427364
 20
620.6981504992
  0
VERTEX
  5
4E7
100
AcDbEntity
  8
レイヤ1
100
AcDbVertex
100
AcDb2dVertex
 10
71.06202374136
 20
620.3613636568
  0
VERTEX
  5
4E8
100
AcDbEntity
  8
レイヤ1
100
AcDbVertex
100
AcDb2dVertex
 10
66.68379479047
 20
623.0556583958
  0
VERTEX
  5
4E9
100
AcDbEntity
  8
レイヤ1
100
AcDbVertex
100
AcDb2dVertex
 10
61.96877899721
 20
627.7706741891
  0
VERTEX
  5
4EA
100
AcDbEntity
  8
レイヤ1
100
AcDbVertex
100
AcDb2dVertex
 10
60.95841847008
 20
632.14890314
  0
VERTEX
  5
4EB
100
AcDbEntity
  8
レイヤ1
100
AcDbVertex
100
AcDb2dVertex
 10
58.93769741582
 20
627.4338873467
  0
VERTEX
  5
4EC
100
AcDbEntity
  8
レイヤ1
100
AcDbVertex
100
AcDb2dVertex
 10
54.89625530731
 20
624.4028057653
  0
VERTEX
  5
4ED
100
AcDbEntity
  8
レイヤ1
100
AcDbVertex
100
AcDb2dVertex
 10
50.8548131988
 20
624.4028057653
  0
VERTEX
  5
4EE
100
AcDbEntity
  8
レイヤ1
100
AcDbVertex
100
AcDb2dVertex
 10
50.8548131988
 20
640.5685741994
  0
VERTEX
  5
4EF
100
AcDbEntity
  8
レイヤ1
100
AcDbVertex
100
AcDb2dVertex
 10
48.16051845979
 20
649.9986057859
  0
VERTEX
  5
4F0
100
AcDbEntity
  8
レイヤ1
100
AcDbVertex
100
AcDb2dVertex
 10
47.15015793266
 20
679.635847915
  0
VERTEX
  5
4F1
100
AcDbEntity
  8
レイヤ1
100
AcDbVertex
100
AcDb2dVertex
 10
46.13979740553
 20
687.3819452897
  0
VERTEX
  5
4F2
100
AcDbEntity
  8
レイヤ1
100
AcDbVertex
100
AcDb2dVertex
 10
46.47658424791
 20
692.4337479253
  0
VERTEX
  5
4F3
100
AcDbEntity
  8
レイヤ1
100
AcDbVertex
100
AcDb2dVertex
 10
58.60091057345
 20
719.039908473
  0
VERTEX
  5
4F4
100
AcDbEntity
  8
レイヤ1
100
AcDbVertex
100
AcDb2dVertex
 10
68.36772900235
 20
733.5217426952
  0
VERTEX
  5
4F5
100
AcDbEntity
  8
レイヤ1
100
AcDbVertex
100
AcDb2dVertex
 10
69.30079418861
 20
761.8274805595
  0
SEQEND
  5
4F6
100
AcDbEntity
  8
レイヤ1
  0
POLYLINE
  5
4F7
100
AcDbEntity
  8
レイヤ1
  6
CONTINUOUS
 62
     0
100
AcDb2dPolyline
 66
     1
 10
0
 20
0
 70
     0
  0
VERTEX
  5
4F8
100
AcDbEntity
  8
レイヤ1
100
AcDbVertex
100
AcDb2dVertex
 10
143.6655265292
 20
777.3967274725
  0
VERTEX
  5
4F9
100
AcDbEntity
  8
レイヤ1
100
AcDbVertex
100
AcDb2dVertex
 10
141.7872606404
 20
767.2004269328
  0
VERTEX
  5
4FA
100
AcDbEntity
  8
レイヤ1
100
AcDbVertex
100
AcDb2dVertex
 10
140.4401132708
 20
765.1797058786
  0
VERTEX
  5
4FB
100
AcDbEntity
  8
レイヤ1
100
AcDbVertex
100
AcDb2dVertex
 10
123.9375579944
 20
767.2004269328
  0
VERTEX
  5
4FC
100
AcDbEntity
  8
レイヤ1
100
AcDbVertex
100
AcDb2dVertex
 10
122.7481793964
 20
767.4647332879
  0
SEQEND
  5
4FD
100
AcDbEntity
  8
レイヤ1
  0
POLYLINE
  5
4FE
100
AcDbEntity
  8
レイヤ1
  6
CONTINUOUS
 62
     0
100
AcDb2dPolyline
 66
     1
 10
0
 20
0
 70
     0
  0
VERTEX
  5
4FF
100
AcDbEntity
  8
レイヤ1
100
AcDbVertex
100
AcDb2dVertex
 10
122.7736696374
 20
765.8206127387
  0
VERTEX
  5
500
100
AcDbEntity
  8
レイヤ1
100
AcDbVertex
100
AcDb2dVertex
 10
135.7250974776
 20
761.8118374548
  0
VERTEX
  5
501
100
AcDbEntity
  8
レイヤ1
100
AcDbVertex
100
AcDb2dVertex
 10
141.7872606404
 20
761.4750506124
  0
VERTEX
  5
502
100
AcDbEntity
  8
レイヤ1
100
AcDbVertex
100
AcDb2dVertex
 10
145.1551290641
 20
762.8221979819
  0
VERTEX
  5
503
100
AcDbEntity
  8
レイヤ1
100
AcDbVertex
100
AcDb2dVertex
 10
160.569451917
 20
781.0391249899
  0
SEQEND
  5
504
100
AcDbEntity
  8
レイヤ1
  0
POLYLINE
  5
505
100
AcDbEntity
  8
レイヤ1
  6
CONTINUOUS
 62
     0
100
AcDb2dPolyline
 66
     1
 10
0
 20
0
 70
     0
  0
VERTEX
  5
506
100
AcDbEntity
  8
レイヤ1
100
AcDbVertex
100
AcDb2dVertex
 10
122.8204896372
 20
762.8007227527
  0
VERTEX
  5
507
100
AcDbEntity
  8
レイヤ1
100
AcDbVertex
100
AcDb2dVertex
 10
141.1136869556
 20
754.7393137649
  0
VERTEX
  5
508
100
AcDbEntity
  8
レイヤ1
100
AcDbVertex
100
AcDb2dVertex
 10
144.4815553794
 20
754.4025269225
  0
VERTEX
  5
509
100
AcDbEntity
  8
レイヤ1
100
AcDbVertex
100
AcDb2dVertex
 10
175.8027317203
 20
771.5786558837
  0
VERTEX
  5
50A
100
AcDbEntity
  8
レイヤ1
100
AcDbVertex
100
AcDb2dVertex
 10
216.8907264902
 20
788.7547848449
  0
VERTEX
  5
50B
100
AcDbEntity
  8
レイヤ1
100
AcDbVertex
100
AcDb2dVertex
 10
223.1950155664
 20
792.1419718256
  0
VERTEX
  5
50C
100
AcDbEntity
  8
レイヤ1
100
AcDbVertex
100
AcDb2dVertex
 10
224.3734475388
 20
793.5560901924
  0
VERTEX
  5
50D
100
AcDbEntity
  8
レイヤ1
100
AcDbVertex
100
AcDb2dVertex
 10
200.1194552586
 20
927.7015297038
  0
VERTEX
  5
50E
100
AcDbEntity
  8
レイヤ1
100
AcDbVertex
100
AcDb2dVertex
 10
184.3024536402
 20
1024.666626582
  0
VERTEX
  5
50F
100
AcDbEntity
  8
レイヤ1
100
AcDbVertex
100
AcDb2dVertex
 10
167.7977562993
 20
1142.262595136
  0
VERTEX
  5
510
100
AcDbEntity
  8
レイヤ1
100
AcDbVertex
100
AcDb2dVertex
 10
151.9807546809
 20
1224.78608184
  0
VERTEX
  5
511
100
AcDbEntity
  8
レイヤ1
100
AcDbVertex
100
AcDb2dVertex
 10
151.9807546809
 20
1251.606215019
  0
VERTEX
  5
512
100
AcDbEntity
  8
レイヤ1
100
AcDbVertex
100
AcDb2dVertex
 10
149.2299717907
 20
1266.735520915
  0
VERTEX
  5
513
100
AcDbEntity
  8
レイヤ1
100
AcDbVertex
100
AcDb2dVertex
 10
141.6653188428
 20
1276.363261031
  0
SEQEND
  5
514
100
AcDbEntity
  8
レイヤ1
  0
POLYLINE
  5
515
100
AcDbEntity
  8
レイヤ1
  6
CONTINUOUS
 62
     0
100
AcDb2dPolyline
 66
     1
 10
0
 20
0
 70
     0
  0
VERTEX
  5
516
100
AcDbEntity
  8
レイヤ1
100
AcDbVertex
100
AcDb2dVertex
 10
60.95841847008
 20
632.14890314
  0
VERTEX
  5
517
100
AcDbEntity
  8
レイヤ1
100
AcDbVertex
100
AcDb2dVertex
 10
56.78815079344
 20
658.838800307
  0
VERTEX
  5
518
100
AcDbEntity
  8
レイヤ1
100
AcDbVertex
100
AcDb2dVertex
 10
55.34438424785
 20
680.0140429757
  0
SEQEND
  5
519
100
AcDbEntity
  8
レイヤ1
  0
LINE
  5
51A
100
AcDbEntity
  8
レイヤ1
  6
CONTINUOUS
 62
     0
100
AcDbLine
 10
82.17598953978
 20
628.1074610315
 11
79.40716000778
 21
650.6574565486
  0
LINE
  5
51B
100
AcDbEntity
  8
レイヤ1
  6
CONTINUOUS
 62
     0
100
AcDbLine
 10
98.67854481621
 20
629.1178215586
 11
99.13863613093
 21
654.026245155
  0
LINE
  5
51C
100
AcDbEntity
  8
レイヤ1
  6
CONTINUOUS
 62
     0
100
AcDbLine
 10
116.1914606198
 20
652.0193268402
 11
116.9450901933
 21
662.2075889134
  0
POLYLINE
  5
51D
100
AcDbEntity
  8
レイヤ1
  6
CONTINUOUS
 62
     0
100
AcDb2dPolyline
 66
     1
 10
0
 20
0
 70
     0
  0
VERTEX
  5
51E
100
AcDbEntity
  8
レイヤ1
100
AcDbVertex
100
AcDb2dVertex
 10
59.94805794295
 20
629.7913952434
  0
VERTEX
  5
51F
100
AcDbEntity
  8
レイヤ1
100
AcDbVertex
100
AcDb2dVertex
 10
61.98552174654
 20
624.5689453549
  0
VERTEX
  5
520
100
AcDbEntity
  8
レイヤ1
100
AcDbVertex
100
AcDb2dVertex
 10
88.85377071653
 20
542.0787072892
  0
VERTEX
  5
521
100
AcDbEntity
  8
レイヤ1
100
AcDbVertex
100
AcDb2dVertex
 10
97.1027945231
 20
526.9947780428
  0
VERTEX
  5
522
100
AcDbEntity
  8
レイヤ1
100
AcDbVertex
100
AcDb2dVertex
 10
94.74593057836
 20
522.0453637589
  0
VERTEX
  5
523
100
AcDbEntity
  8
レイヤ1
100
AcDbVertex
100
AcDb2dVertex
 10
94.03887139494
 20
516.8602630805
  0
VERTEX
  5
524
100
AcDbEntity
  8
レイヤ1
100
AcDbVertex
100
AcDb2dVertex
 10
96.63142173415
 20
509.0826120629
  0
VERTEX
  5
525
100
AcDbEntity
  8
レイヤ1
100
AcDbVertex
100
AcDb2dVertex
 10
99.45965846784
 20
507.4328073015
  0
VERTEX
  5
526
100
AcDbEntity
  8
レイヤ1
100
AcDbVertex
100
AcDb2dVertex
 10
89.56082989995
 20
501.0692746508
  0
VERTEX
  5
527
100
AcDbEntity
  8
レイヤ1
100
AcDbVertex
100
AcDb2dVertex
 10
82.49023806574
 20
500.5979018618
  0
VERTEX
  5
528
100
AcDbEntity
  8
レイヤ1
100
AcDbVertex
100
AcDb2dVertex
 10
78.48356935969
 20
497.7696651281
  0
VERTEX
  5
529
100
AcDbEntity
  8
レイヤ1
100
AcDbVertex
100
AcDb2dVertex
 10
71.17729113101
 20
502.2477066231
  0
VERTEX
  5
52A
100
AcDbEntity
  8
レイヤ1
100
AcDbVertex
100
AcDb2dVertex
 10
68.82042718628
 20
501.7763338342
  0
VERTEX
  5
52B
100
AcDbEntity
  8
レイヤ1
100
AcDbVertex
100
AcDb2dVertex
 10
49.17087898692
 20
467.4601372181
  0
VERTEX
  5
52C
100
AcDbEntity
  8
レイヤ1
100
AcDbVertex
100
AcDb2dVertex
 10
24.58543949346
 20
409.8695871718
  0
VERTEX
  5
52D
100
AcDbEntity
  8
レイヤ1
100
AcDbVertex
100
AcDb2dVertex
 10
21.55435791207
 20
394.0406055801
  0
VERTEX
  5
52E
100
AcDbEntity
  8
レイヤ1
100
AcDbVertex
100
AcDb2dVertex
 10
20.54399738494
 20
372.486247668
  0
VERTEX
  5
52F
100
AcDbEntity
  8
レイヤ1
100
AcDbVertex
100
AcDb2dVertex
 10
21.89114475445
 20
369.1183792442
  0
VERTEX
  5
530
100
AcDbEntity
  8
レイヤ1
100
AcDbVertex
100
AcDb2dVertex
 10
29.30045528672
 20
363.0562160815
  0
VERTEX
  5
531
100
AcDbEntity
  8
レイヤ1
100
AcDbVertex
100
AcDb2dVertex
 10
50.8548131988
 20
360.0251345001
  0
VERTEX
  5
532
100
AcDbEntity
  8
レイヤ1
100
AcDbVertex
100
AcDb2dVertex
 10
66.68379479047
 20
355.3101187068
  0
VERTEX
  5
533
100
AcDbEntity
  8
レイヤ1
100
AcDbVertex
100
AcDb2dVertex
 10
82.51277638215
 20
354.9733318644
  0
VERTEX
  5
534
100
AcDbEntity
  8
レイヤ1
100
AcDbVertex
100
AcDb2dVertex
 10
90.93244744156
 20
353.9629713373
  0
VERTEX
  5
535
100
AcDbEntity
  8
レイヤ1
100
AcDbVertex
100
AcDb2dVertex
 10
122.2536237825
 20
358.0044134458
  0
VERTEX
  5
536
100
AcDbEntity
  8
レイヤ1
100
AcDbVertex
100
AcDb2dVertex
 10
134.0411632657
 20
358.0044134458
  0
VERTEX
  5
537
100
AcDbEntity
  8
レイヤ1
100
AcDbVertex
100
AcDb2dVertex
 10
141.450473798
 20
359.6883476577
  0
VERTEX
  5
538
100
AcDbEntity
  8
レイヤ1
100
AcDbVertex
100
AcDb2dVertex
 10
149.533358015
 20
359.014773973
  0
VERTEX
  5
539
100
AcDbEntity
  8
レイヤ1
100
AcDbVertex
100
AcDb2dVertex
 10
157.2794553897
 20
362.0458555543
  0
VERTEX
  5
53A
100
AcDbEntity
  8
レイヤ1
100
AcDbVertex
100
AcDb2dVertex
 10
174.7923711932
 20
364.403363451
  0
VERTEX
  5
53B
100
AcDbEntity
  8
レイヤ1
100
AcDbVertex
100
AcDb2dVertex
 10
180.5177475136
 20
368.4448055595
  0
VERTEX
  5
53C
100
AcDbEntity
  8
レイヤ1
100
AcDbVertex
100
AcDb2dVertex
 10
191.631713312
 20
371.1391002985
  0
VERTEX
  5
53D
100
AcDbEntity
  8
レイヤ1
100
AcDbVertex
100
AcDb2dVertex
 10
199.0410238443
 20
378.2116239884
  0
VERTEX
  5
53E
100
AcDbEntity
  8
レイヤ1
100
AcDbVertex
100
AcDb2dVertex
 10
199.714597529
 20
392.6934582106
  0
VERTEX
  5
53F
100
AcDbEntity
  8
レイヤ1
100
AcDbVertex
100
AcDb2dVertex
 10
198.3674501595
 20
399.0924082157
  0
VERTEX
  5
540
100
AcDbEntity
  8
レイヤ1
100
AcDbVertex
100
AcDb2dVertex
 10
187.9270580459
 20
424.6882082363
  0
VERTEX
  5
541
100
AcDbEntity
  8
レイヤ1
100
AcDbVertex
100
AcDb2dVertex
 10
183.8856159374
 20
438.8332556161
  0
VERTEX
  5
542
100
AcDbEntity
  8
レイヤ1
100
AcDbVertex
100
AcDb2dVertex
 10
171.0877159271
 20
457.0197451044
  0
VERTEX
  5
543
100
AcDbEntity
  8
レイヤ1
100
AcDbVertex
100
AcDb2dVertex
 10
161.6576843405
 20
475.5430214351
  0
VERTEX
  5
544
100
AcDbEntity
  8
レイヤ1
100
AcDbVertex
100
AcDb2dVertex
 10
142.1240474827
 20
505.8538372489
  0
VERTEX
  5
545
100
AcDbEntity
  8
レイヤ1
100
AcDbVertex
100
AcDb2dVertex
 10
136.3986711623
 20
507.5377714608
  0
VERTEX
  5
546
100
AcDbEntity
  8
レイヤ1
100
AcDbVertex
100
AcDb2dVertex
 10
132.3572290538
 20
501.8123951404
  0
VERTEX
  5
547
100
AcDbEntity
  8
レイヤ1
100
AcDbVertex
100
AcDb2dVertex
 10
127.3054264182
 20
499.7916740862
  0
VERTEX
  5
548
100
AcDbEntity
  8
レイヤ1
100
AcDbVertex
100
AcDb2dVertex
 10
125.9582790487
 20
497.0973793472
  0
VERTEX
  5
549
100
AcDbEntity
  8
レイヤ1
100
AcDbVertex
100
AcDb2dVertex
 10
122.2536237825
 20
496.4238056624
  0
VERTEX
  5
54A
100
AcDbEntity
  8
レイヤ1
100
AcDbVertex
100
AcDb2dVertex
 10
121.2432632554
 20
500.4652477709
  0
VERTEX
  5
54B
100
AcDbEntity
  8
レイヤ1
100
AcDbVertex
100
AcDb2dVertex
 10
123.9375579944
 20
500.1284609286
  0
VERTEX
  5
54C
100
AcDbEntity
  8
レイヤ1
100
AcDbVertex
100
AcDb2dVertex
 10
127.6422132606
 20
502.8227556676
  0
VERTEX
  5
54D
100
AcDbEntity
  8
レイヤ1
100
AcDbVertex
100
AcDb2dVertex
 10
127.6422132606
 20
505.8538372489
  0
VERTEX
  5
54E
100
AcDbEntity
  8
レイヤ1
100
AcDbVertex
100
AcDb2dVertex
 10
125.6214922063
 20
508.2113451456
  0
VERTEX
  5
54F
100
AcDbEntity
  8
レイヤ1
100
AcDbVertex
100
AcDb2dVertex
 10
130.6732948419
 20
514.9470819931
  0
VERTEX
  5
550
100
AcDbEntity
  8
レイヤ1
100
AcDbVertex
100
AcDb2dVertex
 10
130.6732948419
 20
518.3149504169
  0
VERTEX
  5
551
100
AcDbEntity
  8
レイヤ1
100
AcDbVertex
100
AcDb2dVertex
 10
127.6422132606
 20
522.3563925254
  0
VERTEX
  5
552
100
AcDbEntity
  8
レイヤ1
100
AcDbVertex
100
AcDb2dVertex
 10
120.5696895707
 20
529.0921293729
  0
VERTEX
  5
553
100
AcDbEntity
  8
レイヤ1
100
AcDbVertex
100
AcDb2dVertex
 10
117.8753948316
 20
531.1128504272
  0
VERTEX
  5
554
100
AcDbEntity
  8
レイヤ1
100
AcDbVertex
100
AcDb2dVertex
 10
113.8339527231
 20
531.1128504272
  0
VERTEX
  5
555
100
AcDbEntity
  8
レイヤ1
100
AcDbVertex
100
AcDb2dVertex
 10
115.1811000926
 20
540.5428820137
  0
VERTEX
  5
556
100
AcDbEntity
  8
レイヤ1
100
AcDbVertex
100
AcDb2dVertex
 10
118.212181674
 20
544.2475372798
  0
VERTEX
  5
557
100
AcDbEntity
  8
レイヤ1
100
AcDbVertex
100
AcDb2dVertex
 10
121.9168369402
 20
596.1127110058
  0
VERTEX
  5
558
100
AcDbEntity
  8
レイヤ1
100
AcDbVertex
100
AcDb2dVertex
 10
121.2432632554
 20
634.5064110366
  0
VERTEX
  5
559
100
AcDbEntity
  8
レイヤ1
100
AcDbVertex
100
AcDb2dVertex
 10
118.8857553588
 20
639.5582136723
  0
VERTEX
  5
55A
100
AcDbEntity
  8
レイヤ1
100
AcDbVertex
100
AcDb2dVertex
 10
119.2225422012
 20
643.2628689384
  0
SEQEND
  5
55B
100
AcDbEntity
  8
レイヤ1
  0
POLYLINE
  5
55C
100
AcDbEntity
  8
レイヤ1
  6
CONTINUOUS
 62
     0
100
AcDb2dPolyline
 66
     1
 10
0
 20
0
 70
     0
  0
VERTEX
  5
55D
100
AcDbEntity
  8
レイヤ1
100
AcDbVertex
100
AcDb2dVertex
 10
71.06202374136
 20
620.3613636568
  0
VERTEX
  5
55E
100
AcDbEntity
  8
レイヤ1
100
AcDbVertex
100
AcDb2dVertex
 10
98.67854481621
 20
579.9469425717
  0
VERTEX
  5
55F
100
AcDbEntity
  8
レイヤ1
100
AcDbVertex
100
AcDb2dVertex
 10
103.7303474518
 20
608.2370373313
  0
VERTEX
  5
560
100
AcDbEntity
  8
レイヤ1
100
AcDbVertex
100
AcDb2dVertex
 10
111.4764448265
 20
626.4235268196
  0
SEQEND
  5
561
100
AcDbEntity
  8
レイヤ1
  0
POLYLINE
  5
562
100
AcDbEntity
  8
レイヤ1
  6
CONTINUOUS
 62
     0
100
AcDb2dPolyline
 66
     1
 10
0
 20
0
 70
     1
  0
VERTEX
  5
563
100
AcDbEntity
  8
レイヤ1
100
AcDbVertex
100
AcDb2dVertex
 10
112.1500185113
 20
601.5013004838
  0
VERTEX
  5
564
100
AcDbEntity
  8
レイヤ1
100
AcDbVertex
100
AcDb2dVertex
 10
111.4764448265
 20
560.7500925563
  0
VERTEX
  5
565
100
AcDbEntity
  8
レイヤ1
100
AcDbVertex
100
AcDb2dVertex
 10
104.0671342942
 20
567.4858294038
  0
SEQEND
  5
566
100
AcDbEntity
  8
レイヤ1
  0
POLYLINE
  5
567
100
AcDbEntity
  8
レイヤ1
  6
CONTINUOUS
 62
     0
100
AcDb2dPolyline
 66
     1
 10
0
 20
0
 70
     0
  0
VERTEX
  5
568
100
AcDbEntity
  8
レイヤ1
100
AcDbVertex
100
AcDb2dVertex
 10
92.61638165344
 20
545.9314714917
  0
VERTEX
  5
569
100
AcDbEntity
  8
レイヤ1
100
AcDbVertex
100
AcDb2dVertex
 10
95.31067639245
 20
568.1594030885
  0
VERTEX
  5
56A
100
AcDbEntity
  8
レイヤ1
100
AcDbVertex
100
AcDb2dVertex
 10
70.38845005661
 20
610.2577583855
  0
SEQEND
  5
56B
100
AcDbEntity
  8
レイヤ1
  0
LINE
  5
56C
100
AcDbEntity
  8
レイヤ1
  6
CONTINUOUS
 62
     0
100
AcDbLine
 10
93.96352902294
 20
557.0454372901
 11
80.08341094803
 21
593.8811352582
  0
POLYLINE
  5
56D
100
AcDbEntity
  8
レイヤ1
  6
CONTINUOUS
 62
     0
100
AcDb2dPolyline
 66
     1
 10
0
 20
0
 70
     0
  0
VERTEX
  5
56E
100
AcDbEntity
  8
レイヤ1
100
AcDbVertex
100
AcDb2dVertex
 10
99.01533165858
 20
562.0972399258
  0
VERTEX
  5
56F
100
AcDbEntity
  8
レイヤ1
100
AcDbVertex
100
AcDb2dVertex
 10
108.1085764027
 20
546.9418320188
  0
VERTEX
  5
570
100
AcDbEntity
  8
レイヤ1
100
AcDbVertex
100
AcDb2dVertex
 10
106.4246421909
 20
542.5636030679
  0
VERTEX
  5
571
100
AcDbEntity
  8
レイヤ1
100
AcDbVertex
100
AcDb2dVertex
 10
102.3832000823
 20
543.9107504375
  0
VERTEX
  5
572
100
AcDbEntity
  8
レイヤ1
100
AcDbVertex
100
AcDb2dVertex
 10
102.6590468242
 20
551.2206890966
  0
SEQEND
  5
573
100
AcDbEntity
  8
レイヤ1
  0
LINE
  5
574
100
AcDbEntity
  8
レイヤ1
  6
CONTINUOUS
 62
     0
100
AcDbLine
 10
97.1027945231
 20
526.9947780428
 11
105.4142816637
 21
539.1957346442
  0
POLYLINE
  5
575
100
AcDbEntity
  8
レイヤ1
  6
CONTINUOUS
 62
     0
100
AcDb2dPolyline
 66
     1
 10
0
 20
0
 70
     0
  0
VERTEX
  5
576
100
AcDbEntity
  8
レイヤ1
100
AcDbVertex
100
AcDb2dVertex
 10
77.00088243179
 20
492.3243920482
  0
VERTEX
  5
577
100
AcDbEntity
  8
レイヤ1
100
AcDbVertex
100
AcDb2dVertex
 10
74.1133493406
 20
412.9172320405
  0
VERTEX
  5
578
100
AcDbEntity
  8
レイヤ1
100
AcDbVertex
100
AcDb2dVertex
 10
70.74456073421
 20
391.7419893717
  0
SEQEND
  5
579
100
AcDbEntity
  8
レイヤ1
  0
POLYLINE
  5
57A
100
AcDbEntity
  8
レイヤ1
  6
CONTINUOUS
 62
     0
100
AcDb2dPolyline
 66
     1
 10
0
 20
0
 70
     0
  0
VERTEX
  5
57B
100
AcDbEntity
  8
レイヤ1
100
AcDbVertex
100
AcDb2dVertex
 10
73.6320938254
 20
487.5118368963
  0
VERTEX
  5
57C
100
AcDbEntity
  8
レイヤ1
100
AcDbVertex
100
AcDb2dVertex
 10
68.81953867341
 20
478.3679821075
  0
VERTEX
  5
57D
100
AcDbEntity
  8
レイヤ1
100
AcDbVertex
100
AcDb2dVertex
 10
63.52572800623
 20
476.4429600467
  0
VERTEX
  5
57E
100
AcDbEntity
  8
レイヤ1
100
AcDbVertex
100
AcDb2dVertex
 10
48.12555151987
 20
447.0863736196
  0
SEQEND
  5
57F
100
AcDbEntity
  8
レイヤ1
  0
POLYLINE
  5
580
100
AcDbEntity
  8
レイヤ1
  6
CONTINUOUS
 62
     0
100
AcDb2dPolyline
 66
     1
 10
0
 20
0
 70
     0
  0
VERTEX
  5
581
100
AcDbEntity
  8
レイヤ1
100
AcDbVertex
100
AcDb2dVertex
 10
131.3827556492
 20
495.6931806546
  0
VERTEX
  5
582
100
AcDbEntity
  8
レイヤ1
100
AcDbVertex
100
AcDb2dVertex
 10
135.714055286
 20
493.7681585938
  0
VERTEX
  5
583
100
AcDbEntity
  8
レイヤ1
100
AcDbVertex
100
AcDb2dVertex
 10
138.120332862
 20
486.5493258659
  0
VERTEX
  5
584
100
AcDbEntity
  8
レイヤ1
100
AcDbVertex
100
AcDb2dVertex
 10
162.6643641372
 20
428.798664042
  0
SEQEND
  5
585
100
AcDbEntity
  8
レイヤ1
  0
POLYLINE
  5
586
100
AcDbEntity
  8
レイヤ1
  6
CONTINUOUS
 62
     0
100
AcDb2dPolyline
 66
     1
 10
0
 20
0
 70
     0
  0
VERTEX
  5
587
100
AcDbEntity
  8
レイヤ1
100
AcDbVertex
100
AcDb2dVertex
 10
138.6015883772
 20
497.1369472002
  0
VERTEX
  5
588
100
AcDbEntity
  8
レイヤ1
100
AcDbVertex
100
AcDb2dVertex
 10
141.9703769836
 20
487.0305813811
  0
VERTEX
  5
589
100
AcDbEntity
  8
レイヤ1
100
AcDbVertex
100
AcDb2dVertex
 10
147.2641876508
 20
483.6617927747
  0
VERTEX
  5
58A
100
AcDbEntity
  8
レイヤ1
100
AcDbVertex
100
AcDb2dVertex
 10
165.0706417131
 20
451.8989287716
  0
SEQEND
  5
58B
100
AcDbEntity
  8
レイヤ1
  0
POLYLINE
  5
58C
100
AcDbEntity
  8
レイヤ1
  6
CONTINUOUS
 62
     0
100
AcDb2dPolyline
 66
     1
 10
0
 20
0
 70
     0
  0
VERTEX
  5
58D
100
AcDbEntity
  8
レイヤ1
100
AcDbVertex
100
AcDb2dVertex
 10
29.30045528672
 20
363.0562160815
  0
VERTEX
  5
58E
100
AcDbEntity
  8
レイヤ1
100
AcDbVertex
100
AcDb2dVertex
 10
30.31909745752
 20
326.2912393047
  0
VERTEX
  5
58F
100
AcDbEntity
  8
レイヤ1
100
AcDbVertex
100
AcDb2dVertex
 10
32.72537503351
 20
322.9224506983
  0
VERTEX
  5
590
100
AcDbEntity
  8
レイヤ1
100
AcDbVertex
100
AcDb2dVertex
 10
52.93810667185
 20
314.7411069399
  0
VERTEX
  5
591
100
AcDbEntity
  8
レイヤ1
100
AcDbVertex
100
AcDb2dVertex
 10
92.40105891815
 20
312.8160848791
  0
VERTEX
  5
592
100
AcDbEntity
  8
レイヤ1
100
AcDbVertex
100
AcDb2dVertex
 10
142.4516324988
 20
314.2598514247
  0
VERTEX
  5
593
100
AcDbEntity
  8
レイヤ1
100
AcDbVertex
100
AcDb2dVertex
 10
170.3644523803
 20
319.5536620919
  0
VERTEX
  5
594
100
AcDbEntity
  8
レイヤ1
100
AcDbVertex
100
AcDb2dVertex
 10
191.5396950491
 20
327.7350058503
  0
VERTEX
  5
595
100
AcDbEntity
  8
レイヤ1
100
AcDbVertex
100
AcDb2dVertex
 10
196.6835159477
 20
331.3982528981
  0
VERTEX
  5
596
100
AcDbEntity
  8
レイヤ1
100
AcDbVertex
100
AcDb2dVertex
 10
197.6938764748
 20
337.7972029033
  0
VERTEX
  5
597
100
AcDbEntity
  8
レイヤ1
100
AcDbVertex
100
AcDb2dVertex
 10
194.4937754744
 20
373.8710687262
  0
SEQEND
  5
598
100
AcDbEntity
  8
レイヤ1
  0
POLYLINE
  5
599
100
AcDbEntity
  8
レイヤ1
  6
CONTINUOUS
 62
     0
100
AcDb2dPolyline
 66
     1
 10
0
 20
0
 70
     0
  0
VERTEX
  5
59A
100
AcDbEntity
  8
レイヤ1
100
AcDbVertex
100
AcDb2dVertex
 10
89.56082989995
 20
501.0692746508
  0
VERTEX
  5
59B
100
AcDbEntity
  8
レイヤ1
100
AcDbVertex
100
AcDb2dVertex
 10
92.95316849581
 20
499.1181004014
  0
VERTEX
  5
59C
100
AcDbEntity
  8
レイヤ1
100
AcDbVertex
100
AcDb2dVertex
 10
93.62674218056
 20
495.4134451353
  0
VERTEX
  5
59D
100
AcDbEntity
  8
レイヤ1
100
AcDbVertex
100
AcDb2dVertex
 10
100.6992658705
 20
499.4548872438
  0
VERTEX
  5
59E
100
AcDbEntity
  8
レイヤ1
100
AcDbVertex
100
AcDb2dVertex
 10
104.4039211366
 20
499.4548872438
  0
VERTEX
  5
59F
100
AcDbEntity
  8
レイヤ1
100
AcDbVertex
100
AcDb2dVertex
 10
107.7717895604
 20
498.4445267167
  0
VERTEX
  5
5A0
100
AcDbEntity
  8
レイヤ1
100
AcDbVertex
100
AcDb2dVertex
 10
112.1500185113
 20
503.1595425099
  0
VERTEX
  5
5A1
100
AcDbEntity
  8
レイヤ1
100
AcDbVertex
100
AcDb2dVertex
 10
114.8443132503
 20
503.8331161947
  0
VERTEX
  5
5A2
100
AcDbEntity
  8
レイヤ1
100
AcDbVertex
100
AcDb2dVertex
 10
117.5386079893
 20
503.4963293523
  0
VERTEX
  5
5A3
100
AcDbEntity
  8
レイヤ1
100
AcDbVertex
100
AcDb2dVertex
 10
121.2432632554
 20
500.4652477709
  0
SEQEND
  5
5A4
100
AcDbEntity
  8
レイヤ1
  0
POLYLINE
  5
5A5
100
AcDbEntity
  8
レイヤ1
  6
CONTINUOUS
 62
     0
100
AcDb2dPolyline
 66
     1
 10
0
 20
0
 70
     0
  0
VERTEX
  5
5A6
100
AcDbEntity
  8
レイヤ1
100
AcDbVertex
100
AcDb2dVertex
 10
0
 20
1012.04446134
  0
VERTEX
  5
5A7
100
AcDbEntity
  8
レイヤ1
100
AcDbVertex
100
AcDb2dVertex
 10
15.12930589584
 20
997.8464934026
  0
VERTEX
  5
5A8
100
AcDbEntity
  8
レイヤ1
100
AcDbVertex
100
AcDb2dVertex
 10
22.80476927285
 20
985.3233689454
  0
SEQEND
  5
5A9
100
AcDbEntity
  8
レイヤ1
  0
POLYLINE
  5
5AA
100
AcDbEntity
  8
レイヤ1
  6
CONTINUOUS
 62
     0
100
AcDb2dPolyline
 66
     1
 10
0
 20
0
 70
     0
  0
VERTEX
  5
5AB
100
AcDbEntity
  8
レイヤ1
100
AcDbVertex
100
AcDb2dVertex
 10
-111.8132316689
 20
809.2987822298
  0
VERTEX
  5
5AC
100
AcDbEntity
  8
レイヤ1
100
AcDbVertex
100
AcDb2dVertex
 10
-122.8363602757
 20
628.9221646118
  0
VERTEX
  5
5AD
100
AcDbEntity
  8
レイヤ1
100
AcDbVertex
100
AcDb2dVertex
 10
-126.7671238046
 20
336.0802817144
  0
VERTEX
  5
5AE
100
AcDbEntity
  8
レイヤ1
100
AcDbVertex
100
AcDb2dVertex
 10
-123.8190511579
 20
227.0015937896
  0
VERTEX
  5
5AF
100
AcDbEntity
  8
レイヤ1
100
AcDbVertex
100
AcDb2dVertex
 10
-124.9479185215
 20
170.4141422423
  0
SEQEND
  5
5B0
100
AcDbEntity
  8
レイヤ1
  0
POLYLINE
  5
5B1
100
AcDbEntity
  8
レイヤ1
  6
CONTINUOUS
 62
     0
100
AcDb2dPolyline
 66
     1
 10
0
 20
0
 70
     0
  0
VERTEX
  5
5B2
100
AcDbEntity
  8
レイヤ1
100
AcDbVertex
100
AcDb2dVertex
 10
-85.71225138473
 20
727.1227926901
  0
VERTEX
  5
5B3
100
AcDbEntity
  8
レイヤ1
100
AcDbVertex
100
AcDb2dVertex
 10
-83.52872498751
 20
547.3588213887
  0
VERTEX
  5
5B4
100
AcDbEntity
  8
レイヤ1
100
AcDbVertex
100
AcDb2dVertex
 10
-74.68450704765
 20
400.93787994
  0
VERTEX
  5
5B5
100
AcDbEntity
  8
レイヤ1
100
AcDbVertex
100
AcDb2dVertex
 10
-59.94414381456
 20
233.880429965
  0
VERTEX
  5
5B6
100
AcDbEntity
  8
レイヤ1
100
AcDbVertex
100
AcDb2dVertex
 10
-41.26174335228
 20
101.0912712131
  0
SEQEND
  5
5B7
100
AcDbEntity
  8
レイヤ1
  0
POLYLINE
  5
5B8
100
AcDbEntity
  8
レイヤ1
  6
CONTINUOUS
 62
     0
100
AcDb2dPolyline
 66
     1
 10
0
 20
0
 70
     0
  0
VERTEX
  5
5B9
100
AcDbEntity
  8
レイヤ1
100
AcDbVertex
100
AcDb2dVertex
 10
-45.1294368784
 20
778.987966416
  0
VERTEX
  5
5BA
100
AcDbEntity
  8
レイヤ1
100
AcDbVertex
100
AcDb2dVertex
 10
-29.48072646618
 20
685.9182357797
  0
VERTEX
  5
5BB
100
AcDbEntity
  8
レイヤ1
100
AcDbVertex
100
AcDb2dVertex
 10
14.04227681404
 20
342.6315542625
  0
VERTEX
  5
5BC
100
AcDbEntity
  8
レイヤ1
100
AcDbVertex
100
AcDb2dVertex
 10
52.45685115666
 20
124.1639229213
  0
SEQEND
  5
5BD
100
AcDbEntity
  8
レイヤ1
  0
LINE
  5
5BE
100
AcDbEntity
  8
レイヤ1
  6
CONTINUOUS
 62
     0
100
AcDbLine
 10
162.714428057
 20
643.2406857807
 11
176.0212971277
 21
450.0088665562
  0
LINE
  5
5BF
100
AcDbEntity
  8
レイヤ1
  6
CONTINUOUS
 62
     0
100
AcDbLine
 10
197.3147612315
 20
157.8518089852
 11
181.7908226591
 21
323.9683960633
  0
POLYLINE
  5
5C0
100
AcDbEntity
  8
レイヤ1
  6
CONTINUOUS
 62
     0
100
AcDb2dPolyline
 66
     1
 10
0
 20
0
 70
     0
  0
VERTEX
  5
5C1
100
AcDbEntity
  8
レイヤ1
100
AcDbVertex
100
AcDb2dVertex
 10
-118.8701122541
 20
157.37055347
  0
VERTEX
  5
5C2
100
AcDbEntity
  8
レイヤ1
100
AcDbVertex
100
AcDb2dVertex
 10
-119.3593529193
 20
561.6910725614
  0
VERTEX
  5
5C3
100
AcDbEntity
  8
レイヤ1
100
AcDbVertex
100
AcDb2dVertex
 10
-114.1574899413
 20
728.9574658903
  0
SEQEND
  5
5C4
100
AcDbEntity
  8
レイヤ1
  0
POLYLINE
  5
5C5
100
AcDbEntity
  8
レイヤ1
  6
CONTINUOUS
 62
     0
100
AcDb2dPolyline
 66
     1
 10
0
 20
0
 70
     0
  0
VERTEX
  5
5C6
100
AcDbEntity
  8
レイヤ1
100
AcDbVertex
100
AcDb2dVertex
 10
-79.81848164314
 20
726.4492190053
  0
VERTEX
  5
5C7
100
AcDbEntity
  8
レイヤ1
100
AcDbVertex
100
AcDb2dVertex
 10
-73.70181616545
 20
498.2242772784
  0
VERTEX
  5
5C8
100
AcDbEntity
  8
レイヤ1
100
AcDbVertex
100
AcDb2dVertex
 10
-66.82297999
 20
377.3532987671
  0
VERTEX
  5
5C9
100
AcDbEntity
  8
レイヤ1
100
AcDbVertex
100
AcDb2dVertex
 10
-46.18647146368
 20
183.7631949725
  0
VERTEX
  5
5CA
100
AcDbEntity
  8
レイヤ1
100
AcDbVertex
100
AcDb2dVertex
 10
-30.31909745752
 20
81.33218206858
  0
SEQEND
  5
5CB
100
AcDbEntity
  8
レイヤ1
  0
POLYLINE
  5
5CC
100
AcDbEntity
  8
レイヤ1
  6
CONTINUOUS
 62
     0
100
AcDb2dPolyline
 66
     1
 10
0
 20
0
 70
     0
  0
VERTEX
  5
5CD
100
AcDbEntity
  8
レイヤ1
100
AcDbVertex
100
AcDb2dVertex
 10
-37.18914137771
 20
779.3331966552
  0
VERTEX
  5
5CE
100
AcDbEntity
  8
レイヤ1
100
AcDbVertex
100
AcDb2dVertex
 10
-9.627740115532
 20
577.6644069319
  0
VERTEX
  5
5CF
100
AcDbEntity
  8
レイヤ1
100
AcDbVertex
100
AcDb2dVertex
 10
22.30535502356
 20
397.9624793845
  0
SEQEND
  5
5D0
100
AcDbEntity
  8
レイヤ1
  0
LINE
  5
5D1
100
AcDbEntity
  8
レイヤ1
  6
CONTINUOUS
 62
     0
100
AcDbLine
 10
39.10607426442
 20
320.3397867239
 11
70.26330521901
 21
97.69486958533
  0
ENDSEC
  0
SECTION
  2
OBJECTS
  0
DICTIONARY
  5
5D2
100
AcDbDictionary
  3
ACAD_GROUP
350
5D3
  3
ACAD_MLINESTYLE
350
5D4
  0
DICTIONARY
  5
5D3
100
AcDbDictionary
  0
DICTIONARY
  5
5D4
100
AcDbDictionary
  3
STANDARD
350
5D5
  0
MLINESTYLE
  5
5D5
100
AcDbMlineStyle
  2
STANDARD
 70
     0
  3

 62
   256
 51
90
 52
90
 71
     0
  0
ENDSEC
  0
EOF
