  0
SECTION
  2
HEADER
  9
$ACADVER
  1
AC1014
  9
$DWGCODEPAGE
  3
dos932
  9
$EXTMIN
 10
-562.5351010361
 20
-52.26487491289
  9
$EXTMAX
 10
432.434305611
 20
1591.511988762
  9
$LIMMIN
 10
0
 20
0
  9
$LIMMAX
 10
8410
 20
5940
  9
$LTSCALE
 40
10
  9
$DIMSCALE
 40
10
  9
$DIMSTYLE
  2
M7DIMSTL
  9
$HANDSEED
  5
7FFFFFFF
  0
ENDSEC
  0
SECTION
  2
CLASSES
  0
CLASS
  1
CSOFTARXCLASS
  2
CSoftArxClass
  3
CSRasterApi
 90
     0
280
     0
281
     0
  0
CLASS
  1
IMAGEDEF
  2
AcDbRasterImageDef
  3
ISM
 90
     0
280
     0
281
     0
  0
CLASS
  1
RASTERVARIABLES
  2
AcDbRasterVariables
  3
ISM
 90
     0
280
     0
281
     0
  0
CLASS
  1
IMAGE
  2
AcDbRasterImage
  3
ISM
 90
   127
280
     0
281
     0
  0
CLASS
  1
IMAGEDEF_REACTOR
  2
AcDbRasterImageDefReactor
  3
ISM
 90
     1
280
     0
281
     0
  0
CLASS
  1
HATCH
  2
AcDbHatch
  3
M7
 90
     0
280
     0
281
     1
  0
ENDSEC
  0
SECTION
  2
TABLES
  0
TABLE
  2
VPORT
  5
FF
100
AcDbSymbolTable
 70
     5
  0
VPORT
  5
100
100
AcDbSymbolTableRecord
100
AcDbViewportTableRecord
  2
*ACTIVE
 70
     0
 10
0
 20
0
 11
1
 21
1
 12
4205
 22
2970
 13
0
 23
0
 14
0
 24
0
 15
0
 25
0
 16
0
 26
0
 36
1
 17
0
 27
0
 37
0
 40
2970
 41
1.415824915825
 42
50
 43
0
 44
0
 50
0
 51
0
 71
     0
 72
   100
 73
     1
 74
     3
 75
     0
 76
     0
 77
     0
 78
     0
  0
ENDTAB
  0
TABLE
  2
LTYPE
  5
101
100
AcDbSymbolTable
 70
     1
  0
LTYPE
  5
102
100
AcDbSymbolTableRecord
100
AcDbLinetypeTableRecord
  2
BYBLOCK
 70
     0
  3

 72
    65
 73
     0
 40
0
  0
LTYPE
  5
103
100
AcDbSymbolTableRecord
100
AcDbLinetypeTableRecord
  2
BYLAYER
 70
     0
  3

 72
    65
 73
     0
 40
0
  0
LTYPE
  5
104
100
AcDbSymbolTableRecord
100
AcDbLinetypeTableRecord
  2
CONTINUOUS
 70
     0
  3
Solid line
 72
    65
 73
     0
 40
0
  0
LTYPE
  5
105
100
AcDbSymbolTableRecord
100
AcDbLinetypeTableRecord
  2
DOT
 70
     0
  3
...............................
 72
    65
 73
     2
 40
2
 49
1
 74
     0
 49
-1
 74
     0
  0
LTYPE
  5
106
100
AcDbSymbolTableRecord
100
AcDbLinetypeTableRecord
  2
DASHED
 70
     0
  3
- - - - - - - - - - - - - - - -
 72
    65
 73
     2
 40
4
 49
2
 74
     0
 49
-2
 74
     0
  0
LTYPE
  5
107
100
AcDbSymbolTableRecord
100
AcDbLinetypeTableRecord
  2
DASHED2
 70
     0
  3
-- -- -- -- -- -- -- -- -- -- -
 72
    65
 73
     2
 40
8
 49
5
 74
     0
 49
-3
 74
     0
  0
LTYPE
  5
108
100
AcDbSymbolTableRecord
100
AcDbLinetypeTableRecord
  2
CENTER
 70
     0
  3
--------- - --------- - -------
 72
    65
 73
     4
 40
23
 49
20
 74
     0
 49
-1
 74
     0
 49
1
 74
     0
 49
-1
 74
     0
  0
LTYPE
  5
109
100
AcDbSymbolTableRecord
100
AcDbLinetypeTableRecord
  2
CENTERX2
 70
     0
  3
-------------- - --------------
 72
    65
 73
     4
 40
43
 49
40
 74
     0
 49
-1
 74
     0
 49
1
 74
     0
 49
-1
 74
     0
  0
LTYPE
  5
10A
100
AcDbSymbolTableRecord
100
AcDbLinetypeTableRecord
  2
CENTER2
 70
     0
  3
------ - ----- - ------ - -----
 72
    65
 73
     4
 40
13
 49
10
 74
     0
 49
-1
 74
     0
 49
1
 74
     0
 49
-1
 74
     0
  0
LTYPE
  5
10B
100
AcDbSymbolTableRecord
100
AcDbLinetypeTableRecord
  2
PHANTOM
 70
     0
  3
-------- - - ------- - - ------
 72
    65
 73
     6
 40
25
 49
20
 74
     0
 49
-1
 74
     0
 49
1
 74
     0
 49
-1
 74
     0
 49
1
 74
     0
 49
-1
 74
     0
  0
LTYPE
  5
10C
100
AcDbSymbolTableRecord
100
AcDbLinetypeTableRecord
  2
PHANTOMX2
 70
     0
  3
------------- - - -------------
 72
    65
 73
     6
 40
45
 49
40
 74
     0
 49
-1
 74
     0
 49
1
 74
     0
 49
-1
 74
     0
 49
1
 74
     0
 49
-1
 74
     0
  0
LTYPE
  5
10D
100
AcDbSymbolTableRecord
100
AcDbLinetypeTableRecord
  2
PHANTOM2
 70
     0
  3
---- - - ---- - - ---- - - ----
 72
    65
 73
     6
 40
15
 49
10
 74
     0
 49
-1
 74
     0
 49
1
 74
     0
 49
-1
 74
     0
 49
1
 74
     0
 49
-1
 74
     0
  0
LTYPE
  5
10E
100
AcDbSymbolTableRecord
100
AcDbLinetypeTableRecord
  2
ACAD_ISO06W100
 70
     0
  3
------------ - - - ------------
 72
    65
 73
     8
 40
47
 49
40
 74
     0
 49
-1
 74
     0
 49
1
 74
     0
 49
-1
 74
     0
 49
1
 74
     0
 49
-1
 74
     0
 49
1
 74
     0
 49
-1
 74
     0
  0
LTYPE
  5
10F
100
AcDbSymbolTableRecord
100
AcDbLinetypeTableRecord
  2
ACAD_ISO14W100
 70
     0
  3
---- - - - -------- - - - -----
 72
    65
 73
     8
 40
27
 49
20
 74
     0
 49
-1
 74
     0
 49
1
 74
     0
 49
-1
 74
     0
 49
1
 74
     0
 49
-1
 74
     0
 49
1
 74
     0
 49
-1
 74
     0
  0
LTYPE
  5
110
100
AcDbSymbolTableRecord
100
AcDbLinetypeTableRecord
  2
ACAD_ISO11W100
 70
     0
  3
------- ------ - ------- ------
 72
    65
 73
     6
 40
44
 49
20
 74
     0
 49
-1
 74
     0
 49
20
 74
     0
 49
-1
 74
     0
 49
1
 74
     0
 49
-1
 74
     0
  0
LTYPE
  5
111
100
AcDbSymbolTableRecord
100
AcDbLinetypeTableRecord
  2
ACAD_ISO13W100
 70
     0
  3
------ ------ - - ------ ------
 72
    65
 73
     8
 40
46
 49
20
 74
     0
 49
-1
 74
     0
 49
20
 74
     0
 49
-1
 74
     0
 49
1
 74
     0
 49
-1
 74
     0
 49
1
 74
     0
 49
-1
 74
     0
  0
LTYPE
  5
112
100
AcDbSymbolTableRecord
100
AcDbLinetypeTableRecord
  2
ACAD_ISO15W100
 70
     0
  3
------ ----- - - - ------ -----
 72
    65
 73
    10
 40
48
 49
20
 74
     0
 49
-1
 74
     0
 49
20
 74
     0
 49
-1
 74
     0
 49
1
 74
     0
 49
-1
 74
     0
 49
1
 74
     0
 49
-1
 74
     0
 49
1
 74
     0
 49
-1
 74
     0
  0
LTYPE
  5
113
100
AcDbSymbolTableRecord
100
AcDbLinetypeTableRecord
  2
HIDDEN
 70
     0
  3
. . . . . . . . . . . . . . . .
 72
    65
 73
     2
 40
1.5
 49
1
 74
     0
 49
-0.5
 74
     0
  0
ENDTAB
  0
TABLE
  2
LAYER
  5
114
100
AcDbSymbolTable
 70
     1
  0
LAYER
  5
115
100
AcDbSymbolTableRecord
100
AcDbLayerTableRecord
  2
0
 70
     0
 62
     7
  6
CONTINUOUS
  0
LAYER
  5
116
100
AcDbSymbolTableRecord
100
AcDbLayerTableRecord
  2
レイヤ1
 70
     0
 62
     7
  6
CONTINUOUS
  0
ENDTAB
  0
TABLE
  2
STYLE
  5
117
100
AcDbSymbolTable
 70
     1
  0
STYLE
  5
118
100
AcDbSymbolTableRecord
100
AcDbTextStyleTableRecord
  2
STANDARD
 70
     0
 40
0
 41
0
 50
0
 71
     0
 42
1
  3
txt
  4
bigfont
  0
STYLE
  5
119
100
AcDbSymbolTableRecord
100
AcDbTextStyleTableRecord
  2
VSTANDARD
 70
     4
 40
0
 41
0
 50
0
 71
     0
 42
1
  3
txt
  4
bigfont
  0
ENDTAB
  0
TABLE
  2
VIEW
  5
11A
100
AcDbSymbolTable
 70
     0
  0
ENDTAB
  0
TABLE
  2
UCS
  5
11B
100
AcDbSymbolTable
 70
     0
  0
ENDTAB
  0
TABLE
  2
APPID
  5
11C
100
AcDbSymbolTable
 70
     1
  0
APPID
  5
11D
100
AcDbSymbolTableRecord
100
AcDbRegAppTableRecord
  2
ACAD
 70
     0
  0
ENDTAB
  0
TABLE
  2
DIMSTYLE
  5
11E
100
AcDbSymbolTable
 70
     1
  0
DIMSTYLE
105
11F
100
AcDbSymbolTableRecord
100
AcDbDimStyleTableRecord
  2
M7DIMSTL
 70
     0
  3

  4

  5

  6

  7

 40
10
 41
2.5
 42
0.625
 43
3.75
 44
1.25
 45
0
 46
0
 47
0
 48
0
140
2.5
141
2.5
142
0
143
0.03937007874016
144
1
145
0
146
1
147
0.625
 71
     0
 72
     0
 73
     0
 74
     0
 75
     0
 76
     0
 77
     1
 78
     8
170
     0
171
     3
172
     1
173
     0
174
     0
175
     0
176
     0
177
     0
178
     0
270
     2
271
     2
272
     2
273
     2
274
     3
340
118
275
     0
280
     0
281
     0
282
     0
283
     0
284
     8
285
     0
286
     0
287
     3
288
     0
  0
ENDTAB
  0
TABLE
  2
BLOCK_RECORD
  5
120
100
AcDbSymbolTable
 70
     2
  0
BLOCK_RECORD
  5
121
100
AcDbSymbolTableRecord
100
AcDbBlockTableRecord
  2
*MODEL_SPACE
  0
BLOCK_RECORD
  5
122
100
AcDbSymbolTableRecord
100
AcDbBlockTableRecord
  2
*PAPER_SPACE
  0
BLOCK_RECORD
  5
123
100
AcDbSymbolTableRecord
100
AcDbBlockTableRecord
  2
_DOT
  0
BLOCK_RECORD
  5
124
100
AcDbSymbolTableRecord
100
AcDbBlockTableRecord
  2
_OPEN30
  0
ENDTAB
  0
ENDSEC
  0
SECTION
  2
BLOCKS
  0
BLOCK
  5
125
100
AcDbEntity
  8
0
100
AcDbBlockBegin
  2
*MODEL_SPACE
 70
     0
 10
0
 20
0
  3
*MODEL_SPACE
  1

  0
ENDBLK
  5
126
100
AcDbEntity
  8
0
100
AcDbBlockEnd
  0
BLOCK
  5
127
100
AcDbEntity
 67
     1
  8
0
100
AcDbBlockBegin
  2
*PAPER_SPACE
 70
     0
 10
0
 20
0
  3
*PAPER_SPACE
  1

  0
ENDBLK
  5
128
100
AcDbEntity
 67
     1
  8
0
100
AcDbBlockEnd
  0
BLOCK
  5
129
100
AcDbEntity
 67
     1
  8
0
100
AcDbBlockBegin
  2
_DOT
 70
     0
 10
0
 20
0
  3
_DOT
  1

  0
LWPOLYLINE
  5
12A
100
AcDbEntity
  8
0
  6
BYBLOCK
 62
     0
100
AcDbPolyline
 90
     2
 70
     1
 43
0.5
 10
-0.25
 20
0
 42
1
 10
0.25
 20
0
 42
1
  0
LINE
  5
12B
100
AcDbEntity
  8
0
  6
BYBLOCK
 62
     0
100
AcDbLine
 10
-0.5
 20
0
 11
-1
 21
0
  0
ENDBLK
  5
12C
100
AcDbEntity
  8
0
100
AcDbBlockEnd
  0
BLOCK
  5
12D
100
AcDbEntity
 67
     1
  8
0
100
AcDbBlockBegin
  2
_OPEN30
 70
     0
 10
0
 20
0
  3
_OPEN30
  1

  0
LINE
  5
12E
100
AcDbEntity
  8
0
  6
BYBLOCK
 62
     0
100
AcDbLine
 10
-1
 20
0.26794919
 11
0
 21
0
  0
LINE
  5
12F
100
AcDbEntity
  8
0
  6
BYBLOCK
 62
     0
100
AcDbLine
 10
-1
 20
-0.26794919
 11
0
 21
0
  0
LINE
  5
130
100
AcDbEntity
  8
0
  6
BYBLOCK
 62
     0
100
AcDbLine
 10
0
 20
0
 11
-1
 21
0
  0
ENDBLK
  5
131
100
AcDbEntity
  8
0
100
AcDbBlockEnd
  0
ENDSEC
  0
SECTION
  2
ENTITIES
  0
POLYLINE
  5
132
100
AcDbEntity
  8
レイヤ1
  6
CONTINUOUS
 62
     0
100
AcDb2dPolyline
 66
     1
 10
0
 20
0
 70
     0
  0
VERTEX
  5
133
100
AcDbEntity
  8
レイヤ1
100
AcDbVertex
100
AcDb2dVertex
 10
29.83784194232
 20
1561.67414682
  0
VERTEX
  5
134
100
AcDbEntity
  8
レイヤ1
100
AcDbVertex
100
AcDb2dVertex
 10
31.28160848791
 20
1568.411724033
  0
VERTEX
  5
135
100
AcDbEntity
  8
レイヤ1
100
AcDbVertex
100
AcDb2dVertex
 10
45.23801842868
 20
1573.7055347
  0
VERTEX
  5
136
100
AcDbEntity
  8
レイヤ1
100
AcDbVertex
100
AcDb2dVertex
 10
31.28160848791
 20
1570.818001609
  0
VERTEX
  5
137
100
AcDbEntity
  8
レイヤ1
100
AcDbVertex
100
AcDb2dVertex
 10
30.31909745752
 20
1572.261768154
  0
VERTEX
  5
138
100
AcDbEntity
  8
レイヤ1
100
AcDbVertex
100
AcDb2dVertex
 10
34.65039709431
 20
1577.074323306
  0
VERTEX
  5
139
100
AcDbEntity
  8
レイヤ1
100
AcDbVertex
100
AcDb2dVertex
 10
28.87533091192
 20
1574.186790215
  0
VERTEX
  5
13A
100
AcDbEntity
  8
レイヤ1
100
AcDbVertex
100
AcDb2dVertex
 10
28.87533091192
 20
1581.886878458
  0
VERTEX
  5
13B
100
AcDbEntity
  8
レイヤ1
100
AcDbVertex
100
AcDb2dVertex
 10
30.80035297272
 20
1588.624455671
  0
VERTEX
  5
13C
100
AcDbEntity
  8
レイヤ1
100
AcDbVertex
100
AcDb2dVertex
 10
33.20663054871
 20
1591.511988762
  0
VERTEX
  5
13D
100
AcDbEntity
  8
レイヤ1
100
AcDbVertex
100
AcDb2dVertex
 10
28.39407539672
 20
1588.143200156
  0
VERTEX
  5
13E
100
AcDbEntity
  8
レイヤ1
100
AcDbVertex
100
AcDb2dVertex
 10
26.46905333593
 20
1580.924367428
  0
VERTEX
  5
13F
100
AcDbEntity
  8
レイヤ1
100
AcDbVertex
100
AcDb2dVertex
 10
25.50654230553
 20
1574.186790215
  0
VERTEX
  5
140
100
AcDbEntity
  8
レイヤ1
100
AcDbVertex
100
AcDb2dVertex
 10
24.06277575993
 20
1582.368133973
  0
VERTEX
  5
141
100
AcDbEntity
  8
レイヤ1
100
AcDbVertex
100
AcDb2dVertex
 10
25.98779782073
 20
1588.143200156
  0
VERTEX
  5
142
100
AcDbEntity
  8
レイヤ1
100
AcDbVertex
100
AcDb2dVertex
 10
22.13775369914
 20
1583.330645004
  0
VERTEX
  5
143
100
AcDbEntity
  8
レイヤ1
100
AcDbVertex
100
AcDb2dVertex
 10
21.17524266874
 20
1577.555578821
  0
VERTEX
  5
144
100
AcDbEntity
  8
レイヤ1
100
AcDbVertex
100
AcDb2dVertex
 10
20.69398715354
 20
1571.299257124
  0
VERTEX
  5
145
100
AcDbEntity
  8
レイヤ1
100
AcDbVertex
100
AcDb2dVertex
 10
18.28770957755
 20
1567.930468517
  0
VERTEX
  5
146
100
AcDbEntity
  8
レイヤ1
100
AcDbVertex
100
AcDb2dVertex
 10
6.737577212782
 20
1568.411724033
  0
VERTEX
  5
147
100
AcDbEntity
  8
レイヤ1
100
AcDbVertex
100
AcDb2dVertex
 10
-6.737577212782
 20
1567.449213002
  0
VERTEX
  5
148
100
AcDbEntity
  8
レイヤ1
100
AcDbVertex
100
AcDb2dVertex
 10
-18.76896509275
 20
1563.117913365
  0
VERTEX
  5
149
100
AcDbEntity
  8
レイヤ1
100
AcDbVertex
100
AcDb2dVertex
 10
-21.65649818394
 20
1559.749124759
  0
VERTEX
  5
14A
100
AcDbEntity
  8
レイヤ1
100
AcDbVertex
100
AcDb2dVertex
 10
-20.69398715354
 20
1557.342847183
  0
VERTEX
  5
14B
100
AcDbEntity
  8
レイヤ1
100
AcDbVertex
100
AcDb2dVertex
 10
-17.80645406235
 20
1554.936569607
  0
VERTEX
  5
14C
100
AcDbEntity
  8
レイヤ1
100
AcDbVertex
100
AcDb2dVertex
 10
-28.87533091192
 20
1551.567781001
  0
VERTEX
  5
14D
100
AcDbEntity
  8
レイヤ1
100
AcDbVertex
100
AcDb2dVertex
 10
-36.0941636399
 20
1543.386437242
  0
VERTEX
  5
14E
100
AcDbEntity
  8
レイヤ1
100
AcDbVertex
100
AcDb2dVertex
 10
-44.75676291348
 20
1541.942670697
  0
VERTEX
  5
14F
100
AcDbEntity
  8
レイヤ1
100
AcDbVertex
100
AcDb2dVertex
 10
-50.53182909586
 20
1539.055137605
  0
SEQEND
  5
150
100
AcDbEntity
  8
レイヤ1
  0
POLYLINE
  5
151
100
AcDbEntity
  8
レイヤ1
  6
CONTINUOUS
 62
     0
100
AcDb2dPolyline
 66
     1
 10
0
 20
0
 70
     1
  0
VERTEX
  5
152
100
AcDbEntity
  8
レイヤ1
100
AcDbVertex
100
AcDb2dVertex
 10
-9.093244744156
 20
1557.63914599
  0
VERTEX
  5
153
100
AcDbEntity
  8
レイヤ1
100
AcDbVertex
100
AcDb2dVertex
 10
-10.77717895604
 20
1558.649506517
  0
VERTEX
  5
154
100
AcDbEntity
  8
レイヤ1
100
AcDbVertex
100
AcDb2dVertex
 10
-9.898828567889
 20
1561.186676993
  0
VERTEX
  5
155
100
AcDbEntity
  8
レイヤ1
100
AcDbVertex
100
AcDb2dVertex
 10
-5.892159861839
 20
1563.072168149
  0
VERTEX
  5
156
100
AcDbEntity
  8
レイヤ1
100
AcDbVertex
100
AcDb2dVertex
 10
14.84824285183
 20
1564.72197291
  0
VERTEX
  5
157
100
AcDbEntity
  8
レイヤ1
100
AcDbVertex
100
AcDb2dVertex
 10
11.31294693473
 20
1561.893736176
  0
VERTEX
  5
158
100
AcDbEntity
  8
レイヤ1
100
AcDbVertex
100
AcDb2dVertex
 10
5.892159861839
 20
1560.243931415
  0
VERTEX
  5
159
100
AcDbEntity
  8
レイヤ1
100
AcDbVertex
100
AcDb2dVertex
 10
-5.420787072892
 20
1560.479617809
  0
SEQEND
  5
15A
100
AcDbEntity
  8
レイヤ1
  0
POLYLINE
  5
15B
100
AcDbEntity
  8
レイヤ1
  6
CONTINUOUS
 62
     0
100
AcDb2dPolyline
 66
     1
 10
0
 20
0
 70
     1
  0
VERTEX
  5
15C
100
AcDbEntity
  8
レイヤ1
100
AcDbVertex
100
AcDb2dVertex
 10
-50.53182909586
 20
1539.055137605
  0
VERTEX
  5
15D
100
AcDbEntity
  8
レイヤ1
100
AcDbVertex
100
AcDb2dVertex
 10
-50.8548131988
 20
1542.820524925
  0
VERTEX
  5
15E
100
AcDbEntity
  8
レイヤ1
100
AcDbVertex
100
AcDb2dVertex
 10
-54.22268162256
 20
1543.830885452
  0
VERTEX
  5
15F
100
AcDbEntity
  8
レイヤ1
100
AcDbVertex
100
AcDb2dVertex
 10
-58.60091057345
 20
1540.799803871
  0
VERTEX
  5
160
100
AcDbEntity
  8
レイヤ1
100
AcDbVertex
100
AcDb2dVertex
 10
-63.31592636671
 20
1542.14695124
  0
VERTEX
  5
161
100
AcDbEntity
  8
レイヤ1
100
AcDbVertex
100
AcDb2dVertex
 10
-65.67343426335
 20
1541.473377556
  0
VERTEX
  5
162
100
AcDbEntity
  8
レイヤ1
100
AcDbVertex
100
AcDb2dVertex
 10
-67.02058163285
 20
1538.779082817
  0
VERTEX
  5
163
100
AcDbEntity
  8
レイヤ1
100
AcDbVertex
100
AcDb2dVertex
 10
-66.3470079481
 20
1535.07442755
  0
VERTEX
  5
164
100
AcDbEntity
  8
レイヤ1
100
AcDbVertex
100
AcDb2dVertex
 10
-63.31592636671
 20
1532.716919654
  0
VERTEX
  5
165
100
AcDbEntity
  8
レイヤ1
100
AcDbVertex
100
AcDb2dVertex
 10
-63.98950005147
 20
1529.685838072
  0
VERTEX
  5
166
100
AcDbEntity
  8
レイヤ1
100
AcDbVertex
100
AcDb2dVertex
 10
-69.71487637186
 20
1529.685838072
  0
VERTEX
  5
167
100
AcDbEntity
  8
レイヤ1
100
AcDbVertex
100
AcDb2dVertex
 10
-71.39881058374
 20
1531.706559127
  0
VERTEX
  5
168
100
AcDbEntity
  8
レイヤ1
100
AcDbVertex
100
AcDb2dVertex
 10
-77.12418690414
 20
1531.369772284
  0
VERTEX
  5
169
100
AcDbEntity
  8
レイヤ1
100
AcDbVertex
100
AcDb2dVertex
 10
-82.51277638215
 20
1528.338690703
  0
VERTEX
  5
16A
100
AcDbEntity
  8
レイヤ1
100
AcDbVertex
100
AcDb2dVertex
 10
-83.52313690928
 20
1524.634035437
  0
VERTEX
  5
16B
100
AcDbEntity
  8
レイヤ1
100
AcDbVertex
100
AcDb2dVertex
 10
-80.82884217027
 20
1521.939740698
  0
VERTEX
  5
16C
100
AcDbEntity
  8
レイヤ1
100
AcDbVertex
100
AcDb2dVertex
 10
-81.8392026974
 20
1520.929380171
  0
VERTEX
  5
16D
100
AcDbEntity
  8
レイヤ1
100
AcDbVertex
100
AcDb2dVertex
 10
-85.88064480592
 20
1521.266167013
  0
VERTEX
  5
16E
100
AcDbEntity
  8
レイヤ1
100
AcDbVertex
100
AcDb2dVertex
 10
-89.24851322968
 20
1518.908659116
  0
VERTEX
  5
16F
100
AcDbEntity
  8
レイヤ1
100
AcDbVertex
100
AcDb2dVertex
 10
-90.93244744156
 20
1514.530430165
  0
VERTEX
  5
170
100
AcDbEntity
  8
レイヤ1
100
AcDbVertex
100
AcDb2dVertex
 10
-89.92208691443
 20
1508.468267003
  0
VERTEX
  5
171
100
AcDbEntity
  8
レイヤ1
100
AcDbVertex
100
AcDb2dVertex
 10
-85.20707112116
 20
1507.121119633
  0
VERTEX
  5
172
100
AcDbEntity
  8
レイヤ1
100
AcDbVertex
100
AcDb2dVertex
 10
-85.54385796354
 20
1504.426824894
  0
VERTEX
  5
173
100
AcDbEntity
  8
レイヤ1
100
AcDbVertex
100
AcDb2dVertex
 10
-96.32103691958
 20
1498.027874889
  0
VERTEX
  5
174
100
AcDbEntity
  8
レイヤ1
100
AcDbVertex
100
AcDb2dVertex
 10
-94.63710270769
 20
1494.323219623
  0
VERTEX
  5
175
100
AcDbEntity
  8
レイヤ1
100
AcDbVertex
100
AcDb2dVertex
 10
-96.99461060433
 20
1491.628924884
  0
VERTEX
  5
176
100
AcDbEntity
  8
レイヤ1
100
AcDbVertex
100
AcDb2dVertex
 10
-90.2588737568
 20
1483.209253825
  0
VERTEX
  5
177
100
AcDbEntity
  8
レイヤ1
100
AcDbVertex
100
AcDb2dVertex
 10
-94.30031586532
 20
1480.851745928
  0
VERTEX
  5
178
100
AcDbEntity
  8
レイヤ1
100
AcDbVertex
100
AcDb2dVertex
 10
-92.61638165344
 20
1476.810303819
  0
VERTEX
  5
179
100
AcDbEntity
  8
レイヤ1
100
AcDbVertex
100
AcDb2dVertex
 10
-98.34175797383
 20
1468.39063276
  0
VERTEX
  5
17A
100
AcDbEntity
  8
レイヤ1
100
AcDbVertex
100
AcDb2dVertex
 10
-96.65782376195
 20
1465.022764336
  0
VERTEX
  5
17B
100
AcDbEntity
  8
レイヤ1
100
AcDbVertex
100
AcDb2dVertex
 10
-92.27959481106
 20
1464.012403809
  0
VERTEX
  5
17C
100
AcDbEntity
  8
レイヤ1
100
AcDbVertex
100
AcDb2dVertex
 10
-84.53349743641
 20
1463.002043282
  0
VERTEX
  5
17D
100
AcDbEntity
  8
レイヤ1
100
AcDbVertex
100
AcDb2dVertex
 10
-83.85992375166
 20
1457.950240646
  0
VERTEX
  5
17E
100
AcDbEntity
  8
レイヤ1
100
AcDbVertex
100
AcDb2dVertex
 10
-86.55421849067
 20
1460.307748543
  0
VERTEX
  5
17F
100
AcDbEntity
  8
レイヤ1
100
AcDbVertex
100
AcDb2dVertex
 10
-90.93244744156
 20
1459.297388016
  0
VERTEX
  5
180
100
AcDbEntity
  8
レイヤ1
100
AcDbVertex
100
AcDb2dVertex
 10
-91.60602112631
 20
1456.939880119
  0
VERTEX
  5
181
100
AcDbEntity
  8
レイヤ1
100
AcDbVertex
100
AcDb2dVertex
 10
-90.59566059918
 20
1454.582372223
  0
VERTEX
  5
182
100
AcDbEntity
  8
レイヤ1
100
AcDbVertex
100
AcDb2dVertex
 10
-92.61638165344
 20
1451.888077484
  0
VERTEX
  5
183
100
AcDbEntity
  8
レイヤ1
100
AcDbVertex
100
AcDb2dVertex
 10
-91.94280796869
 20
1447.509848533
  0
VERTEX
  5
184
100
AcDbEntity
  8
レイヤ1
100
AcDbVertex
100
AcDb2dVertex
 10
-88.57493954492
 20
1445.825914321
  0
VERTEX
  5
185
100
AcDbEntity
  8
レイヤ1
100
AcDbVertex
100
AcDb2dVertex
 10
-86.21743164829
 20
1446.836274848
  0
VERTEX
  5
186
100
AcDbEntity
  8
レイヤ1
100
AcDbVertex
100
AcDb2dVertex
 10
-85.20707112116
 20
1444.141980109
  0
VERTEX
  5
187
100
AcDbEntity
  8
レイヤ1
100
AcDbVertex
100
AcDb2dVertex
 10
-82.51277638215
 20
1444.141980109
  0
VERTEX
  5
188
100
AcDbEntity
  8
レイヤ1
100
AcDbVertex
100
AcDb2dVertex
 10
-81.16562901265
 20
1447.17306169
  0
VERTEX
  5
189
100
AcDbEntity
  8
レイヤ1
100
AcDbVertex
100
AcDb2dVertex
 10
-78.80812111602
 20
1446.836274848
  0
VERTEX
  5
18A
100
AcDbEntity
  8
レイヤ1
100
AcDbVertex
100
AcDb2dVertex
 10
-79.48169480077
 20
1456.266306434
  0
VERTEX
  5
18B
100
AcDbEntity
  8
レイヤ1
100
AcDbVertex
100
AcDb2dVertex
 10
-79.81848164314
 20
1470.074566972
  0
VERTEX
  5
18C
100
AcDbEntity
  8
レイヤ1
100
AcDbVertex
100
AcDb2dVertex
 10
-77.79776058889
 20
1480.514959086
  0
VERTEX
  5
18D
100
AcDbEntity
  8
レイヤ1
100
AcDbVertex
100
AcDb2dVertex
 10
-77.79776058889
 20
1487.587482775
  0
VERTEX
  5
18E
100
AcDbEntity
  8
レイヤ1
100
AcDbVertex
100
AcDb2dVertex
 10
-73.419531638
 20
1491.292138042
  0
VERTEX
  5
18F
100
AcDbEntity
  8
レイヤ1
100
AcDbVertex
100
AcDb2dVertex
 10
-70.72523689899
 20
1497.691088047
  0
VERTEX
  5
190
100
AcDbEntity
  8
レイヤ1
100
AcDbVertex
100
AcDb2dVertex
 10
-62.30556583959
 20
1513.183282796
  0
VERTEX
  5
191
100
AcDbEntity
  8
レイヤ1
100
AcDbVertex
100
AcDb2dVertex
 10
-61.96877899721
 20
1519.919019644
  0
VERTEX
  5
192
100
AcDbEntity
  8
レイヤ1
100
AcDbVertex
100
AcDb2dVertex
 10
-51.19160004117
 20
1528.675477545
  0
VERTEX
  5
193
100
AcDbEntity
  8
レイヤ1
100
AcDbVertex
100
AcDb2dVertex
 10
-49.17087898692
 20
1532.380132811
  0
VERTEX
  5
194
100
AcDbEntity
  8
レイヤ1
100
AcDbVertex
100
AcDb2dVertex
 10
-44.79265003603
 20
1534.737640708
  0
VERTEX
  5
195
100
AcDbEntity
  8
レイヤ1
100
AcDbVertex
100
AcDb2dVertex
 10
-45.46622372078
 20
1538.105509132
  0
SEQEND
  5
196
100
AcDbEntity
  8
レイヤ1
  0
POLYLINE
  5
197
100
AcDbEntity
  8
レイヤ1
  6
CONTINUOUS
 62
     0
100
AcDb2dPolyline
 66
     1
 10
0
 20
0
 70
     0
  0
VERTEX
  5
198
100
AcDbEntity
  8
レイヤ1
100
AcDbVertex
100
AcDb2dVertex
 10
-78.80812111602
 20
1446.836274848
  0
VERTEX
  5
199
100
AcDbEntity
  8
レイヤ1
100
AcDbVertex
100
AcDb2dVertex
 10
-77.12418690414
 20
1442.458045897
  0
VERTEX
  5
19A
100
AcDbEntity
  8
レイヤ1
100
AcDbVertex
100
AcDb2dVertex
 10
-72.07238426849
 20
1438.416603788
  0
VERTEX
  5
19B
100
AcDbEntity
  8
レイヤ1
100
AcDbVertex
100
AcDb2dVertex
 10
-72.07238426849
 20
1433.364801153
  0
VERTEX
  5
19C
100
AcDbEntity
  8
レイヤ1
100
AcDbVertex
100
AcDb2dVertex
 10
-75.77703953463
 20
1437.069456419
  0
VERTEX
  5
19D
100
AcDbEntity
  8
レイヤ1
100
AcDbVertex
100
AcDb2dVertex
 10
-78.80812111602
 20
1443.468406424
  0
VERTEX
  5
19E
100
AcDbEntity
  8
レイヤ1
100
AcDbVertex
100
AcDb2dVertex
 10
-79.14490795839
 20
1437.406243261
  0
VERTEX
  5
19F
100
AcDbEntity
  8
レイヤ1
100
AcDbVertex
100
AcDb2dVertex
 10
-77.46097374651
 20
1432.354440626
  0
VERTEX
  5
1A0
100
AcDbEntity
  8
レイヤ1
100
AcDbVertex
100
AcDb2dVertex
 10
-82.51277638215
 20
1432.017653783
  0
VERTEX
  5
1A1
100
AcDbEntity
  8
レイヤ1
100
AcDbVertex
100
AcDb2dVertex
 10
-93.62674218057
 20
1431.344080099
  0
VERTEX
  5
1A2
100
AcDbEntity
  8
レイヤ1
100
AcDbVertex
100
AcDb2dVertex
 10
-86.55421849067
 20
1429.323359044
  0
VERTEX
  5
1A3
100
AcDbEntity
  8
レイヤ1
100
AcDbVertex
100
AcDb2dVertex
 10
-78.13454743126
 20
1428.986572202
  0
VERTEX
  5
1A4
100
AcDbEntity
  8
レイヤ1
100
AcDbVertex
100
AcDb2dVertex
 10
-84.19671059403
 20
1419.893327458
  0
VERTEX
  5
1A5
100
AcDbEntity
  8
レイヤ1
100
AcDbVertex
100
AcDb2dVertex
 10
-88.9117263873
 20
1396.318248491
  0
VERTEX
  5
1A6
100
AcDbEntity
  8
レイヤ1
100
AcDbVertex
100
AcDb2dVertex
 10
-89.24851322968
 20
1379.815693215
  0
VERTEX
  5
1A7
100
AcDbEntity
  8
レイヤ1
100
AcDbVertex
100
AcDb2dVertex
 10
-87.22779217542
 20
1371.396022156
  0
VERTEX
  5
1A8
100
AcDbEntity
  8
レイヤ1
100
AcDbVertex
100
AcDb2dVertex
 10
-82.84956322453
 20
1364.99707215
  0
VERTEX
  5
1A9
100
AcDbEntity
  8
レイヤ1
100
AcDbVertex
100
AcDb2dVertex
 10
-77.79776058889
 20
1362.639564254
  0
VERTEX
  5
1AA
100
AcDbEntity
  8
レイヤ1
100
AcDbVertex
100
AcDb2dVertex
 10
-77.46097374651
 20
1357.250974776
  0
VERTEX
  5
1AB
100
AcDbEntity
  8
レイヤ1
100
AcDbVertex
100
AcDb2dVertex
 10
-75.10346584988
 20
1353.209532667
  0
VERTEX
  5
1AC
100
AcDbEntity
  8
レイヤ1
100
AcDbVertex
100
AcDb2dVertex
 10
-67.35736847523
 20
1351.188811613
  0
VERTEX
  5
1AD
100
AcDbEntity
  8
レイヤ1
100
AcDbVertex
100
AcDb2dVertex
 10
-59.61127110058
 20
1352.535958983
  0
VERTEX
  5
1AE
100
AcDbEntity
  8
レイヤ1
100
AcDbVertex
100
AcDb2dVertex
 10
-69.71487637186
 20
1353.54631951
  0
VERTEX
  5
1AF
100
AcDbEntity
  8
レイヤ1
100
AcDbVertex
100
AcDb2dVertex
 10
-73.419531638
 20
1356.240614249
  0
VERTEX
  5
1B0
100
AcDbEntity
  8
レイヤ1
100
AcDbVertex
100
AcDb2dVertex
 10
-73.75631848037
 20
1358.598122145
  0
VERTEX
  5
1B1
100
AcDbEntity
  8
レイヤ1
100
AcDbVertex
100
AcDb2dVertex
 10
-73.75631848037
 20
1361.965990569
  0
VERTEX
  5
1B2
100
AcDbEntity
  8
レイヤ1
100
AcDbVertex
100
AcDb2dVertex
 10
-66.3470079481
 20
1363.313137939
  0
VERTEX
  5
1B3
100
AcDbEntity
  8
レイヤ1
100
AcDbVertex
100
AcDb2dVertex
 10
-62.64235268196
 20
1368.364940574
  0
VERTEX
  5
1B4
100
AcDbEntity
  8
レイヤ1
100
AcDbVertex
100
AcDb2dVertex
 10
-67.6941553176
 20
1365.670645835
  0
VERTEX
  5
1B5
100
AcDbEntity
  8
レイヤ1
100
AcDbVertex
100
AcDb2dVertex
 10
-72.07238426849
 20
1364.99707215
  0
VERTEX
  5
1B6
100
AcDbEntity
  8
レイヤ1
100
AcDbVertex
100
AcDb2dVertex
 10
-71.06202374137
 20
1378.131759003
  0
VERTEX
  5
1B7
100
AcDbEntity
  8
レイヤ1
100
AcDbVertex
100
AcDb2dVertex
 10
-63.98950005147
 20
1379.14211953
  0
VERTEX
  5
1B8
100
AcDbEntity
  8
レイヤ1
100
AcDbVertex
100
AcDb2dVertex
 10
-59.94805794295
 20
1374.763890579
  0
VERTEX
  5
1B9
100
AcDbEntity
  8
レイヤ1
100
AcDbVertex
100
AcDb2dVertex
 10
-57.59055004632
 20
1368.028153732
  0
VERTEX
  5
1BA
100
AcDbEntity
  8
レイヤ1
100
AcDbVertex
100
AcDb2dVertex
 10
-57.59055004632
 20
1359.27169583
  0
VERTEX
  5
1BB
100
AcDbEntity
  8
レイヤ1
100
AcDbVertex
100
AcDb2dVertex
 10
-59.15728501286
 20
1352.132845095
  0
VERTEX
  5
1BC
100
AcDbEntity
  8
レイヤ1
100
AcDbVertex
100
AcDb2dVertex
 10
-63.16395371891
 20
1349.77598115
  0
VERTEX
  5
1BD
100
AcDbEntity
  8
レイヤ1
100
AcDbVertex
100
AcDb2dVertex
 10
-68.5847407918
 20
1347.419117205
  0
VERTEX
  5
1BE
100
AcDbEntity
  8
レイヤ1
100
AcDbVertex
100
AcDb2dVertex
 10
-76.36239180943
 20
1347.419117205
  0
VERTEX
  5
1BF
100
AcDbEntity
  8
レイヤ1
100
AcDbVertex
100
AcDb2dVertex
 10
-81.0761196989
 20
1351.190099517
  0
VERTEX
  5
1C0
100
AcDbEntity
  8
レイヤ1
100
AcDbVertex
100
AcDb2dVertex
 10
-79.66200133206
 20
1347.890489994
  0
VERTEX
  5
1C1
100
AcDbEntity
  8
レイヤ1
100
AcDbVertex
100
AcDb2dVertex
 10
-75.65533262601
 20
1344.355194077
  0
VERTEX
  5
1C2
100
AcDbEntity
  8
レイヤ1
100
AcDbVertex
100
AcDb2dVertex
 10
-68.11336800286
 20
1344.119507683
  0
VERTEX
  5
1C3
100
AcDbEntity
  8
レイヤ1
100
AcDbVertex
100
AcDb2dVertex
 10
-61.5141489576
 20
1345.769312444
  0
VERTEX
  5
1C4
100
AcDbEntity
  8
レイヤ1
100
AcDbVertex
100
AcDb2dVertex
 10
-56.56473467365
 20
1349.540294756
  0
VERTEX
  5
1C5
100
AcDbEntity
  8
レイヤ1
100
AcDbVertex
100
AcDb2dVertex
 10
-53.26512515102
 20
1354.489709039
  0
VERTEX
  5
1C6
100
AcDbEntity
  8
レイヤ1
100
AcDbVertex
100
AcDb2dVertex
 10
-53.21232109543
 20
1340.748419499
  0
VERTEX
  5
1C7
100
AcDbEntity
  8
レイヤ1
100
AcDbVertex
100
AcDb2dVertex
 10
-55.23304214969
 20
1329.297666859
  0
VERTEX
  5
1C8
100
AcDbEntity
  8
レイヤ1
100
AcDbVertex
100
AcDb2dVertex
 10
-50.51802635642
 20
1339.738058972
  0
VERTEX
  5
1C9
100
AcDbEntity
  8
レイヤ1
100
AcDbVertex
100
AcDb2dVertex
 10
-48.49730530216
 20
1349.841664244
  0
VERTEX
  5
1CA
100
AcDbEntity
  8
レイヤ1
100
AcDbVertex
100
AcDb2dVertex
 10
-47.48694477504
 20
1362.639564254
  0
VERTEX
  5
1CB
100
AcDbEntity
  8
レイヤ1
100
AcDbVertex
100
AcDb2dVertex
 10
-50.51802635642
 20
1371.732808998
  0
VERTEX
  5
1CC
100
AcDbEntity
  8
レイヤ1
100
AcDbVertex
100
AcDb2dVertex
 10
-51.86517372593
 20
1378.468545846
  0
VERTEX
  5
1CD
100
AcDbEntity
  8
レイヤ1
100
AcDbVertex
100
AcDb2dVertex
 10
-55.23304214969
 20
1378.468545846
  0
VERTEX
  5
1CE
100
AcDbEntity
  8
レイヤ1
100
AcDbVertex
100
AcDb2dVertex
 10
-57.59055004632
 20
1381.162840585
  0
VERTEX
  5
1CF
100
AcDbEntity
  8
レイヤ1
100
AcDbVertex
100
AcDb2dVertex
 10
-62.97913952434
 20
1394.63431428
  0
VERTEX
  5
1D0
100
AcDbEntity
  8
レイヤ1
100
AcDbVertex
100
AcDb2dVertex
 10
-63.65271320909
 20
1406.421853763
  0
VERTEX
  5
1D1
100
AcDbEntity
  8
レイヤ1
100
AcDbVertex
100
AcDb2dVertex
 10
-65.33664742097
 20
1414.167951137
  0
VERTEX
  5
1D2
100
AcDbEntity
  8
レイヤ1
100
AcDbVertex
100
AcDb2dVertex
 10
-64.66307373622
 20
1421.57726167
  0
VERTEX
  5
1D3
100
AcDbEntity
  8
レイヤ1
100
AcDbVertex
100
AcDb2dVertex
 10
-61.96877899721
 20
1423.597982724
  0
VERTEX
  5
1D4
100
AcDbEntity
  8
レイヤ1
100
AcDbVertex
100
AcDb2dVertex
 10
-58.93769741582
 20
1423.261195882
  0
VERTEX
  5
1D5
100
AcDbEntity
  8
レイヤ1
100
AcDbVertex
100
AcDb2dVertex
 10
-59.94805794295
 20
1477.483877504
  0
VERTEX
  5
1D6
100
AcDbEntity
  8
レイヤ1
100
AcDbVertex
100
AcDb2dVertex
 10
-55.90661583444
 20
1488.26105646
  0
VERTEX
  5
1D7
100
AcDbEntity
  8
レイヤ1
100
AcDbVertex
100
AcDb2dVertex
 10
-56.58018951919
 20
1472.432074868
  0
VERTEX
  5
1D8
100
AcDbEntity
  8
レイヤ1
100
AcDbVertex
100
AcDb2dVertex
 10
-54.22268162256
 20
1461.654895912
  0
VERTEX
  5
1D9
100
AcDbEntity
  8
レイヤ1
100
AcDbVertex
100
AcDb2dVertex
 10
-49.17087898692
 20
1453.572011695
  0
VERTEX
  5
1DA
100
AcDbEntity
  8
レイヤ1
100
AcDbVertex
100
AcDb2dVertex
 10
-43.10871582415
 20
1449.193782745
  0
VERTEX
  5
1DB
100
AcDbEntity
  8
レイヤ1
100
AcDbVertex
100
AcDb2dVertex
 10
-47.48694477504
 20
1456.603093277
  0
VERTEX
  5
1DC
100
AcDbEntity
  8
レイヤ1
100
AcDbVertex
100
AcDb2dVertex
 10
-49.50766582929
 20
1467.380272233
  0
VERTEX
  5
1DD
100
AcDbEntity
  8
レイヤ1
100
AcDbVertex
100
AcDb2dVertex
 10
-49.50766582929
 20
1484.556401194
  0
VERTEX
  5
1DE
100
AcDbEntity
  8
レイヤ1
100
AcDbVertex
100
AcDb2dVertex
 10
-47.15015793266
 20
1494.996793308
  0
VERTEX
  5
1DF
100
AcDbEntity
  8
レイヤ1
100
AcDbVertex
100
AcDb2dVertex
 10
-42.77192898177
 20
1504.090038052
  0
VERTEX
  5
1E0
100
AcDbEntity
  8
レイヤ1
100
AcDbVertex
100
AcDb2dVertex
 10
-39.74084740038
 20
1506.110759106
  0
VERTEX
  5
1E1
100
AcDbEntity
  8
レイヤ1
100
AcDbVertex
100
AcDb2dVertex
 10
-46.13979740553
 20
1487.250695933
  0
VERTEX
  5
1E2
100
AcDbEntity
  8
レイヤ1
100
AcDbVertex
100
AcDb2dVertex
 10
-48.16051845979
 20
1471.758501184
  0
VERTEX
  5
1E3
100
AcDbEntity
  8
レイヤ1
100
AcDbVertex
100
AcDb2dVertex
 10
-45.46622372078
 20
1458.960601173
  0
VERTEX
  5
1E4
100
AcDbEntity
  8
レイヤ1
100
AcDbVertex
100
AcDb2dVertex
 10
-43.10871582415
 20
1456.266306434
  0
VERTEX
  5
1E5
100
AcDbEntity
  8
レイヤ1
100
AcDbVertex
100
AcDb2dVertex
 10
-45.1294368784
 20
1469.737780129
  0
VERTEX
  5
1E6
100
AcDbEntity
  8
レイヤ1
100
AcDbVertex
100
AcDb2dVertex
 10
-42.09835529702
 20
1483.882827509
  0
VERTEX
  5
1E7
100
AcDbEntity
  8
レイヤ1
100
AcDbVertex
100
AcDb2dVertex
 10
-35.02583160712
 20
1497.017514362
  0
VERTEX
  5
1E8
100
AcDbEntity
  8
レイヤ1
100
AcDbVertex
100
AcDb2dVertex
 10
-24.92222633583
 20
1504.090038052
  0
VERTEX
  5
1E9
100
AcDbEntity
  8
レイヤ1
100
AcDbVertex
100
AcDb2dVertex
 10
-36.03619213425
 20
1489.271416987
  0
VERTEX
  5
1EA
100
AcDbEntity
  8
レイヤ1
100
AcDbVertex
100
AcDb2dVertex
 10
-40.07763424276
 20
1477.147090662
  0
VERTEX
  5
1EB
100
AcDbEntity
  8
レイヤ1
100
AcDbVertex
100
AcDb2dVertex
 10
-39.40406055801
 20
1463.338830124
  0
VERTEX
  5
1EC
100
AcDbEntity
  8
レイヤ1
100
AcDbVertex
100
AcDb2dVertex
 10
-36.709765819
 20
1457.950240646
  0
VERTEX
  5
1ED
100
AcDbEntity
  8
レイヤ1
100
AcDbVertex
100
AcDb2dVertex
 10
-37.38333950375
 20
1472.432074868
  0
VERTEX
  5
1EE
100
AcDbEntity
  8
レイヤ1
100
AcDbVertex
100
AcDb2dVertex
 10
-32.66832371049
 20
1486.577122248
  0
VERTEX
  5
1EF
100
AcDbEntity
  8
レイヤ1
100
AcDbVertex
100
AcDb2dVertex
 10
-26.94294739009
 20
1493.312859096
  0
VERTEX
  5
1F0
100
AcDbEntity
  8
レイヤ1
100
AcDbVertex
100
AcDb2dVertex
 10
-20.88078422732
 20
1497.691088047
  0
VERTEX
  5
1F1
100
AcDbEntity
  8
レイヤ1
100
AcDbVertex
100
AcDb2dVertex
 10
-28.62688160197
 20
1485.566761721
  0
VERTEX
  5
1F2
100
AcDbEntity
  8
レイヤ1
100
AcDbVertex
100
AcDb2dVertex
 10
-30.64760265623
 20
1475.799943292
  0
VERTEX
  5
1F3
100
AcDbEntity
  8
レイヤ1
100
AcDbVertex
100
AcDb2dVertex
 10
-30.31081581385
 20
1462.66525644
  0
VERTEX
  5
1F4
100
AcDbEntity
  8
レイヤ1
100
AcDbVertex
100
AcDb2dVertex
 10
-28.62688160197
 20
1477.147090662
  0
VERTEX
  5
1F5
100
AcDbEntity
  8
レイヤ1
100
AcDbVertex
100
AcDb2dVertex
 10
-24.92222633583
 20
1487.924269618
  0
VERTEX
  5
1F6
100
AcDbEntity
  8
レイヤ1
100
AcDbVertex
100
AcDb2dVertex
 10
-20.20721054257
 20
1493.986432781
  0
VERTEX
  5
1F7
100
AcDbEntity
  8
レイヤ1
100
AcDbVertex
100
AcDb2dVertex
 10
-25.25901317821
 20
1478.831024874
  0
VERTEX
  5
1F8
100
AcDbEntity
  8
レイヤ1
100
AcDbVertex
100
AcDb2dVertex
 10
-27.61652107484
 20
1462.328469597
  0
VERTEX
  5
1F9
100
AcDbEntity
  8
レイヤ1
100
AcDbVertex
100
AcDb2dVertex
 10
-24.92222633583
 20
1444.815553794
  0
VERTEX
  5
1FA
100
AcDbEntity
  8
レイヤ1
100
AcDbVertex
100
AcDb2dVertex
 10
-23.91186580871
 20
1462.328469597
  0
VERTEX
  5
1FB
100
AcDbEntity
  8
レイヤ1
100
AcDbVertex
100
AcDb2dVertex
 10
-19.19685001544
 20
1479.841385401
  0
VERTEX
  5
1FC
100
AcDbEntity
  8
レイヤ1
100
AcDbVertex
100
AcDb2dVertex
 10
-12.79790001029
 20
1493.986432781
  0
VERTEX
  5
1FD
100
AcDbEntity
  8
レイヤ1
100
AcDbVertex
100
AcDb2dVertex
 10
-19.53363685782
 20
1460.307748543
  0
VERTEX
  5
1FE
100
AcDbEntity
  8
レイヤ1
100
AcDbVertex
100
AcDb2dVertex
 10
-10.77717895604
 20
1481.18853277
  0
VERTEX
  5
1FF
100
AcDbEntity
  8
レイヤ1
100
AcDbVertex
100
AcDb2dVertex
 10
-1.347147369505
 20
1501.395743313
  0
VERTEX
  5
200
100
AcDbEntity
  8
レイヤ1
100
AcDbVertex
100
AcDb2dVertex
 10
-11.78753948316
 20
1466.706698548
  0
VERTEX
  5
201
100
AcDbEntity
  8
レイヤ1
100
AcDbVertex
100
AcDb2dVertex
 10
3.031081581385
 20
1503.079677525
  0
VERTEX
  5
202
100
AcDbEntity
  8
レイヤ1
100
AcDbVertex
100
AcDb2dVertex
 10
-1.010360527128
 20
1485.903548564
  0
VERTEX
  5
203
100
AcDbEntity
  8
レイヤ1
100
AcDbVertex
100
AcDb2dVertex
 10
-1.347147369505
 20
1471.421714341
  0
VERTEX
  5
204
100
AcDbEntity
  8
レイヤ1
100
AcDbVertex
100
AcDb2dVertex
 10
0.3367868423761
 20
1463.338830124
  0
VERTEX
  5
205
100
AcDbEntity
  8
レイヤ1
100
AcDbVertex
100
AcDb2dVertex
 10
2.694294739009
 20
1484.219614352
  0
VERTEX
  5
206
100
AcDbEntity
  8
レイヤ1
100
AcDbVertex
100
AcDb2dVertex
 10
12.12432632554
 20
1505.773972264
  0
VERTEX
  5
207
100
AcDbEntity
  8
レイヤ1
100
AcDbVertex
100
AcDb2dVertex
 10
7.072523689899
 20
1485.903548564
  0
VERTEX
  5
208
100
AcDbEntity
  8
レイヤ1
100
AcDbVertex
100
AcDb2dVertex
 10
6.398950005147
 20
1471.084927499
  0
VERTEX
  5
209
100
AcDbEntity
  8
レイヤ1
100
AcDbVertex
100
AcDb2dVertex
 10
8.419671059403
 20
1458.287027489
  0
VERTEX
  5
20A
100
AcDbEntity
  8
レイヤ1
100
AcDbVertex
100
AcDb2dVertex
 10
11.45075264079
 20
1481.18853277
  0
VERTEX
  5
20B
100
AcDbEntity
  8
レイヤ1
100
AcDbVertex
100
AcDb2dVertex
 10
16.83934211881
 20
1498.701448574
  0
VERTEX
  5
20C
100
AcDbEntity
  8
レイヤ1
100
AcDbVertex
100
AcDb2dVertex
 10
21.55435791207
 20
1506.784332791
  0
VERTEX
  5
20D
100
AcDbEntity
  8
レイヤ1
100
AcDbVertex
100
AcDb2dVertex
 10
19.53363685782
 20
1491.628924884
  0
VERTEX
  5
20E
100
AcDbEntity
  8
レイヤ1
100
AcDbVertex
100
AcDb2dVertex
 10
15.15540790693
 20
1479.504598558
  0
VERTEX
  5
20F
100
AcDbEntity
  8
レイヤ1
100
AcDbVertex
100
AcDb2dVertex
 10
22.90150528158
 20
1496.68072752
  0
VERTEX
  5
210
100
AcDbEntity
  8
レイヤ1
100
AcDbVertex
100
AcDb2dVertex
 10
25.93258686296
 20
1506.110759106
  0
VERTEX
  5
211
100
AcDbEntity
  8
レイヤ1
100
AcDbVertex
100
AcDb2dVertex
 10
26.60616054771
 20
1494.660006465
  0
VERTEX
  5
212
100
AcDbEntity
  8
レイヤ1
100
AcDbVertex
100
AcDb2dVertex
 10
22.22793159683
 20
1465.696338021
  0
VERTEX
  5
213
100
AcDbEntity
  8
レイヤ1
100
AcDbVertex
100
AcDb2dVertex
 10
30.64760265623
 20
1487.250695933
  0
VERTEX
  5
214
100
AcDbEntity
  8
レイヤ1
100
AcDbVertex
100
AcDb2dVertex
 10
34.01547107999
 20
1503.416464367
  0
VERTEX
  5
215
100
AcDbEntity
  8
レイヤ1
100
AcDbVertex
100
AcDb2dVertex
 10
36.03619213425
 20
1490.281777514
  0
VERTEX
  5
216
100
AcDbEntity
  8
レイヤ1
100
AcDbVertex
100
AcDb2dVertex
 10
33.34189739524
 20
1475.799943292
  0
VERTEX
  5
217
100
AcDbEntity
  8
レイヤ1
100
AcDbVertex
100
AcDb2dVertex
 10
38.73048687326
 20
1490.618564357
  0
VERTEX
  5
218
100
AcDbEntity
  8
レイヤ1
100
AcDbVertex
100
AcDb2dVertex
 10
38.73048687326
 20
1503.753251209
  0
VERTEX
  5
219
100
AcDbEntity
  8
レイヤ1
100
AcDbVertex
100
AcDb2dVertex
 10
41.76156845464
 20
1492.639285411
  0
VERTEX
  5
21A
100
AcDbEntity
  8
レイヤ1
100
AcDbVertex
100
AcDb2dVertex
 10
38.73048687326
 20
1473.105648553
  0
VERTEX
  5
21B
100
AcDbEntity
  8
レイヤ1
100
AcDbVertex
100
AcDb2dVertex
 10
43.7822895089
 20
1491.628924884
  0
VERTEX
  5
21C
100
AcDbEntity
  8
レイヤ1
100
AcDbVertex
100
AcDb2dVertex
 10
42.77192898177
 20
1502.742890682
  0
VERTEX
  5
21D
100
AcDbEntity
  8
レイヤ1
100
AcDbVertex
100
AcDb2dVertex
 10
46.81337109028
 20
1494.323219623
  0
VERTEX
  5
21E
100
AcDbEntity
  8
レイヤ1
100
AcDbVertex
100
AcDb2dVertex
 10
46.81337109028
 20
1482.198893297
  0
VERTEX
  5
21F
100
AcDbEntity
  8
レイヤ1
100
AcDbVertex
100
AcDb2dVertex
 10
43.10871582415
 20
1469.400993287
  0
VERTEX
  5
220
100
AcDbEntity
  8
レイヤ1
100
AcDbVertex
100
AcDb2dVertex
 10
48.83409214454
 20
1482.53568014
  0
VERTEX
  5
221
100
AcDbEntity
  8
レイヤ1
100
AcDbVertex
100
AcDb2dVertex
 10
49.84445267167
 20
1494.660006465
  0
VERTEX
  5
222
100
AcDbEntity
  8
レイヤ1
100
AcDbVertex
100
AcDb2dVertex
 10
48.83409214454
 20
1502.742890682
  0
VERTEX
  5
223
100
AcDbEntity
  8
レイヤ1
100
AcDbVertex
100
AcDb2dVertex
 10
53.21232109543
 20
1492.639285411
  0
VERTEX
  5
224
100
AcDbEntity
  8
レイヤ1
100
AcDbVertex
100
AcDb2dVertex
 10
58.60091057345
 20
1470.748140657
  0
VERTEX
  5
225
100
AcDbEntity
  8
レイヤ1
100
AcDbVertex
100
AcDb2dVertex
 10
64.32628689384
 20
1459.634174858
  0
VERTEX
  5
226
100
AcDbEntity
  8
レイヤ1
100
AcDbVertex
100
AcDb2dVertex
 10
59.2744842582
 20
1474.789582765
  0
VERTEX
  5
227
100
AcDbEntity
  8
レイヤ1
100
AcDbVertex
100
AcDb2dVertex
 10
58.26412373107
 20
1488.934630145
  0
VERTEX
  5
228
100
AcDbEntity
  8
レイヤ1
100
AcDbVertex
100
AcDb2dVertex
 10
57.9273368887
 20
1501.05895647
  0
VERTEX
  5
229
100
AcDbEntity
  8
レイヤ1
100
AcDbVertex
100
AcDb2dVertex
 10
61.29520531246
 20
1494.996793308
  0
VERTEX
  5
22A
100
AcDbEntity
  8
レイヤ1
100
AcDbVertex
100
AcDb2dVertex
 10
63.31592636671
 20
1478.157451189
  0
VERTEX
  5
22B
100
AcDbEntity
  8
レイヤ1
100
AcDbVertex
100
AcDb2dVertex
 10
65.33664742097
 20
1468.39063276
  0
VERTEX
  5
22C
100
AcDbEntity
  8
レイヤ1
100
AcDbVertex
100
AcDb2dVertex
 10
69.04130268711
 20
1460.981322228
  0
VERTEX
  5
22D
100
AcDbEntity
  8
レイヤ1
100
AcDbVertex
100
AcDb2dVertex
 10
67.02058163285
 20
1475.799943292
  0
VERTEX
  5
22E
100
AcDbEntity
  8
レイヤ1
100
AcDbVertex
100
AcDb2dVertex
 10
66.68379479048
 20
1492.976072253
  0
VERTEX
  5
22F
100
AcDbEntity
  8
レイヤ1
100
AcDbVertex
100
AcDb2dVertex
 10
65.33664742097
 20
1504.763611737
  0
VERTEX
  5
230
100
AcDbEntity
  8
レイヤ1
100
AcDbVertex
100
AcDb2dVertex
 10
72.07238426849
 20
1486.913909091
  0
VERTEX
  5
231
100
AcDbEntity
  8
レイヤ1
100
AcDbVertex
100
AcDb2dVertex
 10
83.52313690928
 20
1468.727419602
  0
VERTEX
  5
232
100
AcDbEntity
  8
レイヤ1
100
AcDbVertex
100
AcDb2dVertex
 10
83.85992375166
 20
1460.981322228
  0
VERTEX
  5
233
100
AcDbEntity
  8
レイヤ1
100
AcDbVertex
100
AcDb2dVertex
 10
85.54385796354
 20
1455.255945907
  0
VERTEX
  5
234
100
AcDbEntity
  8
レイヤ1
100
AcDbVertex
100
AcDb2dVertex
 10
86.89100533304
 20
1440.774111685
  0
VERTEX
  5
235
100
AcDbEntity
  8
レイヤ1
100
AcDbVertex
100
AcDb2dVertex
 10
89.92208691443
 20
1426.292277463
  0
VERTEX
  5
236
100
AcDbEntity
  8
レイヤ1
100
AcDbVertex
100
AcDb2dVertex
 10
94.97388955007
 20
1432.691227468
  0
VERTEX
  5
237
100
AcDbEntity
  8
レイヤ1
100
AcDbVertex
100
AcDb2dVertex
 10
102.3832000823
 20
1439.426964316
  0
VERTEX
  5
238
100
AcDbEntity
  8
レイヤ1
100
AcDbVertex
100
AcDb2dVertex
 10
106.4246421909
 20
1438.416603788
  0
VERTEX
  5
239
100
AcDbEntity
  8
レイヤ1
100
AcDbVertex
100
AcDb2dVertex
 10
107.435002718
 20
1432.017653783
  0
VERTEX
  5
23A
100
AcDbEntity
  8
レイヤ1
100
AcDbVertex
100
AcDb2dVertex
 10
107.435002718
 20
1421.57726167
  0
VERTEX
  5
23B
100
AcDbEntity
  8
レイヤ1
100
AcDbVertex
100
AcDb2dVertex
 10
104.4039211366
 20
1413.831164295
  0
VERTEX
  5
23C
100
AcDbEntity
  8
レイヤ1
100
AcDbVertex
100
AcDb2dVertex
 10
103.0567737671
 20
1402.380411654
  0
VERTEX
  5
23D
100
AcDbEntity
  8
レイヤ1
100
AcDbVertex
100
AcDb2dVertex
 10
98.34175797383
 20
1392.276806383
  0
VERTEX
  5
23E
100
AcDbEntity
  8
レイヤ1
100
AcDbVertex
100
AcDb2dVertex
 10
91.94280796869
 20
1385.204282693
  0
VERTEX
  5
23F
100
AcDbEntity
  8
レイヤ1
100
AcDbVertex
100
AcDb2dVertex
 10
85.88064480592
 20
1385.204282693
  0
VERTEX
  5
240
100
AcDbEntity
  8
レイヤ1
100
AcDbVertex
100
AcDb2dVertex
 10
81.8392026974
 20
1368.701727417
  0
VERTEX
  5
241
100
AcDbEntity
  8
レイヤ1
100
AcDbVertex
100
AcDb2dVertex
 10
76.11382637701
 20
1356.577401091
  0
SEQEND
  5
242
100
AcDbEntity
  8
レイヤ1
  0
POLYLINE
  5
243
100
AcDbEntity
  8
レイヤ1
  6
CONTINUOUS
 62
     0
100
AcDb2dPolyline
 66
     1
 10
0
 20
0
 70
     1
  0
VERTEX
  5
244
100
AcDbEntity
  8
レイヤ1
100
AcDbVertex
100
AcDb2dVertex
 10
-72.74595795325
 20
1418.546180088
  0
VERTEX
  5
245
100
AcDbEntity
  8
レイヤ1
100
AcDbVertex
100
AcDb2dVertex
 10
-80.15526848552
 20
1407.095427448
  0
VERTEX
  5
246
100
AcDbEntity
  8
レイヤ1
100
AcDbVertex
100
AcDb2dVertex
 10
-82.51277638215
 20
1399.686116915
  0
VERTEX
  5
247
100
AcDbEntity
  8
レイヤ1
100
AcDbVertex
100
AcDb2dVertex
 10
-84.53349743641
 20
1380.152480057
  0
VERTEX
  5
248
100
AcDbEntity
  8
レイヤ1
100
AcDbVertex
100
AcDb2dVertex
 10
-82.51277638215
 20
1372.06959584
  0
VERTEX
  5
249
100
AcDbEntity
  8
レイヤ1
100
AcDbVertex
100
AcDb2dVertex
 10
-79.81848164314
 20
1368.364940574
  0
VERTEX
  5
24A
100
AcDbEntity
  8
レイヤ1
100
AcDbVertex
100
AcDb2dVertex
 10
-76.45061321938
 20
1368.701727417
  0
VERTEX
  5
24B
100
AcDbEntity
  8
レイヤ1
100
AcDbVertex
100
AcDb2dVertex
 10
-75.10346584988
 20
1379.478906373
  0
VERTEX
  5
24C
100
AcDbEntity
  8
レイヤ1
100
AcDbVertex
100
AcDb2dVertex
 10
-80.82884217027
 20
1384.530709008
  0
VERTEX
  5
24D
100
AcDbEntity
  8
レイヤ1
100
AcDbVertex
100
AcDb2dVertex
 10
-81.50241585503
 20
1394.971101122
  0
VERTEX
  5
24E
100
AcDbEntity
  8
レイヤ1
100
AcDbVertex
100
AcDb2dVertex
 10
-79.81848164314
 20
1404.064345866
  0
VERTEX
  5
24F
100
AcDbEntity
  8
レイヤ1
100
AcDbVertex
100
AcDb2dVertex
 10
-76.45061321938
 20
1409.789722187
  0
VERTEX
  5
250
100
AcDbEntity
  8
レイヤ1
100
AcDbVertex
100
AcDb2dVertex
 10
-72.74595795325
 20
1413.831164295
  0
SEQEND
  5
251
100
AcDbEntity
  8
レイヤ1
  0
POLYLINE
  5
252
100
AcDbEntity
  8
レイヤ1
  6
CONTINUOUS
 62
     0
100
AcDb2dPolyline
 66
     1
 10
0
 20
0
 70
     1
  0
VERTEX
  5
253
100
AcDbEntity
  8
レイヤ1
100
AcDbVertex
100
AcDb2dVertex
 10
-72.40917111087
 20
1404.064345866
  0
VERTEX
  5
254
100
AcDbEntity
  8
レイヤ1
100
AcDbVertex
100
AcDb2dVertex
 10
-77.46097374651
 20
1399.01254323
  0
VERTEX
  5
255
100
AcDbEntity
  8
レイヤ1
100
AcDbVertex
100
AcDb2dVertex
 10
-78.47133427364
 20
1391.266445856
  0
VERTEX
  5
256
100
AcDbEntity
  8
レイヤ1
100
AcDbVertex
100
AcDb2dVertex
 10
-78.13454743126
 20
1386.888216905
  0
VERTEX
  5
257
100
AcDbEntity
  8
レイヤ1
100
AcDbVertex
100
AcDb2dVertex
 10
-75.10346584988
 20
1382.846774796
  0
SEQEND
  5
258
100
AcDbEntity
  8
レイヤ1
  0
POLYLINE
  5
259
100
AcDbEntity
  8
レイヤ1
  6
CONTINUOUS
 62
     0
100
AcDb2dPolyline
 66
     1
 10
0
 20
0
 70
     1
  0
VERTEX
  5
25A
100
AcDbEntity
  8
レイヤ1
100
AcDbVertex
100
AcDb2dVertex
 10
-68.03094215998
 20
1392.613593225
  0
VERTEX
  5
25B
100
AcDbEntity
  8
レイヤ1
100
AcDbVertex
100
AcDb2dVertex
 10
-69.37808952948
 20
1381.836414269
  0
VERTEX
  5
25C
100
AcDbEntity
  8
レイヤ1
100
AcDbVertex
100
AcDb2dVertex
 10
-63.31592636671
 20
1383.183561639
  0
VERTEX
  5
25D
100
AcDbEntity
  8
レイヤ1
100
AcDbVertex
100
AcDb2dVertex
 10
-62.64235268196
 20
1387.225003747
  0
VERTEX
  5
25E
100
AcDbEntity
  8
レイヤ1
100
AcDbVertex
100
AcDb2dVertex
 10
-63.65271320909
 20
1390.592872171
  0
SEQEND
  5
25F
100
AcDbEntity
  8
レイヤ1
  0
POLYLINE
  5
260
100
AcDbEntity
  8
レイヤ1
  6
CONTINUOUS
 62
     0
100
AcDb2dPolyline
 66
     1
 10
0
 20
0
 70
     0
  0
VERTEX
  5
261
100
AcDbEntity
  8
レイヤ1
100
AcDbVertex
100
AcDb2dVertex
 10
-64.49468031503
 20
1410.29490245
  0
VERTEX
  5
262
100
AcDbEntity
  8
レイヤ1
100
AcDbVertex
100
AcDb2dVertex
 10
-66.46356324154
 20
1410.111698135
  0
VERTEX
  5
263
100
AcDbEntity
  8
レイヤ1
100
AcDbVertex
100
AcDb2dVertex
 10
-67.17062242496
 20
1400.919928751
  0
VERTEX
  5
264
100
AcDbEntity
  8
レイヤ1
100
AcDbVertex
100
AcDb2dVertex
 10
-65.99219045259
 20
1398.091692017
  0
VERTEX
  5
265
100
AcDbEntity
  8
レイヤ1
100
AcDbVertex
100
AcDb2dVertex
 10
-63.184344364
 20
1398.225398974
  0
SEQEND
  5
266
100
AcDbEntity
  8
レイヤ1
  0
POLYLINE
  5
267
100
AcDbEntity
  8
レイヤ1
  6
CONTINUOUS
 62
     0
100
AcDb2dPolyline
 66
     1
 10
0
 20
0
 70
     0
  0
VERTEX
  5
268
100
AcDbEntity
  8
レイヤ1
100
AcDbVertex
100
AcDb2dVertex
 10
-47.48694477504
 20
1362.639564254
  0
VERTEX
  5
269
100
AcDbEntity
  8
レイヤ1
100
AcDbVertex
100
AcDb2dVertex
 10
-39.74084740038
 20
1346.137008977
  0
VERTEX
  5
26A
100
AcDbEntity
  8
レイヤ1
100
AcDbVertex
100
AcDb2dVertex
 10
-18.18648948831
 20
1325.25622475
  0
VERTEX
  5
26B
100
AcDbEntity
  8
レイヤ1
100
AcDbVertex
100
AcDb2dVertex
 10
-4.37822895089
 20
1316.499766848
  0
VERTEX
  5
26C
100
AcDbEntity
  8
レイヤ1
100
AcDbVertex
100
AcDb2dVertex
 10
6.735736847523
 20
1312.45832474
  0
VERTEX
  5
26D
100
AcDbEntity
  8
レイヤ1
100
AcDbVertex
100
AcDb2dVertex
 10
10.77717895604
 20
1312.121537897
  0
VERTEX
  5
26E
100
AcDbEntity
  8
レイヤ1
100
AcDbVertex
100
AcDb2dVertex
 10
17.17612896118
 20
1312.45832474
  0
VERTEX
  5
26F
100
AcDbEntity
  8
レイヤ1
100
AcDbVertex
100
AcDb2dVertex
 10
23.91186580871
 20
1314.142258952
  0
VERTEX
  5
270
100
AcDbEntity
  8
レイヤ1
100
AcDbVertex
100
AcDb2dVertex
 10
35.36261844949
 20
1318.857274745
  0
VERTEX
  5
271
100
AcDbEntity
  8
レイヤ1
100
AcDbVertex
100
AcDb2dVertex
 10
47.82373161741
 20
1326.266585277
  0
VERTEX
  5
272
100
AcDbEntity
  8
レイヤ1
100
AcDbVertex
100
AcDb2dVertex
 10
62.64235268196
 20
1338.390911603
  0
VERTEX
  5
273
100
AcDbEntity
  8
レイヤ1
100
AcDbVertex
100
AcDb2dVertex
 10
71.39881058374
 20
1348.494516874
  0
VERTEX
  5
274
100
AcDbEntity
  8
レイヤ1
100
AcDbVertex
100
AcDb2dVertex
 10
76.11382637701
 20
1356.577401091
  0
VERTEX
  5
275
100
AcDbEntity
  8
レイヤ1
100
AcDbVertex
100
AcDb2dVertex
 10
73.75631848037
 20
1330.644814228
  0
VERTEX
  5
276
100
AcDbEntity
  8
レイヤ1
100
AcDbVertex
100
AcDb2dVertex
 10
75.10346584988
 20
1311.447964213
  0
VERTEX
  5
277
100
AcDbEntity
  8
レイヤ1
100
AcDbVertex
100
AcDb2dVertex
 10
51.86517372593
 20
1293.935048409
  0
VERTEX
  5
278
100
AcDbEntity
  8
レイヤ1
100
AcDbVertex
100
AcDb2dVertex
 10
38.73048687326
 20
1281.810722084
  0
VERTEX
  5
279
100
AcDbEntity
  8
レイヤ1
100
AcDbVertex
100
AcDb2dVertex
 10
18.18648948831
 20
1261.266724699
  0
VERTEX
  5
27A
100
AcDbEntity
  8
レイヤ1
100
AcDbVertex
100
AcDb2dVertex
 10
2.020721054257
 20
1278.779640502
  0
VERTEX
  5
27B
100
AcDbEntity
  8
レイヤ1
100
AcDbVertex
100
AcDb2dVertex
 10
-18.52327633069
 20
1296.629343148
  0
VERTEX
  5
27C
100
AcDbEntity
  8
レイヤ1
100
AcDbVertex
100
AcDb2dVertex
 10
-27.61652107484
 20
1307.743308947
  0
VERTEX
  5
27D
100
AcDbEntity
  8
レイヤ1
100
AcDbVertex
100
AcDb2dVertex
 10
-25.93258686296
 20
1310.100816843
  0
SEQEND
  5
27E
100
AcDbEntity
  8
レイヤ1
  0
POLYLINE
  5
27F
100
AcDbEntity
  8
レイヤ1
  6
CONTINUOUS
 62
     0
100
AcDb2dPolyline
 66
     1
 10
0
 20
0
 70
     0
  0
VERTEX
  5
280
100
AcDbEntity
  8
レイヤ1
100
AcDbVertex
100
AcDb2dVertex
 10
-25.93258686296
 20
1310.100816843
  0
VERTEX
  5
281
100
AcDbEntity
  8
レイヤ1
100
AcDbVertex
100
AcDb2dVertex
 10
-26.39687618104
 20
1322.672045786
  0
VERTEX
  5
282
100
AcDbEntity
  8
レイヤ1
100
AcDbVertex
100
AcDb2dVertex
 10
-29.87332684434
 20
1336.577848439
  0
SEQEND
  5
283
100
AcDbEntity
  8
レイヤ1
  0
POLYLINE
  5
284
100
AcDbEntity
  8
レイヤ1
  6
CONTINUOUS
 62
     0
100
AcDb2dPolyline
 66
     1
 10
0
 20
0
 70
     0
  0
VERTEX
  5
285
100
AcDbEntity
  8
レイヤ1
100
AcDbVertex
100
AcDb2dVertex
 10
-39.74084740038
 20
1346.137008977
  0
VERTEX
  5
286
100
AcDbEntity
  8
レイヤ1
100
AcDbVertex
100
AcDb2dVertex
 10
-44.11907635127
 20
1334.686256337
  0
VERTEX
  5
287
100
AcDbEntity
  8
レイヤ1
100
AcDbVertex
100
AcDb2dVertex
 10
-62.64235268196
 20
1310.774390528
  0
VERTEX
  5
288
100
AcDbEntity
  8
レイヤ1
100
AcDbVertex
100
AcDb2dVertex
 10
-70.38845005661
 20
1295.282195779
  0
VERTEX
  5
289
100
AcDbEntity
  8
レイヤ1
100
AcDbVertex
100
AcDb2dVertex
 10
-61.29520531246
 20
1307.743308947
  0
VERTEX
  5
28A
100
AcDbEntity
  8
レイヤ1
100
AcDbVertex
100
AcDb2dVertex
 10
-43.7822895089
 20
1328.287306331
  0
VERTEX
  5
28B
100
AcDbEntity
  8
レイヤ1
100
AcDbVertex
100
AcDb2dVertex
 10
-56.91697636157
 20
1311.11117737
  0
VERTEX
  5
28C
100
AcDbEntity
  8
レイヤ1
100
AcDbVertex
100
AcDb2dVertex
 10
-63.31592636671
 20
1299.66042473
  0
VERTEX
  5
28D
100
AcDbEntity
  8
レイヤ1
100
AcDbVertex
100
AcDb2dVertex
 10
-66.01022110572
 20
1289.556819458
  0
VERTEX
  5
28E
100
AcDbEntity
  8
レイヤ1
100
AcDbVertex
100
AcDb2dVertex
 10
-54.22268162256
 20
1308.416882631
  0
VERTEX
  5
28F
100
AcDbEntity
  8
レイヤ1
100
AcDbVertex
100
AcDb2dVertex
 10
-44.79265003603
 20
1320.541208957
  0
VERTEX
  5
290
100
AcDbEntity
  8
レイヤ1
100
AcDbVertex
100
AcDb2dVertex
 10
-48.49730530216
 20
1309.764030001
  0
VERTEX
  5
291
100
AcDbEntity
  8
レイヤ1
100
AcDbVertex
100
AcDb2dVertex
 10
-52.87553425305
 20
1297.639703675
  0
VERTEX
  5
292
100
AcDbEntity
  8
レイヤ1
100
AcDbVertex
100
AcDb2dVertex
 10
-43.7822895089
 20
1308.753669474
  0
VERTEX
  5
293
100
AcDbEntity
  8
レイヤ1
100
AcDbVertex
100
AcDb2dVertex
 10
-38.73048687326
 20
1322.225143169
  0
VERTEX
  5
294
100
AcDbEntity
  8
レイヤ1
100
AcDbVertex
100
AcDb2dVertex
 10
-34.68904476474
 20
1326.940158962
  0
VERTEX
  5
295
100
AcDbEntity
  8
レイヤ1
100
AcDbVertex
100
AcDb2dVertex
 10
-35.69940529187
 20
1320.204422114
  0
VERTEX
  5
296
100
AcDbEntity
  8
レイヤ1
100
AcDbVertex
100
AcDb2dVertex
 10
-34.35225792237
 20
1314.142258952
  0
VERTEX
  5
297
100
AcDbEntity
  8
レイヤ1
100
AcDbVertex
100
AcDb2dVertex
 10
-30.64760265623
 20
1312.795111582
  0
VERTEX
  5
298
100
AcDbEntity
  8
レイヤ1
100
AcDbVertex
100
AcDb2dVertex
 10
-32.33153686811
 20
1320.204422114
  0
VERTEX
  5
299
100
AcDbEntity
  8
レイヤ1
100
AcDbVertex
100
AcDb2dVertex
 10
-30.31081581385
 20
1330.308027386
  0
VERTEX
  5
29A
100
AcDbEntity
  8
レイヤ1
100
AcDbVertex
100
AcDb2dVertex
 10
-28.70686042764
 20
1331.911982772
  0
SEQEND
  5
29B
100
AcDbEntity
  8
レイヤ1
  0
POLYLINE
  5
29C
100
AcDbEntity
  8
レイヤ1
  6
CONTINUOUS
 62
     0
100
AcDb2dPolyline
 66
     1
 10
0
 20
0
 70
     0
  0
VERTEX
  5
29D
100
AcDbEntity
  8
レイヤ1
100
AcDbVertex
100
AcDb2dVertex
 10
29.83784194232
 20
1561.67414682
  0
VERTEX
  5
29E
100
AcDbEntity
  8
レイヤ1
100
AcDbVertex
100
AcDb2dVertex
 10
35.02583160712
 20
1561.007014413
  0
VERTEX
  5
29F
100
AcDbEntity
  8
レイヤ1
100
AcDbVertex
100
AcDb2dVertex
 10
41.08799476989
 20
1556.965572305
  0
VERTEX
  5
2A0
100
AcDbEntity
  8
レイヤ1
100
AcDbVertex
100
AcDb2dVertex
 10
44.45586319365
 20
1558.312719674
  0
VERTEX
  5
2A1
100
AcDbEntity
  8
レイヤ1
100
AcDbVertex
100
AcDb2dVertex
 10
49.84445267167
 20
1557.63914599
  0
VERTEX
  5
2A2
100
AcDbEntity
  8
レイヤ1
100
AcDbVertex
100
AcDb2dVertex
 10
52.53874741068
 20
1554.271277566
  0
VERTEX
  5
2A3
100
AcDbEntity
  8
レイヤ1
100
AcDbVertex
100
AcDb2dVertex
 10
57.9273368887
 20
1554.608064408
  0
VERTEX
  5
2A4
100
AcDbEntity
  8
レイヤ1
100
AcDbVertex
100
AcDb2dVertex
 10
62.97913952434
 20
1560.670227571
  0
VERTEX
  5
2A5
100
AcDbEntity
  8
レイヤ1
100
AcDbVertex
100
AcDb2dVertex
 10
69.04130268711
 20
1565.722030207
  0
VERTEX
  5
2A6
100
AcDbEntity
  8
レイヤ1
100
AcDbVertex
100
AcDb2dVertex
 10
75.77703953463
 20
1567.069177576
  0
VERTEX
  5
2A7
100
AcDbEntity
  8
レイヤ1
100
AcDbVertex
100
AcDb2dVertex
 10
82.17598953978
 20
1564.374882837
  0
VERTEX
  5
2A8
100
AcDbEntity
  8
レイヤ1
100
AcDbVertex
100
AcDb2dVertex
 10
83.85992375166
 20
1560.333440729
  0
VERTEX
  5
2A9
100
AcDbEntity
  8
レイヤ1
100
AcDbVertex
100
AcDb2dVertex
 10
79.14490795839
 20
1564.038095995
  0
VERTEX
  5
2AA
100
AcDbEntity
  8
レイヤ1
100
AcDbVertex
100
AcDb2dVertex
 10
72.40917111087
 20
1565.048456522
  0
VERTEX
  5
2AB
100
AcDbEntity
  8
レイヤ1
100
AcDbVertex
100
AcDb2dVertex
 10
67.6941553176
 20
1561.680588098
  0
VERTEX
  5
2AC
100
AcDbEntity
  8
レイヤ1
100
AcDbVertex
100
AcDb2dVertex
 10
63.31592636671
 20
1556.628785463
  0
VERTEX
  5
2AD
100
AcDbEntity
  8
レイヤ1
100
AcDbVertex
100
AcDb2dVertex
 10
63.65271320909
 20
1553.934490723
  0
VERTEX
  5
2AE
100
AcDbEntity
  8
レイヤ1
100
AcDbVertex
100
AcDb2dVertex
 10
73.419531638
 20
1551.576982827
  0
VERTEX
  5
2AF
100
AcDbEntity
  8
レイヤ1
100
AcDbVertex
100
AcDb2dVertex
 10
88.57493954492
 20
1535.411214393
  0
VERTEX
  5
2B0
100
AcDbEntity
  8
レイヤ1
100
AcDbVertex
100
AcDb2dVertex
 10
95.64746323482
 20
1523.286888067
  0
VERTEX
  5
2B1
100
AcDbEntity
  8
レイヤ1
100
AcDbVertex
100
AcDb2dVertex
 10
107.7717895604
 20
1519.245445959
  0
VERTEX
  5
2B2
100
AcDbEntity
  8
レイヤ1
100
AcDbVertex
100
AcDb2dVertex
 10
117.5386079893
 20
1510.152201215
  0
VERTEX
  5
2B3
100
AcDbEntity
  8
レイヤ1
100
AcDbVertex
100
AcDb2dVertex
 10
119.8961158859
 20
1497.691088047
  0
VERTEX
  5
2B4
100
AcDbEntity
  8
レイヤ1
100
AcDbVertex
100
AcDb2dVertex
 10
119.5593290435
 20
1487.250695933
  0
VERTEX
  5
2B5
100
AcDbEntity
  8
レイヤ1
100
AcDbVertex
100
AcDb2dVertex
 10
124.2743448368
 20
1481.862106455
  0
VERTEX
  5
2B6
100
AcDbEntity
  8
レイヤ1
100
AcDbVertex
100
AcDb2dVertex
 10
126.6318527334
 20
1474.452795923
  0
VERTEX
  5
2B7
100
AcDbEntity
  8
レイヤ1
100
AcDbVertex
100
AcDb2dVertex
 10
126.2950658911
 20
1466.706698548
  0
VERTEX
  5
2B8
100
AcDbEntity
  8
レイヤ1
100
AcDbVertex
100
AcDb2dVertex
 10
124.9479185215
 20
1464.012403809
  0
VERTEX
  5
2B9
100
AcDbEntity
  8
レイヤ1
100
AcDbVertex
100
AcDb2dVertex
 10
123.9375579944
 20
1475.799943292
  0
VERTEX
  5
2BA
100
AcDbEntity
  8
レイヤ1
100
AcDbVertex
100
AcDb2dVertex
 10
119.2225422012
 20
1483.546040667
  0
VERTEX
  5
2BB
100
AcDbEntity
  8
レイヤ1
100
AcDbVertex
100
AcDb2dVertex
 10
117.5386079893
 20
1483.209253825
  0
VERTEX
  5
2BC
100
AcDbEntity
  8
レイヤ1
100
AcDbVertex
100
AcDb2dVertex
 10
117.2018211469
 20
1480.178172243
  0
VERTEX
  5
2BD
100
AcDbEntity
  8
レイヤ1
100
AcDbVertex
100
AcDb2dVertex
 10
120.5696895707
 20
1476.810303819
  0
VERTEX
  5
2BE
100
AcDbEntity
  8
レイヤ1
100
AcDbVertex
100
AcDb2dVertex
 10
122.2536237825
 20
1472.095288026
  0
VERTEX
  5
2BF
100
AcDbEntity
  8
レイヤ1
100
AcDbVertex
100
AcDb2dVertex
 10
122.2536237825
 20
1466.033124863
  0
VERTEX
  5
2C0
100
AcDbEntity
  8
レイヤ1
100
AcDbVertex
100
AcDb2dVertex
 10
118.8857553588
 20
1473.105648553
  0
VERTEX
  5
2C1
100
AcDbEntity
  8
レイヤ1
100
AcDbVertex
100
AcDb2dVertex
 10
114.8443132503
 20
1476.136730135
  0
VERTEX
  5
2C2
100
AcDbEntity
  8
レイヤ1
100
AcDbVertex
100
AcDb2dVertex
 10
111.8132316689
 20
1474.789582765
  0
VERTEX
  5
2C3
100
AcDbEntity
  8
レイヤ1
100
AcDbVertex
100
AcDb2dVertex
 10
112.823592196
 20
1469.737780129
  0
VERTEX
  5
2C4
100
AcDbEntity
  8
レイヤ1
100
AcDbVertex
100
AcDb2dVertex
 10
112.1500185113
 20
1461.654895912
  0
VERTEX
  5
2C5
100
AcDbEntity
  8
レイヤ1
100
AcDbVertex
100
AcDb2dVertex
 10
110.8028711417
 20
1454.582372223
  0
VERTEX
  5
2C6
100
AcDbEntity
  8
レイヤ1
100
AcDbVertex
100
AcDb2dVertex
 10
118.8857553588
 20
1448.856995902
  0
VERTEX
  5
2C7
100
AcDbEntity
  8
レイヤ1
100
AcDbVertex
100
AcDb2dVertex
 10
125.2847053639
 20
1438.753390631
  0
VERTEX
  5
2C8
100
AcDbEntity
  8
レイヤ1
100
AcDbVertex
100
AcDb2dVertex
 10
126.2950658911
 20
1432.017653783
  0
VERTEX
  5
2C9
100
AcDbEntity
  8
レイヤ1
100
AcDbVertex
100
AcDb2dVertex
 10
120.5696895707
 20
1443.805193267
  0
VERTEX
  5
2CA
100
AcDbEntity
  8
レイヤ1
100
AcDbVertex
100
AcDb2dVertex
 10
115.8546737774
 20
1448.183422217
  0
VERTEX
  5
2CB
100
AcDbEntity
  8
レイヤ1
100
AcDbVertex
100
AcDb2dVertex
 10
117.2018211469
 20
1442.794832739
  0
VERTEX
  5
2CC
100
AcDbEntity
  8
レイヤ1
100
AcDbVertex
100
AcDb2dVertex
 10
115.517886935
 20
1435.048735365
  0
VERTEX
  5
2CD
100
AcDbEntity
  8
レイヤ1
100
AcDbVertex
100
AcDb2dVertex
 10
114.8443132503
 20
1443.468406424
  0
VERTEX
  5
2CE
100
AcDbEntity
  8
レイヤ1
100
AcDbVertex
100
AcDb2dVertex
 10
112.1500185113
 20
1449.193782745
  0
VERTEX
  5
2CF
100
AcDbEntity
  8
レイヤ1
100
AcDbVertex
100
AcDb2dVertex
 10
109.4557237722
 20
1450.540930114
  0
VERTEX
  5
2D0
100
AcDbEntity
  8
レイヤ1
100
AcDbVertex
100
AcDb2dVertex
 10
109.1189369299
 20
1446.499488006
  0
VERTEX
  5
2D1
100
AcDbEntity
  8
レイヤ1
100
AcDbVertex
100
AcDb2dVertex
 10
115.8546737774
 20
1433.02801431
  0
VERTEX
  5
2D2
100
AcDbEntity
  8
レイヤ1
100
AcDbVertex
100
AcDb2dVertex
 10
125.6214922063
 20
1419.219753773
  0
VERTEX
  5
2D3
100
AcDbEntity
  8
レイヤ1
100
AcDbVertex
100
AcDb2dVertex
 10
110.8028711417
 20
1437.069456419
  0
VERTEX
  5
2D4
100
AcDbEntity
  8
レイヤ1
100
AcDbVertex
100
AcDb2dVertex
 10
108.7821500875
 20
1441.110898527
  0
VERTEX
  5
2D5
100
AcDbEntity
  8
レイヤ1
100
AcDbVertex
100
AcDb2dVertex
 10
109.7925106146
 20
1433.364801153
  0
VERTEX
  5
2D6
100
AcDbEntity
  8
レイヤ1
100
AcDbVertex
100
AcDb2dVertex
 10
120.906476413
 20
1416.862245876
  0
VERTEX
  5
2D7
100
AcDbEntity
  8
レイヤ1
100
AcDbVertex
100
AcDb2dVertex
 10
126.6318527334
 20
1404.737919551
  0
VERTEX
  5
2D8
100
AcDbEntity
  8
レイヤ1
100
AcDbVertex
100
AcDb2dVertex
 10
127.6422132606
 20
1401.706837969
  0
VERTEX
  5
2D9
100
AcDbEntity
  8
レイヤ1
100
AcDbVertex
100
AcDb2dVertex
 10
135.0515237928
 20
1401.370051127
  0
VERTEX
  5
2DA
100
AcDbEntity
  8
レイヤ1
100
AcDbVertex
100
AcDb2dVertex
 10
149.533358015
 20
1406.08506692
  0
VERTEX
  5
2DB
100
AcDbEntity
  8
レイヤ1
100
AcDbVertex
100
AcDb2dVertex
 10
135.7250974776
 20
1399.349330073
  0
VERTEX
  5
2DC
100
AcDbEntity
  8
レイヤ1
100
AcDbVertex
100
AcDb2dVertex
 10
127.6422132606
 20
1398.675756388
  0
VERTEX
  5
2DD
100
AcDbEntity
  8
レイヤ1
100
AcDbVertex
100
AcDb2dVertex
 10
126.9686395758
 20
1395.644674807
  0
VERTEX
  5
2DE
100
AcDbEntity
  8
レイヤ1
100
AcDbVertex
100
AcDb2dVertex
 10
133.367589581
 20
1393.960740595
  0
VERTEX
  5
2DF
100
AcDbEntity
  8
レイヤ1
100
AcDbVertex
100
AcDb2dVertex
 10
136.3986711623
 20
1390.929659013
  0
VERTEX
  5
2E0
100
AcDbEntity
  8
レイヤ1
100
AcDbVertex
100
AcDb2dVertex
 10
144.144768537
 20
1390.592872171
  0
VERTEX
  5
2E1
100
AcDbEntity
  8
レイヤ1
100
AcDbVertex
100
AcDb2dVertex
 10
154.5851606506
 20
1393.28716691
  0
VERTEX
  5
2E2
100
AcDbEntity
  8
レイヤ1
100
AcDbVertex
100
AcDb2dVertex
 10
145.4919159065
 20
1388.235364274
  0
VERTEX
  5
2E3
100
AcDbEntity
  8
レイヤ1
100
AcDbVertex
100
AcDb2dVertex
 10
133.7043764233
 20
1387.56179059
  0
VERTEX
  5
2E4
100
AcDbEntity
  8
レイヤ1
100
AcDbVertex
100
AcDb2dVertex
 10
124.2743448368
 20
1389.582511644
  0
VERTEX
  5
2E5
100
AcDbEntity
  8
レイヤ1
100
AcDbVertex
100
AcDb2dVertex
 10
120.906476413
 20
1384.530709008
  0
VERTEX
  5
2E6
100
AcDbEntity
  8
レイヤ1
100
AcDbVertex
100
AcDb2dVertex
 10
126.9686395758
 20
1383.520348481
  0
VERTEX
  5
2E7
100
AcDbEntity
  8
レイヤ1
100
AcDbVertex
100
AcDb2dVertex
 10
133.367589581
 20
1384.867495851
  0
VERTEX
  5
2E8
100
AcDbEntity
  8
レイヤ1
100
AcDbVertex
100
AcDb2dVertex
 10
136.3986711623
 20
1386.551430063
  0
VERTEX
  5
2E9
100
AcDbEntity
  8
レイヤ1
100
AcDbVertex
100
AcDb2dVertex
 10
132.0204422114
 20
1382.509987954
  0
VERTEX
  5
2EA
100
AcDbEntity
  8
レイヤ1
100
AcDbVertex
100
AcDb2dVertex
 10
123.9375579944
 20
1381.836414269
  0
VERTEX
  5
2EB
100
AcDbEntity
  8
レイヤ1
100
AcDbVertex
100
AcDb2dVertex
 10
119.8961158859
 20
1381.836414269
  0
VERTEX
  5
2EC
100
AcDbEntity
  8
レイヤ1
100
AcDbVertex
100
AcDb2dVertex
 10
113.1603790384
 20
1366.681006362
  0
VERTEX
  5
2ED
100
AcDbEntity
  8
レイヤ1
100
AcDbVertex
100
AcDb2dVertex
 10
112.1500185113
 20
1358.934908988
  0
VERTEX
  5
2EE
100
AcDbEntity
  8
レイヤ1
100
AcDbVertex
100
AcDb2dVertex
 10
115.517886935
 20
1355.567040564
  0
VERTEX
  5
2EF
100
AcDbEntity
  8
レイヤ1
100
AcDbVertex
100
AcDb2dVertex
 10
121.9168369402
 20
1352.872745825
  0
VERTEX
  5
2F0
100
AcDbEntity
  8
レイヤ1
100
AcDbVertex
100
AcDb2dVertex
 10
128.3157869453
 20
1351.862385298
  0
VERTEX
  5
2F1
100
AcDbEntity
  8
レイヤ1
100
AcDbVertex
100
AcDb2dVertex
 10
116.5282474621
 20
1352.535958983
  0
VERTEX
  5
2F2
100
AcDbEntity
  8
レイヤ1
100
AcDbVertex
100
AcDb2dVertex
 10
111.1396579841
 20
1355.230253722
  0
VERTEX
  5
2F3
100
AcDbEntity
  8
レイヤ1
100
AcDbVertex
100
AcDb2dVertex
 10
115.517886935
 20
1348.157730032
  0
VERTEX
  5
2F4
100
AcDbEntity
  8
レイヤ1
100
AcDbVertex
100
AcDb2dVertex
 10
117.2018211469
 20
1341.758780027
  0
VERTEX
  5
2F5
100
AcDbEntity
  8
レイヤ1
100
AcDbVertex
100
AcDb2dVertex
 10
112.1500185113
 20
1349.841664244
  0
VERTEX
  5
2F6
100
AcDbEntity
  8
レイヤ1
100
AcDbVertex
100
AcDb2dVertex
 10
108.4453632451
 20
1353.209532667
  0
VERTEX
  5
2F7
100
AcDbEntity
  8
レイヤ1
100
AcDbVertex
100
AcDb2dVertex
 10
106.4246421909
 20
1353.209532667
  0
VERTEX
  5
2F8
100
AcDbEntity
  8
レイヤ1
100
AcDbVertex
100
AcDb2dVertex
 10
108.7821500875
 20
1346.137008977
  0
VERTEX
  5
2F9
100
AcDbEntity
  8
レイヤ1
100
AcDbVertex
100
AcDb2dVertex
 10
116.8650343045
 20
1339.738058972
  0
VERTEX
  5
2FA
100
AcDbEntity
  8
レイヤ1
100
AcDbVertex
100
AcDb2dVertex
 10
130.3365079996
 20
1334.012682652
  0
VERTEX
  5
2FB
100
AcDbEntity
  8
レイヤ1
100
AcDbVertex
100
AcDb2dVertex
 10
121.5800500978
 20
1333.67589581
  0
VERTEX
  5
2FC
100
AcDbEntity
  8
レイヤ1
100
AcDbVertex
100
AcDb2dVertex
 10
111.1396579841
 20
1336.033403706
  0
VERTEX
  5
2FD
100
AcDbEntity
  8
レイヤ1
100
AcDbVertex
100
AcDb2dVertex
 10
108.7821500875
 20
1338.390911603
  0
VERTEX
  5
2FE
100
AcDbEntity
  8
レイヤ1
100
AcDbVertex
100
AcDb2dVertex
 10
112.823592196
 20
1332.32874844
  0
VERTEX
  5
2FF
100
AcDbEntity
  8
レイヤ1
100
AcDbVertex
100
AcDb2dVertex
 10
118.5489685164
 20
1327.950519489
  0
VERTEX
  5
300
100
AcDbEntity
  8
レイヤ1
100
AcDbVertex
100
AcDb2dVertex
 10
127.6422132606
 20
1326.940158962
  0
VERTEX
  5
301
100
AcDbEntity
  8
レイヤ1
100
AcDbVertex
100
AcDb2dVertex
 10
134.7147369505
 20
1323.909077381
  0
VERTEX
  5
302
100
AcDbEntity
  8
レイヤ1
100
AcDbVertex
100
AcDb2dVertex
 10
137.0722448471
 20
1319.867635272
  0
VERTEX
  5
303
100
AcDbEntity
  8
レイヤ1
100
AcDbVertex
100
AcDb2dVertex
 10
129.9997211572
 20
1322.898716853
  0
VERTEX
  5
304
100
AcDbEntity
  8
レイヤ1
100
AcDbVertex
100
AcDb2dVertex
 10
122.2536237825
 20
1323.909077381
  0
VERTEX
  5
305
100
AcDbEntity
  8
レイヤ1
100
AcDbVertex
100
AcDb2dVertex
 10
131.0100816843
 20
1316.836553691
  0
VERTEX
  5
306
100
AcDbEntity
  8
レイヤ1
100
AcDbVertex
100
AcDb2dVertex
 10
132.6940158962
 20
1310.774390528
  0
VERTEX
  5
307
100
AcDbEntity
  8
レイヤ1
100
AcDbVertex
100
AcDb2dVertex
 10
131.3468685267
 20
1304.712227365
  0
VERTEX
  5
308
100
AcDbEntity
  8
レイヤ1
100
AcDbVertex
100
AcDb2dVertex
 10
131.0100816843
 20
1310.437603686
  0
VERTEX
  5
309
100
AcDbEntity
  8
レイヤ1
100
AcDbVertex
100
AcDb2dVertex
 10
128.3157869453
 20
1314.815832636
  0
VERTEX
  5
30A
100
AcDbEntity
  8
レイヤ1
100
AcDbVertex
100
AcDb2dVertex
 10
121.2432632554
 20
1321.214782642
  0
VERTEX
  5
30B
100
AcDbEntity
  8
レイヤ1
100
AcDbVertex
100
AcDb2dVertex
 10
107.7717895604
 20
1330.308027386
  0
VERTEX
  5
30C
100
AcDbEntity
  8
レイヤ1
100
AcDbVertex
100
AcDb2dVertex
 10
104.740707979
 20
1335.359830021
  0
VERTEX
  5
30D
100
AcDbEntity
  8
レイヤ1
100
AcDbVertex
100
AcDb2dVertex
 10
101.3728395552
 20
1341.758780027
  0
VERTEX
  5
30E
100
AcDbEntity
  8
レイヤ1
100
AcDbVertex
100
AcDb2dVertex
 10
98.67854481621
 20
1342.769140554
  0
VERTEX
  5
30F
100
AcDbEntity
  8
レイヤ1
100
AcDbVertex
100
AcDb2dVertex
 10
101.3728395552
 20
1333.67589581
  0
VERTEX
  5
310
100
AcDbEntity
  8
レイヤ1
100
AcDbVertex
100
AcDb2dVertex
 10
123.2639843097
 20
1306.396161577
  0
VERTEX
  5
311
100
AcDbEntity
  8
レイヤ1
100
AcDbVertex
100
AcDb2dVertex
 10
129.9997211572
 20
1302.354719469
  0
VERTEX
  5
312
100
AcDbEntity
  8
レイヤ1
100
AcDbVertex
100
AcDb2dVertex
 10
135.7250974776
 20
1301.007572099
  0
VERTEX
  5
313
100
AcDbEntity
  8
レイヤ1
100
AcDbVertex
100
AcDb2dVertex
 10
129.3261474724
 20
1300.670785257
  0
VERTEX
  5
314
100
AcDbEntity
  8
レイヤ1
100
AcDbVertex
100
AcDb2dVertex
 10
126.2950658911
 20
1302.017932626
  0
VERTEX
  5
315
100
AcDbEntity
  8
レイヤ1
100
AcDbVertex
100
AcDb2dVertex
 10
131.3468685267
 20
1296.292556306
  0
VERTEX
  5
316
100
AcDbEntity
  8
レイヤ1
100
AcDbVertex
100
AcDb2dVertex
 10
138.4193922166
 20
1290.903966828
  0
VERTEX
  5
317
100
AcDbEntity
  8
レイヤ1
100
AcDbVertex
100
AcDb2dVertex
 10
122.2536237825
 20
1299.323637887
  0
VERTEX
  5
318
100
AcDbEntity
  8
レイヤ1
100
AcDbVertex
100
AcDb2dVertex
 10
116.1914606198
 20
1304.375440523
  0
VERTEX
  5
319
100
AcDbEntity
  8
レイヤ1
100
AcDbVertex
100
AcDb2dVertex
 10
118.5489685164
 20
1299.323637887
  0
VERTEX
  5
31A
100
AcDbEntity
  8
レイヤ1
100
AcDbVertex
100
AcDb2dVertex
 10
124.9479185215
 20
1293.598261567
  0
VERTEX
  5
31B
100
AcDbEntity
  8
レイヤ1
100
AcDbVertex
100
AcDb2dVertex
 10
115.8546737774
 20
1297.639703675
  0
VERTEX
  5
31C
100
AcDbEntity
  8
レイヤ1
100
AcDbVertex
100
AcDb2dVertex
 10
110.4660842994
 20
1303.701866838
  0
VERTEX
  5
31D
100
AcDbEntity
  8
レイヤ1
100
AcDbVertex
100
AcDb2dVertex
 10
110.4660842994
 20
1309.090456316
  0
VERTEX
  5
31E
100
AcDbEntity
  8
レイヤ1
100
AcDbVertex
100
AcDb2dVertex
 10
105.7510685061
 20
1309.764030001
  0
VERTEX
  5
31F
100
AcDbEntity
  8
レイヤ1
100
AcDbVertex
100
AcDb2dVertex
 10
101.7096263976
 20
1315.489406321
  0
VERTEX
  5
320
100
AcDbEntity
  8
レイヤ1
100
AcDbVertex
100
AcDb2dVertex
 10
94.97388955007
 20
1321.214782642
  0
VERTEX
  5
321
100
AcDbEntity
  8
レイヤ1
100
AcDbVertex
100
AcDb2dVertex
 10
94.97388955007
 20
1316.836553691
  0
VERTEX
  5
322
100
AcDbEntity
  8
レイヤ1
100
AcDbVertex
100
AcDb2dVertex
 10
95.9842500772
 20
1314.479045794
  0
VERTEX
  5
323
100
AcDbEntity
  8
レイヤ1
100
AcDbVertex
100
AcDb2dVertex
 10
91.60602112631
 20
1320.204422114
  0
VERTEX
  5
324
100
AcDbEntity
  8
レイヤ1
100
AcDbVertex
100
AcDb2dVertex
 10
89.92208691443
 20
1329.297666859
  0
VERTEX
  5
325
100
AcDbEntity
  8
レイヤ1
100
AcDbVertex
100
AcDb2dVertex
 10
85.88064480592
 20
1336.706977391
  0
VERTEX
  5
326
100
AcDbEntity
  8
レイヤ1
100
AcDbVertex
100
AcDb2dVertex
 10
79.48169480077
 20
1343.105927396
  0
VERTEX
  5
327
100
AcDbEntity
  8
レイヤ1
100
AcDbVertex
100
AcDb2dVertex
 10
77.79776058889
 20
1342.095566869
  0
VERTEX
  5
328
100
AcDbEntity
  8
レイヤ1
100
AcDbVertex
100
AcDb2dVertex
 10
77.79776058889
 20
1336.706977391
  0
VERTEX
  5
329
100
AcDbEntity
  8
レイヤ1
100
AcDbVertex
100
AcDb2dVertex
 10
83.52313690928
 20
1330.644814228
  0
VERTEX
  5
32A
100
AcDbEntity
  8
レイヤ1
100
AcDbVertex
100
AcDb2dVertex
 10
87.90136586017
 20
1319.53084843
  0
VERTEX
  5
32B
100
AcDbEntity
  8
レイヤ1
100
AcDbVertex
100
AcDb2dVertex
 10
87.90136586017
 20
1316.499766848
  0
VERTEX
  5
32C
100
AcDbEntity
  8
レイヤ1
100
AcDbVertex
100
AcDb2dVertex
 10
82.51277638215
 20
1326.940158962
  0
VERTEX
  5
32D
100
AcDbEntity
  8
レイヤ1
100
AcDbVertex
100
AcDb2dVertex
 10
76.11382637701
 20
1332.32874844
  0
VERTEX
  5
32E
100
AcDbEntity
  8
レイヤ1
100
AcDbVertex
100
AcDb2dVertex
 10
74.00524788561
 20
1333.383037686
  0
SEQEND
  5
32F
100
AcDbEntity
  8
レイヤ1
  0
POLYLINE
  5
330
100
AcDbEntity
  8
レイヤ1
  6
CONTINUOUS
 62
     0
100
AcDb2dPolyline
 66
     1
 10
0
 20
0
 70
     1
  0
VERTEX
  5
331
100
AcDbEntity
  8
レイヤ1
100
AcDbVertex
100
AcDb2dVertex
 10
100.1667176513
 20
1505.329001503
  0
VERTEX
  5
332
100
AcDbEntity
  8
レイヤ1
100
AcDbVertex
100
AcDb2dVertex
 10
104.1733863573
 20
1504.857628714
  0
VERTEX
  5
333
100
AcDbEntity
  8
レイヤ1
100
AcDbVertex
100
AcDb2dVertex
 10
110.7726054026
 20
1499.672528035
  0
VERTEX
  5
334
100
AcDbEntity
  8
レイヤ1
100
AcDbVertex
100
AcDb2dVertex
 10
112.8937829528
 20
1495.665859329
  0
VERTEX
  5
335
100
AcDbEntity
  8
レイヤ1
100
AcDbVertex
100
AcDb2dVertex
 10
113.1294693473
 20
1491.423504229
  0
VERTEX
  5
336
100
AcDbEntity
  8
レイヤ1
100
AcDbVertex
100
AcDb2dVertex
 10
108.4157414578
 20
1492.130563412
  0
VERTEX
  5
337
100
AcDbEntity
  8
レイヤ1
100
AcDbVertex
100
AcDb2dVertex
 10
105.1161319352
 20
1498.258409668
  0
VERTEX
  5
338
100
AcDbEntity
  8
レイヤ1
100
AcDbVertex
100
AcDb2dVertex
 10
100.6380904402
 20
1499.90821443
  0
SEQEND
  5
339
100
AcDbEntity
  8
レイヤ1
  0
POLYLINE
  5
33A
100
AcDbEntity
  8
レイヤ1
  6
CONTINUOUS
 62
     0
100
AcDb2dPolyline
 66
     1
 10
0
 20
0
 70
     0
  0
VERTEX
  5
33B
100
AcDbEntity
  8
レイヤ1
100
AcDbVertex
100
AcDb2dVertex
 10
-27.61652107484
 20
1307.743308947
  0
VERTEX
  5
33C
100
AcDbEntity
  8
レイヤ1
100
AcDbVertex
100
AcDb2dVertex
 10
-30.63923128156
 20
1308.059489328
  0
VERTEX
  5
33D
100
AcDbEntity
  8
レイヤ1
100
AcDbVertex
100
AcDb2dVertex
 10
-30.63923128156
 20
1304.524193411
  0
VERTEX
  5
33E
100
AcDbEntity
  8
レイヤ1
100
AcDbVertex
100
AcDb2dVertex
 10
-30.16785849261
 20
1300.988897494
  0
VERTEX
  5
33F
100
AcDbEntity
  8
レイヤ1
100
AcDbVertex
100
AcDb2dVertex
 10
-8.013337412101
 20
1262.807701589
  0
VERTEX
  5
340
100
AcDbEntity
  8
レイヤ1
100
AcDbVertex
100
AcDb2dVertex
 10
8.720396595521
 20
1234.053961464
  0
VERTEX
  5
341
100
AcDbEntity
  8
レイヤ1
100
AcDbVertex
100
AcDb2dVertex
 10
48.55139726155
 20
1277.891630836
  0
VERTEX
  5
342
100
AcDbEntity
  8
レイヤ1
100
AcDbVertex
100
AcDb2dVertex
 10
70.47023194759
 20
1300.988897494
  0
VERTEX
  5
343
100
AcDbEntity
  8
レイヤ1
100
AcDbVertex
100
AcDb2dVertex
 10
86.49690677179
 20
1313.008903612
  0
VERTEX
  5
344
100
AcDbEntity
  8
レイヤ1
100
AcDbVertex
100
AcDb2dVertex
 10
75.10346584988
 20
1311.447964213
  0
SEQEND
  5
345
100
AcDbEntity
  8
レイヤ1
  0
POLYLINE
  5
346
100
AcDbEntity
  8
レイヤ1
  6
CONTINUOUS
 62
     0
100
AcDb2dPolyline
 66
     1
 10
0
 20
0
 70
     0
  0
VERTEX
  5
347
100
AcDbEntity
  8
レイヤ1
100
AcDbVertex
100
AcDb2dVertex
 10
-25.93258686296
 20
1310.100816843
  0
VERTEX
  5
348
100
AcDbEntity
  8
レイヤ1
100
AcDbVertex
100
AcDb2dVertex
 10
-32.52472243735
 20
1309.473607695
  0
VERTEX
  5
349
100
AcDbEntity
  8
レイヤ1
100
AcDbVertex
100
AcDb2dVertex
 10
-39.35962787708
 20
1307.588116539
  0
VERTEX
  5
34A
100
AcDbEntity
  8
レイヤ1
100
AcDbVertex
100
AcDb2dVertex
 10
-68.36772900236
 20
1277.09570629
  0
VERTEX
  5
34B
100
AcDbEntity
  8
レイヤ1
100
AcDbVertex
100
AcDb2dVertex
 10
-69.37808952948
 20
1273.054264182
  0
VERTEX
  5
34C
100
AcDbEntity
  8
レイヤ1
100
AcDbVertex
100
AcDb2dVertex
 10
-77.46097374651
 20
1267.665674704
  0
VERTEX
  5
34D
100
AcDbEntity
  8
レイヤ1
100
AcDbVertex
100
AcDb2dVertex
 10
-85.20707112116
 20
1267.665674704
  0
VERTEX
  5
34E
100
AcDbEntity
  8
レイヤ1
100
AcDbVertex
100
AcDb2dVertex
 10
-132.0204422114
 20
1247.121677319
  0
VERTEX
  5
34F
100
AcDbEntity
  8
レイヤ1
100
AcDbVertex
100
AcDb2dVertex
 10
-142.4516324988
 20
1240.676718182
  0
VERTEX
  5
350
100
AcDbEntity
  8
レイヤ1
100
AcDbVertex
100
AcDb2dVertex
 10
-155.4455314092
 20
1225.757797211
  0
VERTEX
  5
351
100
AcDbEntity
  8
レイヤ1
100
AcDbVertex
100
AcDb2dVertex
 10
-225.227581113
 20
1112.662751139
  0
VERTEX
  5
352
100
AcDbEntity
  8
レイヤ1
100
AcDbVertex
100
AcDb2dVertex
 10
-249.2903568729
 20
1078.012354045
  0
VERTEX
  5
353
100
AcDbEntity
  8
レイヤ1
100
AcDbVertex
100
AcDb2dVertex
 10
-268.0593219657
 20
1026.036758404
  0
VERTEX
  5
354
100
AcDbEntity
  8
レイヤ1
100
AcDbVertex
100
AcDb2dVertex
 10
-301.7472080296
 20
1020.742947736
  0
VERTEX
  5
355
100
AcDbEntity
  8
レイヤ1
100
AcDbVertex
100
AcDb2dVertex
 10
-337.8413716695
 20
1018.817925676
  0
VERTEX
  5
356
100
AcDbEntity
  8
レイヤ1
100
AcDbVertex
100
AcDb2dVertex
 10
-352.2790371254
 20
1022.667969797
  0
VERTEX
  5
357
100
AcDbEntity
  8
レイヤ1
100
AcDbVertex
100
AcDb2dVertex
 10
-368.160469127
 20
1021.705458767
  0
VERTEX
  5
358
100
AcDbEntity
  8
レイヤ1
100
AcDbVertex
100
AcDb2dVertex
 10
-382.1168790678
 20
1033.736846647
  0
VERTEX
  5
359
100
AcDbEntity
  8
レイヤ1
100
AcDbVertex
100
AcDb2dVertex
 10
-399.4420776149
 20
1039.030657314
  0
VERTEX
  5
35A
100
AcDbEntity
  8
レイヤ1
100
AcDbVertex
100
AcDb2dVertex
 10
-418.2110427077
 20
1039.993168344
  0
VERTEX
  5
35B
100
AcDbEntity
  8
レイヤ1
100
AcDbVertex
100
AcDb2dVertex
 10
-441.7925629524
 20
1037.105635253
  0
VERTEX
  5
35C
100
AcDbEntity
  8
レイヤ1
100
AcDbVertex
100
AcDb2dVertex
 10
-460.7244003706
 20
1030.567737671
  0
VERTEX
  5
35D
100
AcDbEntity
  8
レイヤ1
100
AcDbVertex
100
AcDb2dVertex
 10
-451.9679424688
 20
1017.769837661
  0
VERTEX
  5
35E
100
AcDbEntity
  8
レイヤ1
100
AcDbVertex
100
AcDb2dVertex
 10
-449.9472214145
 20
1008.339806074
  0
VERTEX
  5
35F
100
AcDbEntity
  8
レイヤ1
100
AcDbVertex
100
AcDb2dVertex
 10
-449.2736477298
 20
999.24656133
  0
VERTEX
  5
360
100
AcDbEntity
  8
レイヤ1
100
AcDbVertex
100
AcDb2dVertex
 10
-448.9368608874
 20
986.4486613197
  0
SEQEND
  5
361
100
AcDbEntity
  8
レイヤ1
  0
POLYLINE
  5
362
100
AcDbEntity
  8
レイヤ1
  6
CONTINUOUS
 62
     0
100
AcDb2dPolyline
 66
     1
 10
0
 20
0
 70
     0
  0
VERTEX
  5
363
100
AcDbEntity
  8
レイヤ1
100
AcDbVertex
100
AcDb2dVertex
 10
-383.5606456134
 20
1013.524115008
  0
VERTEX
  5
364
100
AcDbEntity
  8
レイヤ1
100
AcDbVertex
100
AcDb2dVertex
 10
-387.4106897349
 20
1005.34277125
  0
VERTEX
  5
365
100
AcDbEntity
  8
レイヤ1
100
AcDbVertex
100
AcDb2dVertex
 10
-396.0732890085
 20
998.6051940373
  0
VERTEX
  5
366
100
AcDbEntity
  8
レイヤ1
100
AcDbVertex
100
AcDb2dVertex
 10
-413.8797430709
 20
992.3488723397
  0
VERTEX
  5
367
100
AcDbEntity
  8
レイヤ1
100
AcDbVertex
100
AcDb2dVertex
 10
-448.9368608874
 20
986.4486613197
  0
VERTEX
  5
368
100
AcDbEntity
  8
レイヤ1
100
AcDbVertex
100
AcDb2dVertex
 10
-463.9303166515
 20
981.2799954901
  0
VERTEX
  5
369
100
AcDbEntity
  8
レイヤ1
100
AcDbVertex
100
AcDb2dVertex
 10
-473.0741714403
 20
975.9861848229
  0
VERTEX
  5
36A
100
AcDbEntity
  8
レイヤ1
100
AcDbVertex
100
AcDb2dVertex
 10
-485.5868148355
 20
970.6923741558
  0
VERTEX
  5
36B
100
AcDbEntity
  8
レイヤ1
100
AcDbVertex
100
AcDb2dVertex
 10
-493.0559372387
 20
962.8735823534
  0
VERTEX
  5
36C
100
AcDbEntity
  8
レイヤ1
100
AcDbVertex
100
AcDb2dVertex
 10
-501.4756082981
 20
958.1585665601
  0
VERTEX
  5
36D
100
AcDbEntity
  8
レイヤ1
100
AcDbVertex
100
AcDb2dVertex
 10
-507.8745583032
 20
958.8321402449
  0
VERTEX
  5
36E
100
AcDbEntity
  8
レイヤ1
100
AcDbVertex
100
AcDb2dVertex
 10
-509.8952793575
 20
960.8528612991
  0
VERTEX
  5
36F
100
AcDbEntity
  8
レイヤ1
100
AcDbVertex
100
AcDb2dVertex
 10
-514.2735083084
 20
952.0964033973
  0
VERTEX
  5
370
100
AcDbEntity
  8
レイヤ1
100
AcDbVertex
100
AcDb2dVertex
 10
-514.2735083084
 20
948.0549612888
  0
VERTEX
  5
371
100
AcDbEntity
  8
レイヤ1
100
AcDbVertex
100
AcDb2dVertex
 10
-511.9160004117
 20
946.7078139193
  0
VERTEX
  5
372
100
AcDbEntity
  8
レイヤ1
100
AcDbVertex
100
AcDb2dVertex
 10
-512.9263609389
 20
935.9306349633
  0
VERTEX
  5
373
100
AcDbEntity
  8
レイヤ1
100
AcDbVertex
100
AcDb2dVertex
 10
-523.6060005362
 20
764.7150136507
  0
VERTEX
  5
374
100
AcDbEntity
  8
レイヤ1
100
AcDbVertex
100
AcDb2dVertex
 10
-562.5351010361
 20
465.5700041582
  0
VERTEX
  5
375
100
AcDbEntity
  8
レイヤ1
100
AcDbVertex
100
AcDb2dVertex
 10
-560.6626752065
 20
443.236329498
  0
VERTEX
  5
376
100
AcDbEntity
  8
レイヤ1
100
AcDbVertex
100
AcDb2dVertex
 10
-551.0375649025
 20
423.98610889
  0
VERTEX
  5
377
100
AcDbEntity
  8
レイヤ1
100
AcDbVertex
100
AcDb2dVertex
 10
-532.7498553249
 20
407.1421658581
  0
VERTEX
  5
378
100
AcDbEntity
  8
レイヤ1
100
AcDbVertex
100
AcDb2dVertex
 10
-513.0183792018
 20
397.5170555541
  0
VERTEX
  5
379
100
AcDbEntity
  8
レイヤ1
100
AcDbVertex
100
AcDb2dVertex
 10
-484.6243038051
 20
391.7419893717
  0
VERTEX
  5
37A
100
AcDbEntity
  8
レイヤ1
100
AcDbVertex
100
AcDb2dVertex
 10
-462.9678056211
 20
391.2607338565
  0
VERTEX
  5
37B
100
AcDbEntity
  8
レイヤ1
100
AcDbVertex
100
AcDb2dVertex
 10
-401.8483551909
 20
378.2668349462
  0
VERTEX
  5
37C
100
AcDbEntity
  8
レイヤ1
100
AcDbVertex
100
AcDb2dVertex
 10
-253.1404009945
 20
359.0166143382
  0
VERTEX
  5
37D
100
AcDbEntity
  8
レイヤ1
100
AcDbVertex
100
AcDb2dVertex
 10
-248.3278458425
 20
360.941636399
  0
VERTEX
  5
37E
100
AcDbEntity
  8
レイヤ1
100
AcDbVertex
100
AcDb2dVertex
 10
-243.5152906905
 20
368.6417246422
  0
VERTEX
  5
37F
100
AcDbEntity
  8
レイヤ1
100
AcDbVertex
100
AcDb2dVertex
 10
-243.0340351753
 20
409.0671879189
  0
VERTEX
  5
380
100
AcDbEntity
  8
レイヤ1
100
AcDbVertex
100
AcDb2dVertex
 10
-217.311848322
 20
587.2921470475
  0
VERTEX
  5
381
100
AcDbEntity
  8
レイヤ1
100
AcDbVertex
100
AcDb2dVertex
 10
-178.8497405615
 20
922.7467383914
  0
VERTEX
  5
382
100
AcDbEntity
  8
レイヤ1
100
AcDbVertex
100
AcDb2dVertex
 10
-155.4192332936
 20
1018.477365079
  0
VERTEX
  5
383
100
AcDbEntity
  8
レイヤ1
100
AcDbVertex
100
AcDb2dVertex
 10
-151.1142317724
 20
1017.855414645
  0
VERTEX
  5
384
100
AcDbEntity
  8
レイヤ1
100
AcDbVertex
100
AcDb2dVertex
 10
-137.1578218316
 20
1033.255591132
  0
VERTEX
  5
385
100
AcDbEntity
  8
レイヤ1
100
AcDbVertex
100
AcDb2dVertex
 10
-134.7515442556
 20
1033.255591132
  0
VERTEX
  5
386
100
AcDbEntity
  8
レイヤ1
100
AcDbVertex
100
AcDb2dVertex
 10
-132.8265221948
 20
1025.555502888
  0
VERTEX
  5
387
100
AcDbEntity
  8
レイヤ1
100
AcDbVertex
100
AcDb2dVertex
 10
-136.6765663164
 20
1013.524115008
  0
VERTEX
  5
388
100
AcDbEntity
  8
レイヤ1
100
AcDbVertex
100
AcDb2dVertex
 10
-135.2327997708
 20
998.6051940373
  0
VERTEX
  5
389
100
AcDbEntity
  8
レイヤ1
100
AcDbVertex
100
AcDb2dVertex
 10
-133.7890332252
 20
997.1614274917
  0
VERTEX
  5
38A
100
AcDbEntity
  8
レイヤ1
100
AcDbVertex
100
AcDb2dVertex
 10
-142.932888014
 20
984.6487840965
  0
VERTEX
  5
38B
100
AcDbEntity
  8
レイヤ1
100
AcDbVertex
100
AcDb2dVertex
 10
-149.9176675133
 20
949.0200971025
  0
VERTEX
  5
38C
100
AcDbEntity
  8
レイヤ1
100
AcDbVertex
100
AcDb2dVertex
 10
-152.6684504034
 20
905.6952665826
  0
VERTEX
  5
38D
100
AcDbEntity
  8
レイヤ1
100
AcDbVertex
100
AcDb2dVertex
 10
-158.8577119063
 20
878.187437681
  0
VERTEX
  5
38E
100
AcDbEntity
  8
レイヤ1
100
AcDbVertex
100
AcDb2dVertex
 10
-164.3592776866
 20
827.9856499358
  0
VERTEX
  5
38F
100
AcDbEntity
  8
レイヤ1
100
AcDbVertex
100
AcDb2dVertex
 10
-167.7977562993
 20
821.7963884329
  0
VERTEX
  5
390
100
AcDbEntity
  8
レイヤ1
100
AcDbVertex
100
AcDb2dVertex
 10
-162.296190519
 20
762.6545562947
  0
VERTEX
  5
391
100
AcDbEntity
  8
レイヤ1
100
AcDbVertex
100
AcDb2dVertex
 10
-165.7346691317
 20
727.5820744452
  0
VERTEX
  5
392
100
AcDbEntity
  8
レイヤ1
100
AcDbVertex
100
AcDb2dVertex
 10
-162.296190519
 20
675.3171995323
  0
VERTEX
  5
393
100
AcDbEntity
  8
レイヤ1
100
AcDbVertex
100
AcDb2dVertex
 10
-164.3592776866
 20
663.6263722492
  0
VERTEX
  5
394
100
AcDbEntity
  8
レイヤ1
100
AcDbVertex
100
AcDb2dVertex
 10
-162.296190519
 20
629.2415861223
  0
VERTEX
  5
395
100
AcDbEntity
  8
レイヤ1
100
AcDbVertex
100
AcDb2dVertex
 10
-207.6841082065
 20
168.4854520218
  0
VERTEX
  5
396
100
AcDbEntity
  8
レイヤ1
100
AcDbVertex
100
AcDb2dVertex
 10
-158.8143200156
 20
181.9145847451
  0
VERTEX
  5
397
100
AcDbEntity
  8
レイヤ1
100
AcDbVertex
100
AcDb2dVertex
 10
-155.4455314092
 20
180.4708181995
  0
VERTEX
  5
398
100
AcDbEntity
  8
レイヤ1
100
AcDbVertex
100
AcDb2dVertex
 10
-149.1892097116
 20
154.964275894
  0
VERTEX
  5
399
100
AcDbEntity
  8
レイヤ1
100
AcDbVertex
100
AcDb2dVertex
 10
-145.8204211052
 20
152.0767428028
  0
VERTEX
  5
39A
100
AcDbEntity
  8
レイヤ1
100
AcDbVertex
100
AcDb2dVertex
 10
-126.0889449821
 20
140.0453549228
  0
VERTEX
  5
39B
100
AcDbEntity
  8
レイヤ1
100
AcDbVertex
100
AcDb2dVertex
 10
-123.6826674061
 20
141.4891214684
  0
VERTEX
  5
39C
100
AcDbEntity
  8
レイヤ1
100
AcDbVertex
100
AcDb2dVertex
 10
-123.6826674061
 20
154.0017648636
  0
VERTEX
  5
39D
100
AcDbEntity
  8
レイヤ1
100
AcDbVertex
100
AcDb2dVertex
 10
-54.38187321745
 20
143.8953990444
  0
VERTEX
  5
39E
100
AcDbEntity
  8
レイヤ1
100
AcDbVertex
100
AcDb2dVertex
 10
-53.90061770225
 20
125.1264339517
  0
VERTEX
  5
39F
100
AcDbEntity
  8
レイヤ1
100
AcDbVertex
100
AcDb2dVertex
 10
-28.87533091192
 20
125.1264339517
  0
VERTEX
  5
3A0
100
AcDbEntity
  8
レイヤ1
100
AcDbVertex
100
AcDb2dVertex
 10
27.43156436633
 20
128.495222558
  0
VERTEX
  5
3A1
100
AcDbEntity
  8
レイヤ1
100
AcDbVertex
100
AcDb2dVertex
 10
27.91281988152
 20
114.5388126173
  0
VERTEX
  5
3A2
100
AcDbEntity
  8
レイヤ1
100
AcDbVertex
100
AcDb2dVertex
 10
32.72537503351
 20
113.5763015869
  0
VERTEX
  5
3A3
100
AcDbEntity
  8
レイヤ1
100
AcDbVertex
100
AcDb2dVertex
 10
46.68178497427
 20
115.5013236477
  0
VERTEX
  5
3A4
100
AcDbEntity
  8
レイヤ1
100
AcDbVertex
100
AcDb2dVertex
 10
99.13863613093
 20
139.0828438924
  0
VERTEX
  5
3A5
100
AcDbEntity
  8
レイヤ1
100
AcDbVertex
100
AcDb2dVertex
 10
106.8387243741
 20
138.120332862
  0
VERTEX
  5
3A6
100
AcDbEntity
  8
レイヤ1
100
AcDbVertex
100
AcDb2dVertex
 10
107.8012354045
 20
134.2702887404
  0
VERTEX
  5
3A7
100
AcDbEntity
  8
レイヤ1
100
AcDbVertex
100
AcDb2dVertex
 10
122.2389008605
 20
116.9450901933
  0
VERTEX
  5
3A8
100
AcDbEntity
  8
レイヤ1
100
AcDbVertex
100
AcDb2dVertex
 10
124.6451784365
 20
116.4638346781
  0
VERTEX
  5
3A9
100
AcDbEntity
  8
レイヤ1
100
AcDbVertex
100
AcDb2dVertex
 10
131.3827556492
 20
135.2327997708
  0
VERTEX
  5
3AA
100
AcDbEntity
  8
レイヤ1
100
AcDbVertex
100
AcDb2dVertex
 10
135.2327997708
 20
158.3330645004
  0
VERTEX
  5
3AB
100
AcDbEntity
  8
レイヤ1
100
AcDbVertex
100
AcDb2dVertex
 10
139.0828438924
 20
160.2580865612
  0
VERTEX
  5
3AC
100
AcDbEntity
  8
レイヤ1
100
AcDbVertex
100
AcDb2dVertex
 10
143.8953990444
 20
172.7707299563
  0
VERTEX
  5
3AD
100
AcDbEntity
  8
レイヤ1
100
AcDbVertex
100
AcDb2dVertex
 10
149.1892097116
 20
172.7707299563
  0
VERTEX
  5
3AE
100
AcDbEntity
  8
レイヤ1
100
AcDbVertex
100
AcDb2dVertex
 10
158.3330645004
 20
181.9145847451
  0
VERTEX
  5
3AF
100
AcDbEntity
  8
レイヤ1
100
AcDbVertex
100
AcDb2dVertex
 10
159.2955755308
 20
221.8587925066
  0
VERTEX
  5
3B0
100
AcDbEntity
  8
レイヤ1
100
AcDbVertex
100
AcDb2dVertex
 10
164.1081306828
 20
229.5588807498
  0
VERTEX
  5
3B1
100
AcDbEntity
  8
レイヤ1
100
AcDbVertex
100
AcDb2dVertex
 10
160.2580865612
 20
251.6966344489
  0
VERTEX
  5
3B2
100
AcDbEntity
  8
レイヤ1
100
AcDbVertex
100
AcDb2dVertex
 10
190.5771840187
 20
245.9215682665
  0
VERTEX
  5
3B3
100
AcDbEntity
  8
レイヤ1
100
AcDbVertex
100
AcDb2dVertex
 10
193.9459726251
 20
247.8465903273
  0
VERTEX
  5
3B4
100
AcDbEntity
  8
レイヤ1
100
AcDbVertex
100
AcDb2dVertex
 10
240.6935028883
 20
336.2832083211
  0
VERTEX
  5
3B5
100
AcDbEntity
  8
レイヤ1
100
AcDbVertex
100
AcDb2dVertex
 10
227.633858689
 20
523.124745021
  0
VERTEX
  5
3B6
100
AcDbEntity
  8
レイヤ1
100
AcDbVertex
100
AcDb2dVertex
 10
216.5649818394
 20
639.5885796991
  0
VERTEX
  5
3B7
100
AcDbEntity
  8
レイヤ1
100
AcDbVertex
100
AcDb2dVertex
 10
222.3400480218
 20
653.0637341246
  0
VERTEX
  5
3B8
100
AcDbEntity
  8
レイヤ1
100
AcDbVertex
100
AcDb2dVertex
 10
243.9965462057
 20
671.3514437022
  0
VERTEX
  5
3B9
100
AcDbEntity
  8
レイヤ1
100
AcDbVertex
100
AcDb2dVertex
 10
274.7968991785
 20
708.8893738877
  0
VERTEX
  5
3BA
100
AcDbEntity
  8
レイヤ1
100
AcDbVertex
100
AcDb2dVertex
 10
294.0471197864
 20
709.3706294029
  0
VERTEX
  5
3BB
100
AcDbEntity
  8
レイヤ1
100
AcDbVertex
100
AcDb2dVertex
 10
308.0035297272
 20
713.2206735245
  0
VERTEX
  5
3BC
100
AcDbEntity
  8
レイヤ1
100
AcDbVertex
100
AcDb2dVertex
 10
340.7289047607
 20
731.0271275868
  0
VERTEX
  5
3BD
100
AcDbEntity
  8
レイヤ1
100
AcDbVertex
100
AcDb2dVertex
 10
414.3609985861
 20
774.3401239547
  0
VERTEX
  5
3BE
100
AcDbEntity
  8
レイヤ1
100
AcDbVertex
100
AcDb2dVertex
 10
423.0235978596
 20
777.7089125611
  0
VERTEX
  5
3BF
100
AcDbEntity
  8
レイヤ1
100
AcDbVertex
100
AcDb2dVertex
 10
423.5048533748
 20
780.5964456523
  0
VERTEX
  5
3C0
100
AcDbEntity
  8
レイヤ1
100
AcDbVertex
100
AcDb2dVertex
 10
329.1787723959
 20
962.5110303974
  0
VERTEX
  5
3C1
100
AcDbEntity
  8
レイヤ1
100
AcDbVertex
100
AcDb2dVertex
 10
271.9093660873
 20
1085.712442288
  0
VERTEX
  5
3C2
100
AcDbEntity
  8
レイヤ1
100
AcDbVertex
100
AcDb2dVertex
 10
247.8465903273
 20
1128.062927626
  0
VERTEX
  5
3C3
100
AcDbEntity
  8
レイヤ1
100
AcDbVertex
100
AcDb2dVertex
 10
194.9084836555
 20
1235.86416303
  0
VERTEX
  5
3C4
100
AcDbEntity
  8
レイヤ1
100
AcDbVertex
100
AcDb2dVertex
 10
178.5457961387
 20
1253.189361577
  0
VERTEX
  5
3C5
100
AcDbEntity
  8
レイヤ1
100
AcDbVertex
100
AcDb2dVertex
 10
153.5205093484
 20
1265.702004973
  0
VERTEX
  5
3C6
100
AcDbEntity
  8
レイヤ1
100
AcDbVertex
100
AcDb2dVertex
 10
134.7515442556
 20
1270.033304609
  0
VERTEX
  5
3C7
100
AcDbEntity
  8
レイヤ1
100
AcDbVertex
100
AcDb2dVertex
 10
102.3832000823
 20
1310.774390528
  0
VERTEX
  5
3C8
100
AcDbEntity
  8
レイヤ1
100
AcDbVertex
100
AcDb2dVertex
 10
92.61638165344
 20
1311.11117737
  0
VERTEX
  5
3C9
100
AcDbEntity
  8
レイヤ1
100
AcDbVertex
100
AcDb2dVertex
 10
90.93244744156
 20
1313.468685267
  0
VERTEX
  5
3CA
100
AcDbEntity
  8
レイヤ1
100
AcDbVertex
100
AcDb2dVertex
 10
86.49690677179
 20
1313.008903612
  0
SEQEND
  5
3CB
100
AcDbEntity
  8
レイヤ1
  0
POLYLINE
  5
3CC
100
AcDbEntity
  8
レイヤ1
  6
CONTINUOUS
 62
     0
100
AcDb2dPolyline
 66
     1
 10
0
 20
0
 70
     0
  0
VERTEX
  5
3CD
100
AcDbEntity
  8
レイヤ1
100
AcDbVertex
100
AcDb2dVertex
 10
-28.87533091192
 20
125.1264339517
  0
VERTEX
  5
3CE
100
AcDbEntity
  8
レイヤ1
100
AcDbVertex
100
AcDb2dVertex
 10
-22.00626312122
 20
107.9682284385
  0
VERTEX
  5
3CF
100
AcDbEntity
  8
レイヤ1
100
AcDbVertex
100
AcDb2dVertex
 10
-23.38165456629
 20
105.2174455483
  0
VERTEX
  5
3D0
100
AcDbEntity
  8
レイヤ1
100
AcDbVertex
100
AcDb2dVertex
 10
-22.00626312122
 20
99.02818404547
  0
VERTEX
  5
3D1
100
AcDbEntity
  8
レイヤ1
100
AcDbVertex
100
AcDb2dVertex
 10
-22.00626312122
 20
94.21431398771
  0
VERTEX
  5
3D2
100
AcDbEntity
  8
レイヤ1
100
AcDbVertex
100
AcDb2dVertex
 10
-22.00626312122
 20
88.02505248487
  0
VERTEX
  5
3D3
100
AcDbEntity
  8
レイヤ1
100
AcDbVertex
100
AcDb2dVertex
 10
-25.44474173391
 20
77.7096166468
  0
VERTEX
  5
3D4
100
AcDbEntity
  8
レイヤ1
100
AcDbVertex
100
AcDb2dVertex
 10
-36.44787329451
 20
67.39418080873
  0
VERTEX
  5
3D5
100
AcDbEntity
  8
レイヤ1
100
AcDbVertex
100
AcDb2dVertex
 10
-50.88948346781
 20
50.20178774528
  0
VERTEX
  5
3D6
100
AcDbEntity
  8
レイヤ1
100
AcDbVertex
100
AcDb2dVertex
 10
-70.83265942142
 20
37.82326473959
  0
VERTEX
  5
3D7
100
AcDbEntity
  8
レイヤ1
100
AcDbVertex
100
AcDb2dVertex
 10
-104.5297498258
 20
18.56778450853
  0
VERTEX
  5
3D8
100
AcDbEntity
  8
レイヤ1
100
AcDbVertex
100
AcDb2dVertex
 10
-120.3467514442
 20
-5.501565780304
  0
VERTEX
  5
3D9
100
AcDbEntity
  8
レイヤ1
100
AcDbVertex
100
AcDb2dVertex
 10
-119.6590557216
 20
-15.12930589584
  0
VERTEX
  5
3DA
100
AcDbEntity
  8
レイヤ1
100
AcDbVertex
100
AcDb2dVertex
 10
-112.7820984962
 20
-21.31856739868
  0
VERTEX
  5
3DB
100
AcDbEntity
  8
レイヤ1
100
AcDbVertex
100
AcDb2dVertex
 10
-101.0912712131
 20
-22.69395884375
  0
VERTEX
  5
3DC
100
AcDbEntity
  8
レイヤ1
100
AcDbVertex
100
AcDb2dVertex
 10
-94.21431398771
 20
-26.82013317898
  0
VERTEX
  5
3DD
100
AcDbEntity
  8
レイヤ1
100
AcDbVertex
100
AcDb2dVertex
 10
-83.89887814964
 20
-28.19552462406
  0
VERTEX
  5
3DE
100
AcDbEntity
  8
レイヤ1
100
AcDbVertex
100
AcDb2dVertex
 10
-62.58031075096
 20
-22.69395884375
  0
VERTEX
  5
3DF
100
AcDbEntity
  8
レイヤ1
100
AcDbVertex
100
AcDb2dVertex
 10
-46.07561341005
 20
-19.25548023106
  0
VERTEX
  5
3E0
100
AcDbEntity
  8
レイヤ1
100
AcDbVertex
100
AcDb2dVertex
 10
-35.76017757198
 20
-13.06621872822
  0
VERTEX
  5
3E1
100
AcDbEntity
  8
レイヤ1
100
AcDbVertex
100
AcDb2dVertex
 10
-11.00313156061
 20
10.31543583807
  0
VERTEX
  5
3E2
100
AcDbEntity
  8
レイヤ1
100
AcDbVertex
100
AcDb2dVertex
 10
7.564652947918
 20
18.56778450853
  0
VERTEX
  5
3E3
100
AcDbEntity
  8
レイヤ1
100
AcDbVertex
100
AcDb2dVertex
 10
10.31543583807
 20
18.56778450853
  0
VERTEX
  5
3E4
100
AcDbEntity
  8
レイヤ1
100
AcDbVertex
100
AcDb2dVertex
 10
7.564652947918
 20
4.126174335228
  0
VERTEX
  5
3E5
100
AcDbEntity
  8
レイヤ1
100
AcDbVertex
100
AcDb2dVertex
 10
14.4416101733
 20
6.87695722538
  0
VERTEX
  5
3E6
100
AcDbEntity
  8
レイヤ1
100
AcDbVertex
100
AcDb2dVertex
 10
8.940044392994
 20
-14.4416101733
  0
VERTEX
  5
3E7
100
AcDbEntity
  8
レイヤ1
100
AcDbVertex
100
AcDb2dVertex
 10
8.940044392994
 20
-28.8832203466
  0
VERTEX
  5
3E8
100
AcDbEntity
  8
レイヤ1
100
AcDbVertex
100
AcDb2dVertex
 10
13.06621872822
 20
-43.3248305199
  0
VERTEX
  5
3E9
100
AcDbEntity
  8
レイヤ1
100
AcDbVertex
100
AcDb2dVertex
 10
19.9431759536
 20
-49.51409202274
  0
VERTEX
  5
3EA
100
AcDbEntity
  8
レイヤ1
100
AcDbVertex
100
AcDb2dVertex
 10
30.25861179167
 20
-51.57717919035
  0
VERTEX
  5
3EB
100
AcDbEntity
  8
レイヤ1
100
AcDbVertex
100
AcDb2dVertex
 10
52.95257063543
 20
-52.26487491289
  0
VERTEX
  5
3EC
100
AcDbEntity
  8
レイヤ1
100
AcDbVertex
100
AcDb2dVertex
 10
64.64339791857
 20
-50.88948346781
  0
VERTEX
  5
3ED
100
AcDbEntity
  8
レイヤ1
100
AcDbVertex
100
AcDb2dVertex
 10
92.15122682009
 20
-35.07248184944
  0
VERTEX
  5
3EE
100
AcDbEntity
  8
レイヤ1
100
AcDbVertex
100
AcDb2dVertex
 10
101.7789669356
 20
-23.38165456629
  0
VERTEX
  5
3EF
100
AcDbEntity
  8
レイヤ1
100
AcDbVertex
100
AcDb2dVertex
 10
102.4666626582
 20
-15.81700161837
  0
VERTEX
  5
3F0
100
AcDbEntity
  8
レイヤ1
100
AcDbVertex
100
AcDb2dVertex
 10
99.71587976801
 20
7.564652947918
  0
VERTEX
  5
3F1
100
AcDbEntity
  8
レイヤ1
100
AcDbVertex
100
AcDb2dVertex
 10
97.6527926004
 20
15.12930589584
  0
VERTEX
  5
3F2
100
AcDbEntity
  8
レイヤ1
100
AcDbVertex
100
AcDb2dVertex
 10
101.0912712131
 20
32.32169895929
  0
VERTEX
  5
3F3
100
AcDbEntity
  8
レイヤ1
100
AcDbVertex
100
AcDb2dVertex
 10
99.71587976801
 20
47.45100485512
  0
VERTEX
  5
3F4
100
AcDbEntity
  8
レイヤ1
100
AcDbVertex
100
AcDb2dVertex
 10
94.90200971025
 20
57.07874497066
  0
VERTEX
  5
3F5
100
AcDbEntity
  8
レイヤ1
100
AcDbVertex
100
AcDb2dVertex
 10
96.96509687786
 20
71.52035514395
  0
VERTEX
  5
3F6
100
AcDbEntity
  8
レイヤ1
100
AcDbVertex
100
AcDb2dVertex
 10
94.21431398771
 20
87.33735676233
  0
VERTEX
  5
3F7
100
AcDbEntity
  8
レイヤ1
100
AcDbVertex
100
AcDb2dVertex
 10
96.27740115532
 20
114.1574899413
  0
VERTEX
  5
3F8
100
AcDbEntity
  8
レイヤ1
100
AcDbVertex
100
AcDb2dVertex
 10
102.9886802525
 20
138.6015883772
  0
SEQEND
  5
3F9
100
AcDbEntity
  8
レイヤ1
  0
POLYLINE
  5
3FA
100
AcDbEntity
  8
レイヤ1
  6
CONTINUOUS
 62
     0
100
AcDb2dPolyline
 66
     1
 10
0
 20
0
 70
     0
  0
VERTEX
  5
3FB
100
AcDbEntity
  8
レイヤ1
100
AcDbVertex
100
AcDb2dVertex
 10
32.72537503351
 20
113.5763015869
  0
VERTEX
  5
3FC
100
AcDbEntity
  8
レイヤ1
100
AcDbVertex
100
AcDb2dVertex
 10
34.65039709431
 20
103.9511912829
  0
VERTEX
  5
3FD
100
AcDbEntity
  8
レイヤ1
100
AcDbVertex
100
AcDb2dVertex
 10
37.5379301855
 20
98.17612510053
  0
VERTEX
  5
3FE
100
AcDbEntity
  8
レイヤ1
100
AcDbVertex
100
AcDb2dVertex
 10
43.79425188308
 20
107.3199798893
  0
VERTEX
  5
3FF
100
AcDbEntity
  8
レイヤ1
100
AcDbVertex
100
AcDb2dVertex
 10
46.68178497427
 20
115.5013236477
  0
SEQEND
  5
400
100
AcDbEntity
  8
レイヤ1
  0
POLYLINE
  5
401
100
AcDbEntity
  8
レイヤ1
  6
CONTINUOUS
 62
     0
100
AcDb2dPolyline
 66
     1
 10
0
 20
0
 70
     0
  0
VERTEX
  5
402
100
AcDbEntity
  8
レイヤ1
100
AcDbVertex
100
AcDb2dVertex
 10
14.4416101733
 20
6.87695722538
  0
VERTEX
  5
403
100
AcDbEntity
  8
レイヤ1
100
AcDbVertex
100
AcDb2dVertex
 10
25.50654230553
 20
41.38797430709
  0
VERTEX
  5
404
100
AcDbEntity
  8
レイヤ1
100
AcDbVertex
100
AcDb2dVertex
 10
29.6372421291
 20
63.31592636671
  0
VERTEX
  5
405
100
AcDbEntity
  8
レイヤ1
100
AcDbVertex
100
AcDb2dVertex
 10
30.64760265623
 20
86.55421849067
  0
VERTEX
  5
406
100
AcDbEntity
  8
レイヤ1
100
AcDbVertex
100
AcDb2dVertex
 10
37.5379301855
 20
98.17612510053
  0
SEQEND
  5
407
100
AcDbEntity
  8
レイヤ1
  0
POLYLINE
  5
408
100
AcDbEntity
  8
レイヤ1
  6
CONTINUOUS
 62
     0
100
AcDb2dPolyline
 66
     1
 10
0
 20
0
 70
     0
  0
VERTEX
  5
409
100
AcDbEntity
  8
レイヤ1
100
AcDbVertex
100
AcDb2dVertex
 10
-460.7244003706
 20
1030.567737671
  0
VERTEX
  5
40A
100
AcDbEntity
  8
レイヤ1
100
AcDbVertex
100
AcDb2dVertex
 10
-487.5118368963
 20
1015.449137069
  0
VERTEX
  5
40B
100
AcDbEntity
  8
レイヤ1
100
AcDbVertex
100
AcDb2dVertex
 10
-514.9434012626
 20
1001.492727128
  0
VERTEX
  5
40C
100
AcDbEntity
  8
レイヤ1
100
AcDbVertex
100
AcDb2dVertex
 10
-520.718467445
 20
995.2364054309
  0
VERTEX
  5
40D
100
AcDbEntity
  8
レイヤ1
100
AcDbVertex
100
AcDb2dVertex
 10
-523.124745021
 20
988.9800837333
  0
VERTEX
  5
40E
100
AcDbEntity
  8
レイヤ1
100
AcDbVertex
100
AcDb2dVertex
 10
-527.4560446578
 20
973.0986517317
  0
VERTEX
  5
40F
100
AcDbEntity
  8
レイヤ1
100
AcDbVertex
100
AcDb2dVertex
 10
-530.343577749
 20
955.7734531846
  0
VERTEX
  5
410
100
AcDbEntity
  8
レイヤ1
100
AcDbVertex
100
AcDb2dVertex
 10
-529.8623222338
 20
952.8859200934
  0
VERTEX
  5
411
100
AcDbEntity
  8
レイヤ1
100
AcDbVertex
100
AcDb2dVertex
 10
-526.0122781122
 20
949.0358759718
  0
VERTEX
  5
412
100
AcDbEntity
  8
レイヤ1
100
AcDbVertex
100
AcDb2dVertex
 10
-514.2735083084
 20
948.0549612888
  0
SEQEND
  5
413
100
AcDbEntity
  8
レイヤ1
  0
POLYLINE
  5
414
100
AcDbEntity
  8
レイヤ1
  6
CONTINUOUS
 62
     0
100
AcDb2dPolyline
 66
     1
 10
0
 20
0
 70
     0
  0
VERTEX
  5
415
100
AcDbEntity
  8
レイヤ1
100
AcDbVertex
100
AcDb2dVertex
 10
-485.5868148355
 20
970.6923741558
  0
VERTEX
  5
416
100
AcDbEntity
  8
レイヤ1
100
AcDbVertex
100
AcDb2dVertex
 10
-483.1805372595
 20
978.3924623989
  0
VERTEX
  5
417
100
AcDbEntity
  8
レイヤ1
100
AcDbVertex
100
AcDb2dVertex
 10
-477.4054710771
 20
990.4238502789
  0
VERTEX
  5
418
100
AcDbEntity
  8
レイヤ1
100
AcDbVertex
100
AcDb2dVertex
 10
-471.6304048947
 20
994.2738944005
  0
SEQEND
  5
419
100
AcDbEntity
  8
レイヤ1
  0
POLYLINE
  5
41A
100
AcDbEntity
  8
レイヤ1
  6
CONTINUOUS
 62
     0
100
AcDb2dPolyline
 66
     1
 10
0
 20
0
 70
     0
  0
VERTEX
  5
41B
100
AcDbEntity
  8
レイヤ1
100
AcDbVertex
100
AcDb2dVertex
 10
-492.3243920483
 20
1005.824026765
  0
VERTEX
  5
41C
100
AcDbEntity
  8
レイヤ1
100
AcDbVertex
100
AcDb2dVertex
 10
-494.2494141091
 20
993.7926388853
  0
VERTEX
  5
41D
100
AcDbEntity
  8
レイヤ1
100
AcDbVertex
100
AcDb2dVertex
 10
-501.9495023522
 20
986.0925506421
  0
VERTEX
  5
41E
100
AcDbEntity
  8
レイヤ1
100
AcDbVertex
100
AcDb2dVertex
 10
-505.3182909586
 20
978.3924623989
  0
VERTEX
  5
41F
100
AcDbEntity
  8
レイヤ1
100
AcDbVertex
100
AcDb2dVertex
 10
-506.280801989
 20
974.0611627621
  0
VERTEX
  5
420
100
AcDbEntity
  8
レイヤ1
100
AcDbVertex
100
AcDb2dVertex
 10
-510.9056398846
 20
966.2414507771
  0
VERTEX
  5
421
100
AcDbEntity
  8
レイヤ1
100
AcDbVertex
100
AcDb2dVertex
 10
-510.9056398846
 20
962.536795511
  0
VERTEX
  5
422
100
AcDbEntity
  8
レイヤ1
100
AcDbVertex
100
AcDb2dVertex
 10
-509.8952793575
 20
960.8528612991
  0
SEQEND
  5
423
100
AcDbEntity
  8
レイヤ1
  0
LINE
  5
424
100
AcDbEntity
  8
レイヤ1
  6
CONTINUOUS
 62
     0
100
AcDbLine
 10
-491.6139725592
 20
910.9907899668
 11
-431.4163432662
 21
700.2990874414
  0
POLYLINE
  5
425
100
AcDbEntity
  8
レイヤ1
  6
CONTINUOUS
 62
     0
100
AcDb2dPolyline
 66
     1
 10
0
 20
0
 70
     0
  0
VERTEX
  5
426
100
AcDbEntity
  8
レイヤ1
100
AcDbVertex
100
AcDb2dVertex
 10
-361.6302446518
 20
991.5351001458
  0
VERTEX
  5
427
100
AcDbEntity
  8
レイヤ1
100
AcDbVertex
100
AcDb2dVertex
 10
-351.8033358297
 20
976.7947369127
  0
VERTEX
  5
428
100
AcDbEntity
  8
レイヤ1
100
AcDbVertex
100
AcDb2dVertex
 10
-340.0110452433
 20
969.9159007373
  0
VERTEX
  5
429
100
AcDbEntity
  8
レイヤ1
100
AcDbVertex
100
AcDb2dVertex
 10
-299.7207190728
 20
966.9678280907
  0
VERTEX
  5
42A
100
AcDbEntity
  8
レイヤ1
100
AcDbVertex
100
AcDb2dVertex
 10
-262.378465549
 20
979.7428095593
  0
VERTEX
  5
42B
100
AcDbEntity
  8
レイヤ1
100
AcDbVertex
100
AcDb2dVertex
 10
-229.9496664362
 20
1007.258154261
  0
SEQEND
  5
42C
100
AcDbEntity
  8
レイヤ1
  0
POLYLINE
  5
42D
100
AcDbEntity
  8
レイヤ1
  6
CONTINUOUS
 62
     0
100
AcDb2dPolyline
 66
     1
 10
0
 20
0
 70
     0
  0
VERTEX
  5
42E
100
AcDbEntity
  8
レイヤ1
100
AcDbVertex
100
AcDb2dVertex
 10
-199.4003307593
 20
1011.043930611
  0
VERTEX
  5
42F
100
AcDbEntity
  8
レイヤ1
100
AcDbVertex
100
AcDb2dVertex
 10
-261.1863487411
 20
905.7268545053
  0
VERTEX
  5
430
100
AcDbEntity
  8
レイヤ1
100
AcDbVertex
100
AcDb2dVertex
 10
-294.8878130948
 20
876.2380731958
  0
VERTEX
  5
431
100
AcDbEntity
  8
レイヤ1
100
AcDbVertex
100
AcDb2dVertex
 10
-328.5892774484
 20
867.8127071074
  0
VERTEX
  5
432
100
AcDbEntity
  8
レイヤ1
100
AcDbVertex
100
AcDb2dVertex
 10
-353.8653757137
 20
867.8127071074
  0
VERTEX
  5
433
100
AcDbEntity
  8
レイヤ1
100
AcDbVertex
100
AcDb2dVertex
 10
-379.141473979
 20
879.0465285587
  0
VERTEX
  5
434
100
AcDbEntity
  8
レイヤ1
100
AcDbVertex
100
AcDb2dVertex
 10
-405.8217999256
 20
898.7057160983
  0
VERTEX
  5
435
100
AcDbEntity
  8
レイヤ1
100
AcDbVertex
100
AcDb2dVertex
 10
-452.161313412
 20
939.428318859
  0
SEQEND
  5
436
100
AcDbEntity
  8
レイヤ1
  0
POLYLINE
  5
437
100
AcDbEntity
  8
レイヤ1
  6
CONTINUOUS
 62
     0
100
AcDb2dPolyline
 66
     1
 10
0
 20
0
 70
     0
  0
VERTEX
  5
438
100
AcDbEntity
  8
レイヤ1
100
AcDbVertex
100
AcDb2dVertex
 10
340.7289047607
 20
731.0271275868
  0
VERTEX
  5
439
100
AcDbEntity
  8
レイヤ1
100
AcDbVertex
100
AcDb2dVertex
 10
350.0371227719
 20
699.3865498212
  0
VERTEX
  5
43A
100
AcDbEntity
  8
レイヤ1
100
AcDbVertex
100
AcDb2dVertex
 10
370.667994448
 20
653.9986321337
  0
VERTEX
  5
43B
100
AcDbEntity
  8
レイヤ1
100
AcDbVertex
100
AcDb2dVertex
 10
372.0433858931
 20
644.3708920181
  0
VERTEX
  5
43C
100
AcDbEntity
  8
レイヤ1
100
AcDbVertex
100
AcDb2dVertex
 10
370.667994448
 20
638.8693262378
  0
VERTEX
  5
43D
100
AcDbEntity
  8
レイヤ1
100
AcDbVertex
100
AcDb2dVertex
 10
371.3556901705
 20
603.7968443884
  0
VERTEX
  5
43E
100
AcDbEntity
  8
レイヤ1
100
AcDbVertex
100
AcDb2dVertex
 10
367.2295158353
 20
597.6075828855
  0
VERTEX
  5
43F
100
AcDbEntity
  8
レイヤ1
100
AcDbVertex
100
AcDb2dVertex
 10
347.2863398817
 20
581.7905812672
  0
VERTEX
  5
440
100
AcDbEntity
  8
レイヤ1
100
AcDbVertex
100
AcDb2dVertex
 10
332.0663054871
 20
573.1753186016
  0
VERTEX
  5
441
100
AcDbEntity
  8
レイヤ1
100
AcDbVertex
100
AcDb2dVertex
 10
328.6975168807
 20
573.1753186016
  0
VERTEX
  5
442
100
AcDbEntity
  8
レイヤ1
100
AcDbVertex
100
AcDb2dVertex
 10
326.7724948199
 20
575.5815961776
  0
VERTEX
  5
443
100
AcDbEntity
  8
レイヤ1
100
AcDbVertex
100
AcDb2dVertex
 10
328.2162613655
 20
582.8004289056
  0
VERTEX
  5
444
100
AcDbEntity
  8
レイヤ1
100
AcDbVertex
100
AcDb2dVertex
 10
332.0663054871
 20
587.6129840576
  0
VERTEX
  5
445
100
AcDbEntity
  8
レイヤ1
100
AcDbVertex
100
AcDb2dVertex
 10
340.2476492455
 20
591.4630281792
  0
VERTEX
  5
446
100
AcDbEntity
  8
レイヤ1
100
AcDbVertex
100
AcDb2dVertex
 10
343.6164378519
 20
597.7193498768
  0
VERTEX
  5
447
100
AcDbEntity
  8
レイヤ1
100
AcDbVertex
100
AcDb2dVertex
 10
353.2415481558
 20
605.9006936351
  0
VERTEX
  5
448
100
AcDbEntity
  8
レイヤ1
100
AcDbVertex
100
AcDb2dVertex
 10
351.7977816102
 20
625.1509142431
  0
VERTEX
  5
449
100
AcDbEntity
  8
レイヤ1
100
AcDbVertex
100
AcDb2dVertex
 10
346.0227154279
 20
641.0323462447
  0
VERTEX
  5
44A
100
AcDbEntity
  8
レイヤ1
100
AcDbVertex
100
AcDb2dVertex
 10
341.2101602759
 20
644.8823903662
  0
SEQEND
  5
44B
100
AcDbEntity
  8
レイヤ1
  0
POLYLINE
  5
44C
100
AcDbEntity
  8
レイヤ1
  6
CONTINUOUS
 62
     0
100
AcDb2dPolyline
 66
     1
 10
0
 20
0
 70
     0
  0
VERTEX
  5
44D
100
AcDbEntity
  8
レイヤ1
100
AcDbVertex
100
AcDb2dVertex
 10
341.6914157911
 20
655.4700117006
  0
VERTEX
  5
44E
100
AcDbEntity
  8
レイヤ1
100
AcDbVertex
100
AcDb2dVertex
 10
341.2101602759
 20
644.8823903662
  0
VERTEX
  5
44F
100
AcDbEntity
  8
レイヤ1
100
AcDbVertex
100
AcDb2dVertex
 10
341.2101602759
 20
621.7821256367
  0
VERTEX
  5
450
100
AcDbEntity
  8
レイヤ1
100
AcDbVertex
100
AcDb2dVertex
 10
342.6539268215
 20
608.7882267263
  0
VERTEX
  5
451
100
AcDbEntity
  8
レイヤ1
100
AcDbVertex
100
AcDb2dVertex
 10
342.6539268215
 20
602.0506495136
  0
VERTEX
  5
452
100
AcDbEntity
  8
レイヤ1
100
AcDbVertex
100
AcDb2dVertex
 10
340.8025264088
 20
597.9363827794
  0
VERTEX
  5
453
100
AcDbEntity
  8
レイヤ1
100
AcDbVertex
100
AcDb2dVertex
 10
337.7386032806
 20
595.3438324402
  0
VERTEX
  5
454
100
AcDbEntity
  8
レイヤ1
100
AcDbVertex
100
AcDb2dVertex
 10
333.0248753911
 20
595.1081460457
  0
VERTEX
  5
455
100
AcDbEntity
  8
レイヤ1
100
AcDbVertex
100
AcDb2dVertex
 10
326.6613427403
 20
600.2932467241
  0
VERTEX
  5
456
100
AcDbEntity
  8
レイヤ1
100
AcDbVertex
100
AcDb2dVertex
 10
322.8903604288
 20
612.7846256312
  0
VERTEX
  5
457
100
AcDbEntity
  8
レイヤ1
100
AcDbVertex
100
AcDb2dVertex
 10
323.8331060067
 20
628.8113004554
  0
VERTEX
  5
458
100
AcDbEntity
  8
レイヤ1
100
AcDbVertex
100
AcDb2dVertex
 10
321.9682213116
 20
640.9053610418
  0
VERTEX
  5
459
100
AcDbEntity
  8
レイヤ1
100
AcDbVertex
100
AcDb2dVertex
 10
313.2117634098
 20
654.7136215792
  0
VERTEX
  5
45A
100
AcDbEntity
  8
レイヤ1
100
AcDbVertex
100
AcDb2dVertex
 10
309.5071081437
 20
667.8483084319
  0
VERTEX
  5
45B
100
AcDbEntity
  8
レイヤ1
100
AcDbVertex
100
AcDb2dVertex
 10
307.4863870894
 20
686.0347979202
  0
VERTEX
  5
45C
100
AcDbEntity
  8
レイヤ1
100
AcDbVertex
100
AcDb2dVertex
 10
308.0035297272
 20
713.2206735245
  0
SEQEND
  5
45D
100
AcDbEntity
  8
レイヤ1
  0
POLYLINE
  5
45E
100
AcDbEntity
  8
レイヤ1
  6
CONTINUOUS
 62
     0
100
AcDb2dPolyline
 66
     1
 10
0
 20
0
 70
     0
  0
VERTEX
  5
45F
100
AcDbEntity
  8
レイヤ1
100
AcDbVertex
100
AcDb2dVertex
 10
320.5078932159
 20
643.2081861157
  0
VERTEX
  5
460
100
AcDbEntity
  8
レイヤ1
100
AcDbVertex
100
AcDb2dVertex
 10
321.9682213116
 20
623.0556583959
  0
VERTEX
  5
461
100
AcDbEntity
  8
レイヤ1
100
AcDbVertex
100
AcDb2dVertex
 10
318.6003528878
 20
614.6359873365
  0
VERTEX
  5
462
100
AcDbEntity
  8
レイヤ1
100
AcDbVertex
100
AcDb2dVertex
 10
313.5485502522
 20
613.9624136517
  0
VERTEX
  5
463
100
AcDbEntity
  8
レイヤ1
100
AcDbVertex
100
AcDb2dVertex
 10
309.5071081437
 20
608.2370373313
  0
VERTEX
  5
464
100
AcDbEntity
  8
レイヤ1
100
AcDbVertex
100
AcDb2dVertex
 10
299.06671603
 20
605.5427425923
  0
VERTEX
  5
465
100
AcDbEntity
  8
レイヤ1
100
AcDbVertex
100
AcDb2dVertex
 10
293.3413397096
 20
601.8380873262
  0
VERTEX
  5
466
100
AcDbEntity
  8
レイヤ1
100
AcDbVertex
100
AcDb2dVertex
 10
291.6574054977
 20
598.4702189024
  0
VERTEX
  5
467
100
AcDbEntity
  8
レイヤ1
100
AcDbVertex
100
AcDb2dVertex
 10
292.3309791825
 20
595.7759241634
  0
VERTEX
  5
468
100
AcDbEntity
  8
レイヤ1
100
AcDbVertex
100
AcDb2dVertex
 10
295.0252739215
 20
593.0816294244
  0
VERTEX
  5
469
100
AcDbEntity
  8
レイヤ1
100
AcDbVertex
100
AcDb2dVertex
 10
305.8024528775
 20
593.4184162668
  0
VERTEX
  5
46A
100
AcDbEntity
  8
レイヤ1
100
AcDbVertex
100
AcDb2dVertex
 10
307.4863870894
 20
592.4080557396
  0
VERTEX
  5
46B
100
AcDbEntity
  8
レイヤ1
100
AcDbVertex
100
AcDb2dVertex
 10
315.2324844641
 20
591.7344820549
  0
VERTEX
  5
46C
100
AcDbEntity
  8
レイヤ1
100
AcDbVertex
100
AcDb2dVertex
 10
324.999302893
 20
594.0919899515
  0
SEQEND
  5
46D
100
AcDbEntity
  8
レイヤ1
  0
LINE
  5
46E
100
AcDbEntity
  8
レイヤ1
  6
CONTINUOUS
 62
     0
100
AcDbLine
 10
318.6003528878
 20
614.6359873365
 11
322.8903604288
 21
612.7846256312
  0
POLYLINE
  5
46F
100
AcDbEntity
  8
レイヤ1
  6
CONTINUOUS
 62
     0
100
AcDb2dPolyline
 66
     1
 10
0
 20
0
 70
     0
  0
VERTEX
  5
470
100
AcDbEntity
  8
レイヤ1
100
AcDbVertex
100
AcDb2dVertex
 10
309.5071081437
 20
608.2370373313
  0
VERTEX
  5
471
100
AcDbEntity
  8
レイヤ1
100
AcDbVertex
100
AcDb2dVertex
 10
317.9267792031
 20
606.8898899618
  0
VERTEX
  5
472
100
AcDbEntity
  8
レイヤ1
100
AcDbVertex
100
AcDb2dVertex
 10
322.6417949963
 20
605.5427425923
  0
VERTEX
  5
473
100
AcDbEntity
  8
レイヤ1
100
AcDbVertex
100
AcDb2dVertex
 10
323.6521555235
 20
599.8173662719
  0
VERTEX
  5
474
100
AcDbEntity
  8
レイヤ1
100
AcDbVertex
100
AcDb2dVertex
 10
324.999302893
 20
594.0919899515
  0
VERTEX
  5
475
100
AcDbEntity
  8
レイヤ1
100
AcDbVertex
100
AcDb2dVertex
 10
323.6521555235
 20
569.506550458
  0
VERTEX
  5
476
100
AcDbEntity
  8
レイヤ1
100
AcDbVertex
100
AcDb2dVertex
 10
319.2739265726
 20
549.9729136002
  0
VERTEX
  5
477
100
AcDbEntity
  8
レイヤ1
100
AcDbVertex
100
AcDb2dVertex
 10
317.2532055183
 20
531.1128504272
  0
VERTEX
  5
478
100
AcDbEntity
  8
レイヤ1
100
AcDbVertex
100
AcDb2dVertex
 10
317.9267792031
 20
522.019605683
  0
VERTEX
  5
479
100
AcDbEntity
  8
レイヤ1
100
AcDbVertex
100
AcDb2dVertex
 10
315.9060581488
 20
521.3460319983
  0
VERTEX
  5
47A
100
AcDbEntity
  8
レイヤ1
100
AcDbVertex
100
AcDb2dVertex
 10
313.2117634098
 20
524.0403267373
  0
VERTEX
  5
47B
100
AcDbEntity
  8
レイヤ1
100
AcDbVertex
100
AcDb2dVertex
 10
311.1910423556
 20
534.4807188509
  0
VERTEX
  5
47C
100
AcDbEntity
  8
レイヤ1
100
AcDbVertex
100
AcDb2dVertex
 10
311.5278291979
 20
557.3822241325
  0
VERTEX
  5
47D
100
AcDbEntity
  8
レイヤ1
100
AcDbVertex
100
AcDb2dVertex
 10
311.1910423556
 20
579.273368887
  0
VERTEX
  5
47E
100
AcDbEntity
  8
レイヤ1
100
AcDbVertex
100
AcDb2dVertex
 10
312.7126696554
 20
591.9535963861
  0
SEQEND
  5
47F
100
AcDbEntity
  8
レイヤ1
  0
POLYLINE
  5
480
100
AcDbEntity
  8
レイヤ1
  6
CONTINUOUS
 62
     0
100
AcDb2dPolyline
 66
     1
 10
0
 20
0
 70
     0
  0
VERTEX
  5
481
100
AcDbEntity
  8
レイヤ1
100
AcDbVertex
100
AcDb2dVertex
 10
306.6444199835
 20
592.9132360032
  0
VERTEX
  5
482
100
AcDbEntity
  8
レイヤ1
100
AcDbVertex
100
AcDb2dVertex
 10
303.7817318233
 20
558.0557978173
  0
VERTEX
  5
483
100
AcDbEntity
  8
レイヤ1
100
AcDbVertex
100
AcDb2dVertex
 10
306.8128134047
 20
526.7346214763
  0
VERTEX
  5
484
100
AcDbEntity
  8
レイヤ1
100
AcDbVertex
100
AcDb2dVertex
 10
310.1806818284
 20
516.9678030474
  0
VERTEX
  5
485
100
AcDbEntity
  8
レイヤ1
100
AcDbVertex
100
AcDb2dVertex
 10
316.9164186759
 20
506.5274109337
  0
VERTEX
  5
486
100
AcDbEntity
  8
レイヤ1
100
AcDbVertex
100
AcDb2dVertex
 10
318.2635660455
 20
500.8020346133
  0
VERTEX
  5
487
100
AcDbEntity
  8
レイヤ1
100
AcDbVertex
100
AcDb2dVertex
 10
324.6625160506
 20
494.7398714505
  0
VERTEX
  5
488
100
AcDbEntity
  8
レイヤ1
100
AcDbVertex
100
AcDb2dVertex
 10
329.0407450015
 20
494.0662977658
  0
VERTEX
  5
489
100
AcDbEntity
  8
レイヤ1
100
AcDbVertex
100
AcDb2dVertex
 10
329.0407450015
 20
491.7087898692
  0
VERTEX
  5
48A
100
AcDbEntity
  8
レイヤ1
100
AcDbVertex
100
AcDb2dVertex
 10
317.2532055183
 20
479.5844635436
  0
VERTEX
  5
48B
100
AcDbEntity
  8
レイヤ1
100
AcDbVertex
100
AcDb2dVertex
 10
305.8024528775
 20
470.4912187995
  0
VERTEX
  5
48C
100
AcDbEntity
  8
レイヤ1
100
AcDbVertex
100
AcDb2dVertex
 10
285.9320291773
 20
447.9265003603
  0
VERTEX
  5
48D
100
AcDbEntity
  8
レイヤ1
100
AcDbVertex
100
AcDb2dVertex
 10
281.2170133841
 20
439.5068293009
  0
VERTEX
  5
48E
100
AcDbEntity
  8
レイヤ1
100
AcDbVertex
100
AcDb2dVertex
 10
280.2066528569
 20
433.7814529805
  0
VERTEX
  5
48F
100
AcDbEntity
  8
レイヤ1
100
AcDbVertex
100
AcDb2dVertex
 10
280.5434396993
 20
428.3928635024
  0
VERTEX
  5
490
100
AcDbEntity
  8
レイヤ1
100
AcDbVertex
100
AcDb2dVertex
 10
283.2377344383
 20
425.3617819211
  0
VERTEX
  5
491
100
AcDbEntity
  8
レイヤ1
100
AcDbVertex
100
AcDb2dVertex
 10
289.2998976011
 20
425.3617819211
  0
VERTEX
  5
492
100
AcDbEntity
  8
レイヤ1
100
AcDbVertex
100
AcDb2dVertex
 10
296.0356344486
 20
428.0560766601
  0
VERTEX
  5
493
100
AcDbEntity
  8
レイヤ1
100
AcDbVertex
100
AcDb2dVertex
 10
305.1288791928
 20
436.1389608771
  0
VERTEX
  5
494
100
AcDbEntity
  8
レイヤ1
100
AcDbVertex
100
AcDb2dVertex
 10
310.8542555132
 20
448.9368608874
  0
VERTEX
  5
495
100
AcDbEntity
  8
レイヤ1
100
AcDbVertex
100
AcDb2dVertex
 10
318.2635660455
 20
455.3358108925
  0
VERTEX
  5
496
100
AcDbEntity
  8
レイヤ1
100
AcDbVertex
100
AcDb2dVertex
 10
318.9371397302
 20
460.0508266858
  0
VERTEX
  5
497
100
AcDbEntity
  8
レイヤ1
100
AcDbVertex
100
AcDb2dVertex
 10
318.2635660455
 20
470.1544319571
  0
VERTEX
  5
498
100
AcDbEntity
  8
レイヤ1
100
AcDbVertex
100
AcDb2dVertex
 10
322.9785818387
 20
479.2476767012
  0
VERTEX
  5
499
100
AcDbEntity
  8
レイヤ1
100
AcDbVertex
100
AcDb2dVertex
 10
326.6832371049
 20
479.921250386
  0
VERTEX
  5
49A
100
AcDbEntity
  8
レイヤ1
100
AcDbVertex
100
AcDb2dVertex
 10
327.693597632
 20
477.5637424894
  0
VERTEX
  5
49B
100
AcDbEntity
  8
レイヤ1
100
AcDbVertex
100
AcDb2dVertex
 10
333.4189739524
 20
476.8901688046
  0
VERTEX
  5
49C
100
AcDbEntity
  8
レイヤ1
100
AcDbVertex
100
AcDb2dVertex
 10
335.776481849
 20
477.9005293317
  0
VERTEX
  5
49D
100
AcDbEntity
  8
レイヤ1
100
AcDbVertex
100
AcDb2dVertex
 10
337.7972029033
 20
481.6051845979
  0
VERTEX
  5
49E
100
AcDbEntity
  8
レイヤ1
100
AcDbVertex
100
AcDb2dVertex
 10
341.5018581694
 20
484.9730530216
  0
VERTEX
  5
49F
100
AcDbEntity
  8
レイヤ1
100
AcDbVertex
100
AcDb2dVertex
 10
344.1961529084
 20
481.9419714403
  0
VERTEX
  5
4A0
100
AcDbEntity
  8
レイヤ1
100
AcDbVertex
100
AcDb2dVertex
 10
349.9215292288
 20
480.2580372284
  0
VERTEX
  5
4A1
100
AcDbEntity
  8
レイヤ1
100
AcDbVertex
100
AcDb2dVertex
 10
354.9733318644
 20
481.9419714403
  0
VERTEX
  5
4A2
100
AcDbEntity
  8
レイヤ1
100
AcDbVertex
100
AcDb2dVertex
 10
354.9733318644
 20
483.9626924945
  0
VERTEX
  5
4A3
100
AcDbEntity
  8
レイヤ1
100
AcDbVertex
100
AcDb2dVertex
 10
345.5433002779
 20
485.309839864
  0
VERTEX
  5
4A4
100
AcDbEntity
  8
レイヤ1
100
AcDbVertex
100
AcDb2dVertex
 10
344.8697265932
 20
494.0662977658
  0
VERTEX
  5
4A5
100
AcDbEntity
  8
レイヤ1
100
AcDbVertex
100
AcDb2dVertex
 10
338.8075634304
 20
500.4652477709
  0
VERTEX
  5
4A6
100
AcDbEntity
  8
レイヤ1
100
AcDbVertex
100
AcDb2dVertex
 10
342.8490055389
 20
503.4963293523
  0
VERTEX
  5
4A7
100
AcDbEntity
  8
レイヤ1
100
AcDbVertex
100
AcDb2dVertex
 10
344.5329397508
 20
509.2217056727
  0
VERTEX
  5
4A8
100
AcDbEntity
  8
レイヤ1
100
AcDbVertex
100
AcDb2dVertex
 10
344.8697265932
 20
544.9211109646
  0
VERTEX
  5
4A9
100
AcDbEntity
  8
レイヤ1
100
AcDbVertex
100
AcDb2dVertex
 10
343.1857923813
 20
556.7086504478
  0
VERTEX
  5
4AA
100
AcDbEntity
  8
レイヤ1
100
AcDbVertex
100
AcDb2dVertex
 10
346.2168739627
 20
563.7811741377
  0
VERTEX
  5
4AB
100
AcDbEntity
  8
レイヤ1
100
AcDbVertex
100
AcDb2dVertex
 10
347.5640213322
 20
573.2112057242
  0
VERTEX
  5
4AC
100
AcDbEntity
  8
レイヤ1
100
AcDbVertex
100
AcDb2dVertex
 10
347.2863398817
 20
581.7905812672
  0
SEQEND
  5
4AD
100
AcDbEntity
  8
レイヤ1
  0
POLYLINE
  5
4AE
100
AcDbEntity
  8
レイヤ1
  6
CONTINUOUS
 62
     0
100
AcDb2dPolyline
 66
     1
 10
0
 20
0
 70
     0
  0
VERTEX
  5
4AF
100
AcDbEntity
  8
レイヤ1
100
AcDbVertex
100
AcDb2dVertex
 10
341.6893793213
 20
617.4691542277
  0
VERTEX
  5
4B0
100
AcDbEntity
  8
レイヤ1
100
AcDbVertex
100
AcDb2dVertex
 10
344.5329397508
 20
616.6567083907
  0
VERTEX
  5
4B1
100
AcDbEntity
  8
レイヤ1
100
AcDbVertex
100
AcDb2dVertex
 10
347.2272344898
 20
610.9313320703
  0
VERTEX
  5
4B2
100
AcDbEntity
  8
レイヤ1
100
AcDbVertex
100
AcDb2dVertex
 10
348.4289930039
 20
601.810021756
  0
SEQEND
  5
4B3
100
AcDbEntity
  8
レイヤ1
  0
LINE
  5
4B4
100
AcDbEntity
  8
レイヤ1
  6
CONTINUOUS
 62
     0
100
AcDbLine
 10
339.2705648447
 20
596.6401076098
 11
341.9320435487
 21
594.591189028
  0
LINE
  5
4B5
100
AcDbEntity
  8
レイヤ1
  6
CONTINUOUS
 62
     0
100
AcDbLine
 10
337.7386032806
 20
595.3438324402
 11
338.0126352556
 21
590.4112568898
  0
POLYLINE
  5
4B6
100
AcDbEntity
  8
レイヤ1
  6
CONTINUOUS
 62
     0
100
AcDb2dPolyline
 66
     1
 10
0
 20
0
 70
     0
  0
VERTEX
  5
4B7
100
AcDbEntity
  8
レイヤ1
100
AcDbVertex
100
AcDb2dVertex
 10
329.8431090657
 20
597.7006963849
  0
VERTEX
  5
4B8
100
AcDbEntity
  8
レイヤ1
100
AcDbVertex
100
AcDb2dVertex
 10
331.3750706298
 20
592.751282101
  0
VERTEX
  5
4B9
100
AcDbEntity
  8
レイヤ1
100
AcDbVertex
100
AcDb2dVertex
 10
332.0663054871
 20
587.6129840576
  0
SEQEND
  5
4BA
100
AcDbEntity
  8
レイヤ1
  0
LINE
  5
4BB
100
AcDbEntity
  8
レイヤ1
  6
CONTINUOUS
 62
     0
100
AcDbLine
 10
329.8431090657
 20
597.7006963849
 11
330.1412834263
 21
585.2067064816
  0
POLYLINE
  5
4BC
100
AcDbEntity
  8
レイヤ1
  6
CONTINUOUS
 62
     0
100
AcDb2dPolyline
 66
     1
 10
0
 20
0
 70
     0
  0
VERTEX
  5
4BD
100
AcDbEntity
  8
レイヤ1
100
AcDbVertex
100
AcDb2dVertex
 10
339.6763226844
 20
577.4829499344
  0
VERTEX
  5
4BE
100
AcDbEntity
  8
レイヤ1
100
AcDbVertex
100
AcDb2dVertex
 10
339.8179239575
 20
567.8226162462
  0
VERTEX
  5
4BF
100
AcDbEntity
  8
レイヤ1
100
AcDbVertex
100
AcDb2dVertex
 10
340.8282844847
 20
563.1076004529
  0
VERTEX
  5
4C0
100
AcDbEntity
  8
レイヤ1
100
AcDbVertex
100
AcDb2dVertex
 10
342.5122186965
 20
566.4754688767
  0
VERTEX
  5
4C1
100
AcDbEntity
  8
レイヤ1
100
AcDbVertex
100
AcDb2dVertex
 10
343.0180644087
 20
579.3745345372
  0
SEQEND
  5
4C2
100
AcDbEntity
  8
レイヤ1
  0
POLYLINE
  5
4C3
100
AcDbEntity
  8
レイヤ1
  6
CONTINUOUS
 62
     0
100
AcDb2dPolyline
 66
     1
 10
0
 20
0
 70
     0
  0
VERTEX
  5
4C4
100
AcDbEntity
  8
レイヤ1
100
AcDbVertex
100
AcDb2dVertex
 10
333.5452092815
 20
574.0124484211
  0
VERTEX
  5
4C5
100
AcDbEntity
  8
レイヤ1
100
AcDbVertex
100
AcDb2dVertex
 10
334.4293344795
 20
553.6775688664
  0
VERTEX
  5
4C6
100
AcDbEntity
  8
レイヤ1
100
AcDbVertex
100
AcDb2dVertex
 10
337.7972029033
 20
523.7035398949
  0
VERTEX
  5
4C7
100
AcDbEntity
  8
レイヤ1
100
AcDbVertex
100
AcDb2dVertex
 10
337.1236292185
 20
522.019605683
  0
VERTEX
  5
4C8
100
AcDbEntity
  8
レイヤ1
100
AcDbVertex
100
AcDb2dVertex
 10
334.4293344795
 20
523.3667530525
  0
VERTEX
  5
4C9
100
AcDbEntity
  8
レイヤ1
100
AcDbVertex
100
AcDb2dVertex
 10
331.0614660557
 20
525.0506872644
  0
VERTEX
  5
4CA
100
AcDbEntity
  8
レイヤ1
100
AcDbVertex
100
AcDb2dVertex
 10
327.693597632
 20
525.0506872644
  0
VERTEX
  5
4CB
100
AcDbEntity
  8
レイヤ1
100
AcDbVertex
100
AcDb2dVertex
 10
326.0096634201
 20
523.3667530525
  0
VERTEX
  5
4CC
100
AcDbEntity
  8
レイヤ1
100
AcDbVertex
100
AcDb2dVertex
 10
324.3257292082
 20
518.6517372593
  0
VERTEX
  5
4CD
100
AcDbEntity
  8
レイヤ1
100
AcDbVertex
100
AcDb2dVertex
 10
324.999302893
 20
513.2631477812
  0
VERTEX
  5
4CE
100
AcDbEntity
  8
レイヤ1
100
AcDbVertex
100
AcDb2dVertex
 10
327.693597632
 20
511.242426727
  0
VERTEX
  5
4CF
100
AcDbEntity
  8
レイヤ1
100
AcDbVertex
100
AcDb2dVertex
 10
328.0303844744
 20
509.5584925151
  0
VERTEX
  5
4D0
100
AcDbEntity
  8
レイヤ1
100
AcDbVertex
100
AcDb2dVertex
 10
326.3464502625
 20
507.2009846185
  0
VERTEX
  5
4D1
100
AcDbEntity
  8
レイヤ1
100
AcDbVertex
100
AcDb2dVertex
 10
322.6417949963
 20
506.5274109337
  0
VERTEX
  5
4D2
100
AcDbEntity
  8
レイヤ1
100
AcDbVertex
100
AcDb2dVertex
 10
321.6314344692
 20
513.2631477812
  0
VERTEX
  5
4D3
100
AcDbEntity
  8
レイヤ1
100
AcDbVertex
100
AcDb2dVertex
 10
322.305008154
 20
531.1128504272
  0
VERTEX
  5
4D4
100
AcDbEntity
  8
レイヤ1
100
AcDbVertex
100
AcDb2dVertex
 10
325.3360897353
 20
547.6154057036
  0
VERTEX
  5
4D5
100
AcDbEntity
  8
レイヤ1
100
AcDbVertex
100
AcDb2dVertex
 10
328.7039581591
 20
564.11796098
  0
VERTEX
  5
4D6
100
AcDbEntity
  8
レイヤ1
100
AcDbVertex
100
AcDb2dVertex
 10
328.6975168807
 20
573.1753186016
  0
SEQEND
  5
4D7
100
AcDbEntity
  8
レイヤ1
  0
POLYLINE
  5
4D8
100
AcDbEntity
  8
レイヤ1
  6
CONTINUOUS
 62
     0
100
AcDb2dPolyline
 66
     1
 10
0
 20
0
 70
     1
  0
VERTEX
  5
4D9
100
AcDbEntity
  8
レイヤ1
100
AcDbVertex
100
AcDb2dVertex
 10
299.7402897148
 20
458.0301056315
  0
VERTEX
  5
4DA
100
AcDbEntity
  8
レイヤ1
100
AcDbVertex
100
AcDb2dVertex
 10
288.9631107587
 20
445.5689924636
  0
VERTEX
  5
4DB
100
AcDbEntity
  8
レイヤ1
100
AcDbVertex
100
AcDb2dVertex
 10
285.595242335
 20
437.822895089
  0
VERTEX
  5
4DC
100
AcDbEntity
  8
レイヤ1
100
AcDbVertex
100
AcDb2dVertex
 10
285.2584554926
 20
435.4653871923
  0
VERTEX
  5
4DD
100
AcDbEntity
  8
レイヤ1
100
AcDbVertex
100
AcDb2dVertex
 10
285.595242335
 20
432.0975187686
  0
VERTEX
  5
4DE
100
AcDbEntity
  8
レイヤ1
100
AcDbVertex
100
AcDb2dVertex
 10
286.6056028621
 20
431.4239450838
  0
VERTEX
  5
4DF
100
AcDbEntity
  8
レイヤ1
100
AcDbVertex
100
AcDb2dVertex
 10
291.3206186554
 20
432.0975187686
  0
VERTEX
  5
4E0
100
AcDbEntity
  8
レイヤ1
100
AcDbVertex
100
AcDb2dVertex
 10
300.0770765571
 20
439.5068293009
  0
VERTEX
  5
4E1
100
AcDbEntity
  8
レイヤ1
100
AcDbVertex
100
AcDb2dVertex
 10
304.7920923504
 20
444.8954187789
  0
VERTEX
  5
4E2
100
AcDbEntity
  8
レイヤ1
100
AcDbVertex
100
AcDb2dVertex
 10
305.1288791928
 20
448.2632872026
  0
VERTEX
  5
4E3
100
AcDbEntity
  8
レイヤ1
100
AcDbVertex
100
AcDb2dVertex
 10
303.1081581385
 20
449.2736477298
  0
VERTEX
  5
4E4
100
AcDbEntity
  8
レイヤ1
100
AcDbVertex
100
AcDb2dVertex
 10
300.0770765571
 20
451.6311556264
  0
VERTEX
  5
4E5
100
AcDbEntity
  8
レイヤ1
100
AcDbVertex
100
AcDb2dVertex
 10
299.7402897148
 20
454.3254503654
  0
SEQEND
  5
4E6
100
AcDbEntity
  8
レイヤ1
  0
POLYLINE
  5
4E7
100
AcDbEntity
  8
レイヤ1
  6
CONTINUOUS
 62
     0
100
AcDb2dPolyline
 66
     1
 10
0
 20
0
 70
     0
  0
VERTEX
  5
4E8
100
AcDbEntity
  8
レイヤ1
100
AcDbVertex
100
AcDb2dVertex
 10
317.2532055183
 20
479.5844635436
  0
VERTEX
  5
4E9
100
AcDbEntity
  8
レイヤ1
100
AcDbVertex
100
AcDb2dVertex
 10
308.1599607742
 20
479.921250386
  0
VERTEX
  5
4EA
100
AcDbEntity
  8
レイヤ1
100
AcDbVertex
100
AcDb2dVertex
 10
305.8024528775
 20
470.4912187995
  0
SEQEND
  5
4EB
100
AcDbEntity
  8
レイヤ1
  0
LINE
  5
4EC
100
AcDbEntity
  8
レイヤ1
  6
CONTINUOUS
 62
     0
100
AcDbLine
 10
299.7402897148
 20
458.0301056315
 11
285.4268489138
 21
433.7814529805
  0
POLYLINE
  5
4ED
100
AcDbEntity
  8
レイヤ1
  6
CONTINUOUS
 62
     0
100
AcDb2dPolyline
 66
     1
 10
0
 20
0
 70
     0
  0
VERTEX
  5
4EE
100
AcDbEntity
  8
レイヤ1
100
AcDbVertex
100
AcDb2dVertex
 10
281.8905870688
 20
426.8773227118
  0
VERTEX
  5
4EF
100
AcDbEntity
  8
レイヤ1
100
AcDbVertex
100
AcDb2dVertex
 10
257.9787212601
 20
378.2116239884
  0
VERTEX
  5
4F0
100
AcDbEntity
  8
レイヤ1
100
AcDbVertex
100
AcDb2dVertex
 10
256.968360733
 20
348.5743818593
  0
VERTEX
  5
4F1
100
AcDbEntity
  8
レイヤ1
100
AcDbVertex
100
AcDb2dVertex
 10
259.3258686296
 20
341.5018581694
  0
VERTEX
  5
4F2
100
AcDbEntity
  8
レイヤ1
100
AcDbVertex
100
AcDb2dVertex
 10
267.0719660043
 20
334.4293344795
  0
VERTEX
  5
4F3
100
AcDbEntity
  8
レイヤ1
100
AcDbVertex
100
AcDb2dVertex
 10
267.0719660043
 20
304.1185186657
  0
VERTEX
  5
4F4
100
AcDbEntity
  8
レイヤ1
100
AcDbVertex
100
AcDb2dVertex
 10
276.8387844332
 20
296.372421291
  0
VERTEX
  5
4F5
100
AcDbEntity
  8
レイヤ1
100
AcDbVertex
100
AcDb2dVertex
 10
296.0356344486
 20
289.9734712859
  0
VERTEX
  5
4F6
100
AcDbEntity
  8
レイヤ1
100
AcDbVertex
100
AcDb2dVertex
 10
316.2428449912
 20
286.2688160197
  0
VERTEX
  5
4F7
100
AcDbEntity
  8
レイヤ1
100
AcDbVertex
100
AcDb2dVertex
 10
363.0562160815
 20
286.2688160197
  0
VERTEX
  5
4F8
100
AcDbEntity
  8
レイヤ1
100
AcDbVertex
100
AcDb2dVertex
 10
394.0406055801
 20
290.6470449706
  0
VERTEX
  5
4F9
100
AcDbEntity
  8
レイヤ1
100
AcDbVertex
100
AcDb2dVertex
 10
413.2374555955
 20
295.0252739215
  0
VERTEX
  5
4FA
100
AcDbEntity
  8
レイヤ1
100
AcDbVertex
100
AcDb2dVertex
 10
423.0042740244
 20
300.7506502419
  0
VERTEX
  5
4FB
100
AcDbEntity
  8
レイヤ1
100
AcDbVertex
100
AcDb2dVertex
 10
426.3721424482
 20
306.1392397199
  0
VERTEX
  5
4FC
100
AcDbEntity
  8
レイヤ1
100
AcDbVertex
100
AcDb2dVertex
 10
424.6882082363
 20
336.4500555338
  0
VERTEX
  5
4FD
100
AcDbEntity
  8
レイヤ1
100
AcDbVertex
100
AcDb2dVertex
 10
431.7607319262
 20
342.1754318542
  0
VERTEX
  5
4FE
100
AcDbEntity
  8
レイヤ1
100
AcDbVertex
100
AcDb2dVertex
 10
432.434305611
 20
351.2686765983
  0
VERTEX
  5
4FF
100
AcDbEntity
  8
レイヤ1
100
AcDbVertex
100
AcDb2dVertex
 10
430.0767977143
 20
360.3619213425
  0
VERTEX
  5
500
100
AcDbEntity
  8
レイヤ1
100
AcDbVertex
100
AcDb2dVertex
 10
401.4499161124
 20
424.3514213939
  0
VERTEX
  5
501
100
AcDbEntity
  8
レイヤ1
100
AcDbVertex
100
AcDb2dVertex
 10
368.4448055595
 20
476.8901688046
  0
VERTEX
  5
502
100
AcDbEntity
  8
レイヤ1
100
AcDbVertex
100
AcDb2dVertex
 10
361.709068712
 20
482.9523319674
  0
VERTEX
  5
503
100
AcDbEntity
  8
レイヤ1
100
AcDbVertex
100
AcDb2dVertex
 10
354.9733318644
 20
482.9523319674
  0
SEQEND
  5
504
100
AcDbEntity
  8
レイヤ1
  0
POLYLINE
  5
505
100
AcDbEntity
  8
レイヤ1
  6
CONTINUOUS
 62
     0
100
AcDb2dPolyline
 66
     1
 10
0
 20
0
 70
     0
  0
VERTEX
  5
506
100
AcDbEntity
  8
レイヤ1
100
AcDbVertex
100
AcDb2dVertex
 10
267.0719660043
 20
334.4293344795
  0
VERTEX
  5
507
100
AcDbEntity
  8
レイヤ1
100
AcDbVertex
100
AcDb2dVertex
 10
295.490886332
 20
323.4037062135
  0
VERTEX
  5
508
100
AcDbEntity
  8
レイヤ1
100
AcDbVertex
100
AcDb2dVertex
 10
325.8099837895
 20
320.0349176071
  0
VERTEX
  5
509
100
AcDbEntity
  8
レイヤ1
100
AcDbVertex
100
AcDb2dVertex
 10
376.3418128854
 20
319.5536620919
  0
VERTEX
  5
50A
100
AcDbEntity
  8
レイヤ1
100
AcDbVertex
100
AcDb2dVertex
 10
405.2171437973
 20
326.2912393047
  0
VERTEX
  5
50B
100
AcDbEntity
  8
レイヤ1
100
AcDbVertex
100
AcDb2dVertex
 10
424.6882082363
 20
336.4500555338
  0
SEQEND
  5
50C
100
AcDbEntity
  8
レイヤ1
  0
POLYLINE
  5
50D
100
AcDbEntity
  8
レイヤ1
  6
CONTINUOUS
 62
     0
100
AcDb2dPolyline
 66
     1
 10
0
 20
0
 70
     1
  0
VERTEX
  5
50E
100
AcDbEntity
  8
レイヤ1
100
AcDbVertex
100
AcDb2dVertex
 10
334.7661213219
 20
518.9885241016
  0
VERTEX
  5
50F
100
AcDbEntity
  8
レイヤ1
100
AcDbVertex
100
AcDb2dVertex
 10
332.0718265829
 20
522.3563925254
  0
VERTEX
  5
510
100
AcDbEntity
  8
レイヤ1
100
AcDbVertex
100
AcDb2dVertex
 10
329.0407450015
 20
522.6931793678
  0
VERTEX
  5
511
100
AcDbEntity
  8
レイヤ1
100
AcDbVertex
100
AcDb2dVertex
 10
327.693597632
 20
520.6724583135
  0
VERTEX
  5
512
100
AcDbEntity
  8
レイヤ1
100
AcDbVertex
100
AcDb2dVertex
 10
327.3568107896
 20
516.631016205
  0
VERTEX
  5
513
100
AcDbEntity
  8
レイヤ1
100
AcDbVertex
100
AcDb2dVertex
 10
329.7143186862
 20
512.5895740965
  0
VERTEX
  5
514
100
AcDbEntity
  8
レイヤ1
100
AcDbVertex
100
AcDb2dVertex
 10
333.08218711
 20
510.2320661998
  0
VERTEX
  5
515
100
AcDbEntity
  8
レイヤ1
100
AcDbVertex
100
AcDb2dVertex
 10
335.776481849
 20
510.2320661998
  0
VERTEX
  5
516
100
AcDbEntity
  8
レイヤ1
100
AcDbVertex
100
AcDb2dVertex
 10
336.7868423761
 20
513.2631477812
  0
VERTEX
  5
517
100
AcDbEntity
  8
レイヤ1
100
AcDbVertex
100
AcDb2dVertex
 10
336.4500555338
 20
516.9678030474
  0
SEQEND
  5
518
100
AcDbEntity
  8
レイヤ1
  0
POLYLINE
  5
519
100
AcDbEntity
  8
レイヤ1
  6
CONTINUOUS
 62
     0
100
AcDb2dPolyline
 66
     1
 10
0
 20
0
 70
     1
  0
VERTEX
  5
51A
100
AcDbEntity
  8
レイヤ1
100
AcDbVertex
100
AcDb2dVertex
 10
311.8646160403
 20
465.7762030062
  0
VERTEX
  5
51B
100
AcDbEntity
  8
レイヤ1
100
AcDbVertex
100
AcDb2dVertex
 10
308.4967476165
 20
467.1233503757
  0
VERTEX
  5
51C
100
AcDbEntity
  8
レイヤ1
100
AcDbVertex
100
AcDb2dVertex
 10
306.8128134047
 20
466.7865635333
  0
VERTEX
  5
51D
100
AcDbEntity
  8
レイヤ1
100
AcDbVertex
100
AcDb2dVertex
 10
303.7817318233
 20
465.1026293214
  0
VERTEX
  5
51E
100
AcDbEntity
  8
レイヤ1
100
AcDbVertex
100
AcDb2dVertex
 10
302.0977976114
 20
461.3979740553
  0
VERTEX
  5
51F
100
AcDbEntity
  8
レイヤ1
100
AcDbVertex
100
AcDb2dVertex
 10
302.7713712961
 20
457.0197451044
  0
VERTEX
  5
520
100
AcDbEntity
  8
レイヤ1
100
AcDbVertex
100
AcDb2dVertex
 10
305.8024528775
 20
454.3254503654
  0
VERTEX
  5
521
100
AcDbEntity
  8
レイヤ1
100
AcDbVertex
100
AcDb2dVertex
 10
309.843894986
 20
453.988663523
  0
VERTEX
  5
522
100
AcDbEntity
  8
レイヤ1
100
AcDbVertex
100
AcDb2dVertex
 10
312.5381897251
 20
455.6725977349
  0
VERTEX
  5
523
100
AcDbEntity
  8
レイヤ1
100
AcDbVertex
100
AcDb2dVertex
 10
314.3668949124
 20
458.6853802473
  0
VERTEX
  5
524
100
AcDbEntity
  8
レイヤ1
100
AcDbVertex
100
AcDb2dVertex
 10
314.2019595006
 20
462.6438301307
  0
SEQEND
  5
525
100
AcDbEntity
  8
レイヤ1
  0
POLYLINE
  5
526
100
AcDbEntity
  8
レイヤ1
  6
CONTINUOUS
 62
     0
100
AcDb2dPolyline
 66
     1
 10
0
 20
0
 70
     0
  0
VERTEX
  5
527
100
AcDbEntity
  8
レイヤ1
100
AcDbVertex
100
AcDb2dVertex
 10
-77.46097374651
 20
1267.665674704
  0
VERTEX
  5
528
100
AcDbEntity
  8
レイヤ1
100
AcDbVertex
100
AcDb2dVertex
 10
-80.15526848552
 20
1260.929937856
  0
VERTEX
  5
529
100
AcDbEntity
  8
レイヤ1
100
AcDbVertex
100
AcDb2dVertex
 10
-80.15526848552
 20
1250.1527589
  0
VERTEX
  5
52A
100
AcDbEntity
  8
レイヤ1
100
AcDbVertex
100
AcDb2dVertex
 10
-76.78740006176
 20
1240.385940471
  0
VERTEX
  5
52B
100
AcDbEntity
  8
レイヤ1
100
AcDbVertex
100
AcDb2dVertex
 10
-45.80301056315
 20
1164.608900937
  0
SEQEND
  5
52C
100
AcDbEntity
  8
レイヤ1
  0
POLYLINE
  5
52D
100
AcDbEntity
  8
レイヤ1
  6
CONTINUOUS
 62
     0
100
AcDb2dPolyline
 66
     1
 10
0
 20
0
 70
     0
  0
VERTEX
  5
52E
100
AcDbEntity
  8
レイヤ1
100
AcDbVertex
100
AcDb2dVertex
 10
-32.52472243735
 20
1309.473607695
  0
VERTEX
  5
52F
100
AcDbEntity
  8
レイヤ1
100
AcDbVertex
100
AcDb2dVertex
 10
-36.37297897662
 20
1306.059374735
  0
VERTEX
  5
530
100
AcDbEntity
  8
レイヤ1
100
AcDbVertex
100
AcDb2dVertex
 10
-36.709765819
 20
1303.365079996
  0
VERTEX
  5
531
100
AcDbEntity
  8
レイヤ1
100
AcDbVertex
100
AcDb2dVertex
 10
-34.68904476474
 20
1295.282195779
  0
VERTEX
  5
532
100
AcDbEntity
  8
レイヤ1
100
AcDbVertex
100
AcDb2dVertex
 10
1.347147369505
 20
1228.598400988
  0
SEQEND
  5
533
100
AcDbEntity
  8
レイヤ1
  0
POLYLINE
  5
534
100
AcDbEntity
  8
レイヤ1
  6
CONTINUOUS
 62
     0
100
AcDb2dPolyline
 66
     1
 10
0
 20
0
 70
     0
  0
VERTEX
  5
535
100
AcDbEntity
  8
レイヤ1
100
AcDbVertex
100
AcDb2dVertex
 10
8.720396595521
 20
1234.053961464
  0
VERTEX
  5
536
100
AcDbEntity
  8
レイヤ1
100
AcDbVertex
100
AcDb2dVertex
 10
1.347147369505
 20
1228.598400988
  0
VERTEX
  5
537
100
AcDbEntity
  8
レイヤ1
100
AcDbVertex
100
AcDb2dVertex
 10
-22.90150528158
 20
1197.277224647
  0
VERTEX
  5
538
100
AcDbEntity
  8
レイヤ1
100
AcDbVertex
100
AcDb2dVertex
 10
-45.80301056315
 20
1164.608900937
  0
VERTEX
  5
539
100
AcDbEntity
  8
レイヤ1
100
AcDbVertex
100
AcDb2dVertex
 10
-81.8392026974
 20
1103.987269309
  0
VERTEX
  5
53A
100
AcDbEntity
  8
レイヤ1
100
AcDbVertex
100
AcDb2dVertex
 10
-91.94280796869
 20
1080.412190343
  0
VERTEX
  5
53B
100
AcDbEntity
  8
レイヤ1
100
AcDbVertex
100
AcDb2dVertex
 10
-92.61638165344
 20
1073.339666653
  0
SEQEND
  5
53C
100
AcDbEntity
  8
レイヤ1
  0
POLYLINE
  5
53D
100
AcDbEntity
  8
レイヤ1
  6
CONTINUOUS
 62
     0
100
AcDb2dPolyline
 66
     1
 10
0
 20
0
 70
     0
  0
VERTEX
  5
53E
100
AcDbEntity
  8
レイヤ1
100
AcDbVertex
100
AcDb2dVertex
 10
92.61638165344
 20
1311.11117737
  0
VERTEX
  5
53F
100
AcDbEntity
  8
レイヤ1
100
AcDbVertex
100
AcDb2dVertex
 10
73.6320938254
 20
1296.02110243
  0
VERTEX
  5
540
100
AcDbEntity
  8
レイヤ1
100
AcDbVertex
100
AcDb2dVertex
 10
-1.925022060795
 20
1209.87636521
  0
VERTEX
  5
541
100
AcDbEntity
  8
レイヤ1
100
AcDbVertex
100
AcDb2dVertex
 10
-38.0191857007
 20
1157.419514053
  0
VERTEX
  5
542
100
AcDbEntity
  8
レイヤ1
100
AcDbVertex
100
AcDb2dVertex
 10
-72.669582795
 20
1101.59387429
  0
VERTEX
  5
543
100
AcDbEntity
  8
レイヤ1
100
AcDbVertex
100
AcDb2dVertex
 10
-82.77594861417
 20
1074.162309923
  0
SEQEND
  5
544
100
AcDbEntity
  8
レイヤ1
  0
POLYLINE
  5
545
100
AcDbEntity
  8
レイヤ1
  6
CONTINUOUS
 62
     0
100
AcDb2dPolyline
 66
     1
 10
0
 20
0
 70
     0
  0
VERTEX
  5
546
100
AcDbEntity
  8
レイヤ1
100
AcDbVertex
100
AcDb2dVertex
 10
132.7542047654
 20
1272.547297273
  0
VERTEX
  5
547
100
AcDbEntity
  8
レイヤ1
100
AcDbVertex
100
AcDb2dVertex
 10
111.6512795261
 20
1253.189361577
  0
VERTEX
  5
548
100
AcDbEntity
  8
レイヤ1
100
AcDbVertex
100
AcDb2dVertex
 10
29.35658642712
 20
1151.64444787
  0
VERTEX
  5
549
100
AcDbEntity
  8
レイヤ1
100
AcDbVertex
100
AcDb2dVertex
 10
-14.43766545596
 20
1078.974865075
  0
SEQEND
  5
54A
100
AcDbEntity
  8
レイヤ1
  0
POLYLINE
  5
54B
100
AcDbEntity
  8
レイヤ1
  6
CONTINUOUS
 62
     0
100
AcDb2dPolyline
 66
     1
 10
0
 20
0
 70
     0
  0
VERTEX
  5
54C
100
AcDbEntity
  8
レイヤ1
100
AcDbVertex
100
AcDb2dVertex
 10
-134.7515442556
 20
1033.255591132
  0
VERTEX
  5
54D
100
AcDbEntity
  8
レイヤ1
100
AcDbVertex
100
AcDb2dVertex
 10
-133.367589581
 20
1050.101374529
  0
VERTEX
  5
54E
100
AcDbEntity
  8
レイヤ1
100
AcDbVertex
100
AcDb2dVertex
 10
-130.6732948419
 20
1056.837111376
  0
VERTEX
  5
54F
100
AcDbEntity
  8
レイヤ1
100
AcDbVertex
100
AcDb2dVertex
 10
-127.3054264182
 20
1057.173898219
  0
VERTEX
  5
550
100
AcDbEntity
  8
レイヤ1
100
AcDbVertex
100
AcDb2dVertex
 10
-119.5593290435
 20
1064.583208751
  0
VERTEX
  5
551
100
AcDbEntity
  8
レイヤ1
100
AcDbVertex
100
AcDb2dVertex
 10
-92.61638165344
 20
1073.339666653
  0
VERTEX
  5
552
100
AcDbEntity
  8
レイヤ1
100
AcDbVertex
100
AcDb2dVertex
 10
-82.77594861417
 20
1074.162309923
  0
VERTEX
  5
553
100
AcDbEntity
  8
レイヤ1
100
AcDbVertex
100
AcDb2dVertex
 10
-14.43766545596
 20
1078.974865075
  0
VERTEX
  5
554
100
AcDbEntity
  8
レイヤ1
100
AcDbVertex
100
AcDb2dVertex
 10
44.45586319365
 20
1074.013240338
  0
VERTEX
  5
555
100
AcDbEntity
  8
レイヤ1
100
AcDbVertex
100
AcDb2dVertex
 10
93.62674218057
 20
1066.940716648
  0
VERTEX
  5
556
100
AcDbEntity
  8
レイヤ1
100
AcDbVertex
100
AcDb2dVertex
 10
109.1189369299
 20
1074.686814022
  0
VERTEX
  5
557
100
AcDbEntity
  8
レイヤ1
100
AcDbVertex
100
AcDb2dVertex
 10
116.1914606198
 20
1075.360387707
  0
VERTEX
  5
558
100
AcDbEntity
  8
レイヤ1
100
AcDbVertex
100
AcDb2dVertex
 10
123.600771152
 20
1061.215340327
  0
VERTEX
  5
559
100
AcDbEntity
  8
レイヤ1
100
AcDbVertex
100
AcDb2dVertex
 10
140.7769001132
 20
1052.458882425
  0
VERTEX
  5
55A
100
AcDbEntity
  8
レイヤ1
100
AcDbVertex
100
AcDb2dVertex
 10
144.144768537
 20
1049.427800844
  0
VERTEX
  5
55B
100
AcDbEntity
  8
レイヤ1
100
AcDbVertex
100
AcDb2dVertex
 10
145.4919159065
 20
1046.396719263
  0
VERTEX
  5
55C
100
AcDbEntity
  8
レイヤ1
100
AcDbVertex
100
AcDb2dVertex
 10
143.4711948522
 20
1042.018490312
  0
VERTEX
  5
55D
100
AcDbEntity
  8
レイヤ1
100
AcDbVertex
100
AcDb2dVertex
 10
144.144768537
 20
1038.650621888
  0
VERTEX
  5
55E
100
AcDbEntity
  8
レイヤ1
100
AcDbVertex
100
AcDb2dVertex
 10
149.1965711726
 20
1034.945966622
  0
VERTEX
  5
55F
100
AcDbEntity
  8
レイヤ1
100
AcDbVertex
100
AcDb2dVertex
 10
149.533358015
 20
1031.91488504
  0
VERTEX
  5
560
100
AcDbEntity
  8
レイヤ1
100
AcDbVertex
100
AcDb2dVertex
 10
146.5022764336
 20
1028.883803459
  0
VERTEX
  5
561
100
AcDbEntity
  8
レイヤ1
100
AcDbVertex
100
AcDb2dVertex
 10
145.8287027489
 20
1004.97193765
  0
VERTEX
  5
562
100
AcDbEntity
  8
レイヤ1
100
AcDbVertex
100
AcDb2dVertex
 10
147.5126369607
 20
998.5729876452
  0
VERTEX
  5
563
100
AcDbEntity
  8
レイヤ1
100
AcDbVertex
100
AcDb2dVertex
 10
155.5955211778
 20
985.4383007926
  0
SEQEND
  5
564
100
AcDbEntity
  8
レイヤ1
  0
POLYLINE
  5
565
100
AcDbEntity
  8
レイヤ1
  6
CONTINUOUS
 62
     0
100
AcDb2dPolyline
 66
     1
 10
0
 20
0
 70
     0
  0
VERTEX
  5
566
100
AcDbEntity
  8
レイヤ1
100
AcDbVertex
100
AcDb2dVertex
 10
-127.3054264182
 20
1057.173898219
  0
VERTEX
  5
567
100
AcDbEntity
  8
レイヤ1
100
AcDbVertex
100
AcDb2dVertex
 10
-105.3949578285
 20
1053.949578285
  0
VERTEX
  5
568
100
AcDbEntity
  8
レイヤ1
100
AcDbVertex
100
AcDb2dVertex
 10
-87.10724825096
 20
1052.987067255
  0
SEQEND
  5
569
100
AcDbEntity
  8
レイヤ1
  0
POLYLINE
  5
56A
100
AcDbEntity
  8
レイヤ1
  6
CONTINUOUS
 62
     0
100
AcDb2dPolyline
 66
     1
 10
0
 20
0
 70
     0
  0
VERTEX
  5
56B
100
AcDbEntity
  8
レイヤ1
100
AcDbVertex
100
AcDb2dVertex
 10
-133.7890332252
 20
997.1614274917
  0
VERTEX
  5
56C
100
AcDbEntity
  8
レイヤ1
100
AcDbVertex
100
AcDb2dVertex
 10
-109.4557237722
 20
996.2154797486
  0
VERTEX
  5
56D
100
AcDbEntity
  8
レイヤ1
100
AcDbVertex
100
AcDb2dVertex
 10
-68.03094215998
 20
998.5729876452
  0
VERTEX
  5
56E
100
AcDbEntity
  8
レイヤ1
100
AcDbVertex
100
AcDb2dVertex
 10
-48.49730530216
 20
1003.624790281
  0
VERTEX
  5
56F
100
AcDbEntity
  8
レイヤ1
100
AcDbVertex
100
AcDb2dVertex
 10
-30.31081581385
 20
1012.381248183
  0
VERTEX
  5
570
100
AcDbEntity
  8
レイヤ1
100
AcDbVertex
100
AcDb2dVertex
 10
-27.95330791722
 20
1013.39160871
  0
VERTEX
  5
571
100
AcDbEntity
  8
レイヤ1
100
AcDbVertex
100
AcDb2dVertex
 10
-17.84970264594
 20
1013.39160871
  0
SEQEND
  5
572
100
AcDbEntity
  8
レイヤ1
  0
POLYLINE
  5
573
100
AcDbEntity
  8
レイヤ1
  6
CONTINUOUS
 62
     0
100
AcDb2dPolyline
 66
     1
 10
0
 20
0
 70
     0
  0
VERTEX
  5
574
100
AcDbEntity
  8
レイヤ1
100
AcDbVertex
100
AcDb2dVertex
 10
-133.367589581
 20
1050.101374529
  0
VERTEX
  5
575
100
AcDbEntity
  8
レイヤ1
100
AcDbVertex
100
AcDb2dVertex
 10
-143.4141435292
 20
1041.43693489
  0
VERTEX
  5
576
100
AcDbEntity
  8
レイヤ1
100
AcDbVertex
100
AcDb2dVertex
 10
-155.9267869244
 20
1035.661868708
  0
VERTEX
  5
577
100
AcDbEntity
  8
レイヤ1
100
AcDbVertex
100
AcDb2dVertex
 10
-182.2393664726
 20
1025.354322304
  0
VERTEX
  5
578
100
AcDbEntity
  8
レイヤ1
100
AcDbVertex
100
AcDb2dVertex
 10
-209.3131579099
 20
813.6680504665
  0
VERTEX
  5
579
100
AcDbEntity
  8
レイヤ1
100
AcDbVertex
100
AcDb2dVertex
 10
-243.0340351753
 20
409.0671879189
  0
SEQEND
  5
57A
100
AcDbEntity
  8
レイヤ1
  0
POLYLINE
  5
57B
100
AcDbEntity
  8
レイヤ1
  6
CONTINUOUS
 62
     0
100
AcDb2dPolyline
 66
     1
 10
0
 20
0
 70
     0
  0
VERTEX
  5
57C
100
AcDbEntity
  8
レイヤ1
100
AcDbVertex
100
AcDb2dVertex
 10
-27.95330791722
 20
1013.39160871
  0
VERTEX
  5
57D
100
AcDbEntity
  8
レイヤ1
100
AcDbVertex
100
AcDb2dVertex
 10
-24.06277575993
 20
1019.780436706
  0
VERTEX
  5
57E
100
AcDbEntity
  8
レイヤ1
100
AcDbVertex
100
AcDb2dVertex
 10
-23.10026472954
 20
1037.586890768
  0
VERTEX
  5
57F
100
AcDbEntity
  8
レイヤ1
100
AcDbVertex
100
AcDb2dVertex
 10
-24.06277575993
 20
1040.955679375
  0
VERTEX
  5
580
100
AcDbEntity
  8
レイヤ1
100
AcDbVertex
100
AcDb2dVertex
 10
-27.43156436633
 20
1038.549401799
  0
VERTEX
  5
581
100
AcDbEntity
  8
レイヤ1
100
AcDbVertex
100
AcDb2dVertex
 10
-30.80035297272
 20
1038.549401799
  0
VERTEX
  5
582
100
AcDbEntity
  8
レイヤ1
100
AcDbVertex
100
AcDb2dVertex
 10
-36.0941636399
 20
1044.324467981
  0
VERTEX
  5
583
100
AcDbEntity
  8
レイヤ1
100
AcDbVertex
100
AcDb2dVertex
 10
-45.71927394388
 20
1050.099534164
  0
VERTEX
  5
584
100
AcDbEntity
  8
レイヤ1
100
AcDbVertex
100
AcDb2dVertex
 10
-51.01308461106
 20
1049.137023133
  0
VERTEX
  5
585
100
AcDbEntity
  8
レイヤ1
100
AcDbVertex
100
AcDb2dVertex
 10
-64.48823903662
 20
1043.843212466
  0
VERTEX
  5
586
100
AcDbEntity
  8
レイヤ1
100
AcDbVertex
100
AcDb2dVertex
 10
-81.33218206858
 20
1041.918190405
  0
VERTEX
  5
587
100
AcDbEntity
  8
レイヤ1
100
AcDbVertex
100
AcDb2dVertex
 10
-91.43854788775
 20
1038.068146284
  0
SEQEND
  5
588
100
AcDbEntity
  8
レイヤ1
  0
POLYLINE
  5
589
100
AcDbEntity
  8
レイヤ1
  6
CONTINUOUS
 62
     0
100
AcDb2dPolyline
 66
     1
 10
0
 20
0
 70
     0
  0
VERTEX
  5
58A
100
AcDbEntity
  8
レイヤ1
100
AcDbVertex
100
AcDb2dVertex
 10
-17.84970264594
 20
1013.39160871
  0
VERTEX
  5
58B
100
AcDbEntity
  8
レイヤ1
100
AcDbVertex
100
AcDb2dVertex
 10
-18.28770957755
 20
1036.143124223
  0
VERTEX
  5
58C
100
AcDbEntity
  8
レイヤ1
100
AcDbVertex
100
AcDb2dVertex
 10
-16.84394303195
 20
1046.249490042
  0
VERTEX
  5
58D
100
AcDbEntity
  8
レイヤ1
100
AcDbVertex
100
AcDb2dVertex
 10
-13.95640994076
 20
1054.4308338
  0
VERTEX
  5
58E
100
AcDbEntity
  8
レイヤ1
100
AcDbVertex
100
AcDb2dVertex
 10
-12.99389891036
 20
1063.574688589
  0
VERTEX
  5
58F
100
AcDbEntity
  8
レイヤ1
100
AcDbVertex
100
AcDb2dVertex
 10
8.181343758378
 20
1062.130922044
  0
VERTEX
  5
590
100
AcDbEntity
  8
レイヤ1
100
AcDbVertex
100
AcDb2dVertex
 10
31.28160848791
 20
1055.874600346
  0
VERTEX
  5
591
100
AcDbEntity
  8
レイヤ1
100
AcDbVertex
100
AcDb2dVertex
 10
45.71927394388
 20
1054.912089316
  0
VERTEX
  5
592
100
AcDbEntity
  8
レイヤ1
100
AcDbVertex
100
AcDb2dVertex
 10
48.12555151987
 20
1051.543300709
  0
VERTEX
  5
593
100
AcDbEntity
  8
レイヤ1
100
AcDbVertex
100
AcDb2dVertex
 10
59.67568388464
 20
1051.543300709
  0
VERTEX
  5
594
100
AcDbEntity
  8
レイヤ1
100
AcDbVertex
100
AcDb2dVertex
 10
72.669582795
 20
1059.243388952
  0
VERTEX
  5
595
100
AcDbEntity
  8
レイヤ1
100
AcDbVertex
100
AcDb2dVertex
 10
85.66348170537
 20
1064.055944104
  0
VERTEX
  5
596
100
AcDbEntity
  8
レイヤ1
100
AcDbVertex
100
AcDb2dVertex
 10
93.62674218057
 20
1066.940716648
  0
SEQEND
  5
597
100
AcDbEntity
  8
レイヤ1
  0
POLYLINE
  5
598
100
AcDbEntity
  8
レイヤ1
  6
CONTINUOUS
 62
     0
100
AcDb2dPolyline
 66
     1
 10
0
 20
0
 70
     0
  0
VERTEX
  5
599
100
AcDbEntity
  8
レイヤ1
100
AcDbVertex
100
AcDb2dVertex
 10
-13.95640994076
 20
1054.4308338
  0
VERTEX
  5
59A
100
AcDbEntity
  8
レイヤ1
100
AcDbVertex
100
AcDb2dVertex
 10
-20.21273163834
 20
1050.580789679
  0
VERTEX
  5
59B
100
AcDbEntity
  8
レイヤ1
100
AcDbVertex
100
AcDb2dVertex
 10
-39.46295224629
 20
1060.687155498
  0
VERTEX
  5
59C
100
AcDbEntity
  8
レイヤ1
100
AcDbVertex
100
AcDb2dVertex
 10
-53.41936218705
 20
1064.537199619
  0
VERTEX
  5
59D
100
AcDbEntity
  8
レイヤ1
100
AcDbVertex
100
AcDb2dVertex
 10
-78.44464897739
 20
1063.574688589
  0
VERTEX
  5
59E
100
AcDbEntity
  8
レイヤ1
100
AcDbVertex
100
AcDb2dVertex
 10
-87.10724825096
 20
1052.987067255
  0
VERTEX
  5
59F
100
AcDbEntity
  8
レイヤ1
100
AcDbVertex
100
AcDb2dVertex
 10
-94.63710270769
 20
1037.977048203
  0
VERTEX
  5
5A0
100
AcDbEntity
  8
レイヤ1
100
AcDbVertex
100
AcDb2dVertex
 10
-96.65782376195
 20
1027.53665609
  0
VERTEX
  5
5A1
100
AcDbEntity
  8
レイヤ1
100
AcDbVertex
100
AcDb2dVertex
 10
-95.31067639245
 20
1020.800919242
  0
VERTEX
  5
5A2
100
AcDbEntity
  8
レイヤ1
100
AcDbVertex
100
AcDb2dVertex
 10
-91.26923428393
 20
1013.728395552
  0
VERTEX
  5
5A3
100
AcDbEntity
  8
レイヤ1
100
AcDbVertex
100
AcDb2dVertex
 10
-85.54385796354
 20
1010.697313971
  0
VERTEX
  5
5A4
100
AcDbEntity
  8
レイヤ1
100
AcDbVertex
100
AcDb2dVertex
 10
-72.07238426849
 20
1009.350166601
  0
VERTEX
  5
5A5
100
AcDbEntity
  8
レイヤ1
100
AcDbVertex
100
AcDb2dVertex
 10
-51.19160004117
 20
1011.370887656
  0
VERTEX
  5
5A6
100
AcDbEntity
  8
レイヤ1
100
AcDbVertex
100
AcDb2dVertex
 10
-35.36261844949
 20
1014.738756079
  0
VERTEX
  5
5A7
100
AcDbEntity
  8
レイヤ1
100
AcDbVertex
100
AcDb2dVertex
 10
-24.06277575993
 20
1019.780436706
  0
SEQEND
  5
5A8
100
AcDbEntity
  8
レイヤ1
  0
POLYLINE
  5
5A9
100
AcDbEntity
  8
レイヤ1
  6
CONTINUOUS
 62
     0
100
AcDb2dPolyline
 66
     1
 10
0
 20
0
 70
     0
  0
VERTEX
  5
5AA
100
AcDbEntity
  8
レイヤ1
100
AcDbVertex
100
AcDb2dVertex
 10
44.27550739828
 20
1030.849313556
  0
VERTEX
  5
5AB
100
AcDbEntity
  8
レイヤ1
100
AcDbVertex
100
AcDb2dVertex
 10
64.96949455182
 20
1029.886802525
  0
VERTEX
  5
5AC
100
AcDbEntity
  8
レイヤ1
100
AcDbVertex
100
AcDb2dVertex
 10
86.62599273576
 20
1020.742947736
  0
VERTEX
  5
5AD
100
AcDbEntity
  8
レイヤ1
100
AcDbVertex
100
AcDb2dVertex
 10
94.80733649414
 20
1019.780436706
  0
VERTEX
  5
5AE
100
AcDbEntity
  8
レイヤ1
100
AcDbVertex
100
AcDb2dVertex
 10
118.3888567389
 20
1015.930392584
  0
VERTEX
  5
5AF
100
AcDbEntity
  8
レイヤ1
100
AcDbVertex
100
AcDb2dVertex
 10
122.7201563757
 20
1017.855414645
  0
VERTEX
  5
5B0
100
AcDbEntity
  8
レイヤ1
100
AcDbVertex
100
AcDb2dVertex
 10
133.7890332252
 20
1035.661868708
  0
VERTEX
  5
5B1
100
AcDbEntity
  8
レイヤ1
100
AcDbVertex
100
AcDb2dVertex
 10
133.7890332252
 20
1041.43693489
  0
VERTEX
  5
5B2
100
AcDbEntity
  8
レイヤ1
100
AcDbVertex
100
AcDb2dVertex
 10
127.0514560125
 20
1055.393344831
  0
VERTEX
  5
5B3
100
AcDbEntity
  8
レイヤ1
100
AcDbVertex
100
AcDb2dVertex
 10
123.600771152
 20
1061.215340327
  0
SEQEND
  5
5B4
100
AcDbEntity
  8
レイヤ1
  0
POLYLINE
  5
5B5
100
AcDbEntity
  8
レイヤ1
  6
CONTINUOUS
 62
     0
100
AcDb2dPolyline
 66
     1
 10
0
 20
0
 70
     1
  0
VERTEX
  5
5B6
100
AcDbEntity
  8
レイヤ1
100
AcDbVertex
100
AcDb2dVertex
 10
64.00698352143
 20
1050.099534164
  0
VERTEX
  5
5B7
100
AcDbEntity
  8
レイヤ1
100
AcDbVertex
100
AcDb2dVertex
 10
75.075860371
 20
1049.137023133
  0
VERTEX
  5
5B8
100
AcDbEntity
  8
レイヤ1
100
AcDbVertex
100
AcDb2dVertex
 10
79.88841552298
 20
1046.249490042
  0
VERTEX
  5
5B9
100
AcDbEntity
  8
レイヤ1
100
AcDbVertex
100
AcDb2dVertex
 10
87.58850376616
 20
1039.030657314
  0
VERTEX
  5
5BA
100
AcDbEntity
  8
レイヤ1
100
AcDbVertex
100
AcDb2dVertex
 10
101.0636581917
 20
1039.993168344
  0
VERTEX
  5
5BB
100
AcDbEntity
  8
レイヤ1
100
AcDbVertex
100
AcDb2dVertex
 10
106.4246421909
 20
1036.966687676
  0
VERTEX
  5
5BC
100
AcDbEntity
  8
レイヤ1
100
AcDbVertex
100
AcDb2dVertex
 10
112.823592196
 20
1030.230950829
  0
VERTEX
  5
5BD
100
AcDbEntity
  8
レイヤ1
100
AcDbVertex
100
AcDb2dVertex
 10
114.8443132503
 20
1030.567737671
  0
VERTEX
  5
5BE
100
AcDbEntity
  8
レイヤ1
100
AcDbVertex
100
AcDb2dVertex
 10
119.2225422012
 20
1042.018490312
  0
VERTEX
  5
5BF
100
AcDbEntity
  8
レイヤ1
100
AcDbVertex
100
AcDb2dVertex
 10
118.8857553588
 20
1046.733506105
  0
VERTEX
  5
5C0
100
AcDbEntity
  8
レイヤ1
100
AcDbVertex
100
AcDb2dVertex
 10
113.8339527231
 20
1054.47960348
  0
VERTEX
  5
5C1
100
AcDbEntity
  8
レイヤ1
100
AcDbVertex
100
AcDb2dVertex
 10
112.1500185113
 20
1061.215340327
  0
VERTEX
  5
5C2
100
AcDbEntity
  8
レイヤ1
100
AcDbVertex
100
AcDb2dVertex
 10
108.1085764027
 20
1063.236061381
  0
VERTEX
  5
5C3
100
AcDbEntity
  8
レイヤ1
100
AcDbVertex
100
AcDb2dVertex
 10
104.740707979
 20
1063.236061381
  0
VERTEX
  5
5C4
100
AcDbEntity
  8
レイヤ1
100
AcDbVertex
100
AcDb2dVertex
 10
93.28995533819
 20
1061.55212717
  0
VERTEX
  5
5C5
100
AcDbEntity
  8
レイヤ1
100
AcDbVertex
100
AcDb2dVertex
 10
77.46097374651
 20
1056.163537692
  0
SEQEND
  5
5C6
100
AcDbEntity
  8
レイヤ1
  0
POLYLINE
  5
5C7
100
AcDbEntity
  8
レイヤ1
  6
CONTINUOUS
 62
     0
100
AcDb2dPolyline
 66
     1
 10
0
 20
0
 70
     1
  0
VERTEX
  5
5C8
100
AcDbEntity
  8
レイヤ1
100
AcDbVertex
100
AcDb2dVertex
 10
-45.1294368784
 20
1045.723145578
  0
VERTEX
  5
5C9
100
AcDbEntity
  8
レイヤ1
100
AcDbVertex
100
AcDb2dVertex
 10
-62.97913952434
 20
1034.945966622
  0
VERTEX
  5
5CA
100
AcDbEntity
  8
レイヤ1
100
AcDbVertex
100
AcDb2dVertex
 10
-72.07238426849
 20
1034.272392937
  0
VERTEX
  5
5CB
100
AcDbEntity
  8
レイヤ1
100
AcDbVertex
100
AcDb2dVertex
 10
-79.81848164314
 20
1037.303474519
  0
VERTEX
  5
5CC
100
AcDbEntity
  8
レイヤ1
100
AcDbVertex
100
AcDb2dVertex
 10
-86.21743164829
 20
1036.966687676
  0
VERTEX
  5
5CD
100
AcDbEntity
  8
レイヤ1
100
AcDbVertex
100
AcDb2dVertex
 10
-91.60602112631
 20
1034.609179779
  0
VERTEX
  5
5CE
100
AcDbEntity
  8
レイヤ1
100
AcDbVertex
100
AcDb2dVertex
 10
-92.61638165344
 20
1031.578098198
  0
VERTEX
  5
5CF
100
AcDbEntity
  8
レイヤ1
100
AcDbVertex
100
AcDb2dVertex
 10
-92.95316849581
 20
1025.179148193
  0
VERTEX
  5
5D0
100
AcDbEntity
  8
レイヤ1
100
AcDbVertex
100
AcDb2dVertex
 10
-90.59566059918
 20
1019.790558715
  0
VERTEX
  5
5D1
100
AcDbEntity
  8
レイヤ1
100
AcDbVertex
100
AcDb2dVertex
 10
-85.54385796354
 20
1017.433050818
  0
VERTEX
  5
5D2
100
AcDbEntity
  8
レイヤ1
100
AcDbVertex
100
AcDb2dVertex
 10
-73.75631848037
 20
1018.106624503
  0
VERTEX
  5
5D3
100
AcDbEntity
  8
レイヤ1
100
AcDbVertex
100
AcDb2dVertex
 10
-67.6941553176
 20
1022.821640296
  0
VERTEX
  5
5D4
100
AcDbEntity
  8
レイヤ1
100
AcDbVertex
100
AcDb2dVertex
 10
-64.32628689384
 20
1027.199869247
  0
VERTEX
  5
5D5
100
AcDbEntity
  8
レイヤ1
100
AcDbVertex
100
AcDb2dVertex
 10
-61.96877899721
 20
1032.925245568
  0
VERTEX
  5
5D6
100
AcDbEntity
  8
レイヤ1
100
AcDbVertex
100
AcDb2dVertex
 10
-59.2744842582
 20
1033.935606095
  0
VERTEX
  5
5D7
100
AcDbEntity
  8
レイヤ1
100
AcDbVertex
100
AcDb2dVertex
 10
-57.25376320394
 20
1033.26203241
  0
VERTEX
  5
5D8
100
AcDbEntity
  8
レイヤ1
100
AcDbVertex
100
AcDb2dVertex
 10
-54.55946846493
 20
1030.567737671
  0
VERTEX
  5
5D9
100
AcDbEntity
  8
レイヤ1
100
AcDbVertex
100
AcDb2dVertex
 10
-49.50766582929
 20
1030.230950829
  0
VERTEX
  5
5DA
100
AcDbEntity
  8
レイヤ1
100
AcDbVertex
100
AcDb2dVertex
 10
-40.41442108514
 20
1033.26203241
  0
VERTEX
  5
5DB
100
AcDbEntity
  8
レイヤ1
100
AcDbVertex
100
AcDb2dVertex
 10
-32.66832371049
 20
1034.609179779
  0
VERTEX
  5
5DC
100
AcDbEntity
  8
レイヤ1
100
AcDbVertex
100
AcDb2dVertex
 10
-34.64589998761
 20
1038.905626839
  0
VERTEX
  5
5DD
100
AcDbEntity
  8
レイヤ1
100
AcDbVertex
100
AcDb2dVertex
 10
-41.48080542734
 20
1045.740532279
  0
SEQEND
  5
5DE
100
AcDbEntity
  8
レイヤ1
  0
POLYLINE
  5
5DF
100
AcDbEntity
  8
レイヤ1
  6
CONTINUOUS
 62
     0
100
AcDb2dPolyline
 66
     1
 10
0
 20
0
 70
     0
  0
VERTEX
  5
5E0
100
AcDbEntity
  8
レイヤ1
100
AcDbVertex
100
AcDb2dVertex
 10
43.79425188308
 20
1022.667969797
  0
VERTEX
  5
5E1
100
AcDbEntity
  8
レイヤ1
100
AcDbVertex
100
AcDb2dVertex
 10
60.15693939984
 20
1011.117837432
  0
VERTEX
  5
5E2
100
AcDbEntity
  8
レイヤ1
100
AcDbVertex
100
AcDb2dVertex
 10
76.51962691659
 20
1003.417749189
  0
VERTEX
  5
5E3
100
AcDbEntity
  8
レイヤ1
100
AcDbVertex
100
AcDb2dVertex
 10
104.4324467981
 20
998.1239385221
  0
VERTEX
  5
5E4
100
AcDbEntity
  8
レイヤ1
100
AcDbVertex
100
AcDb2dVertex
 10
127.5327115277
 20
995.7176609461
  0
VERTEX
  5
5E5
100
AcDbEntity
  8
レイヤ1
100
AcDbVertex
100
AcDb2dVertex
 10
148.7853700069
 20
996.5047964453
  0
SEQEND
  5
5E6
100
AcDbEntity
  8
レイヤ1
  0
POLYLINE
  5
5E7
100
AcDbEntity
  8
レイヤ1
  6
CONTINUOUS
 62
     0
100
AcDb2dPolyline
 66
     1
 10
0
 20
0
 70
     0
  0
VERTEX
  5
5E8
100
AcDbEntity
  8
レイヤ1
100
AcDbVertex
100
AcDb2dVertex
 10
-17.84970264594
 20
1013.39160871
  0
VERTEX
  5
5E9
100
AcDbEntity
  8
レイヤ1
100
AcDbVertex
100
AcDb2dVertex
 10
-11.00313156061
 20
927.7015297038
  0
VERTEX
  5
5EA
100
AcDbEntity
  8
レイヤ1
100
AcDbVertex
100
AcDb2dVertex
 10
-15.12930589584
 20
812.1686483174
  0
VERTEX
  5
5EB
100
AcDbEntity
  8
レイヤ1
100
AcDbVertex
100
AcDb2dVertex
 10
-13.06621872822
 20
809.4178654272
  0
VERTEX
  5
5EC
100
AcDbEntity
  8
レイヤ1
100
AcDbVertex
100
AcDb2dVertex
 10
22.00626312122
 20
814.9194312075
  0
VERTEX
  5
5ED
100
AcDbEntity
  8
レイヤ1
100
AcDbVertex
100
AcDb2dVertex
 10
28.39407539672
 20
816.209353777
  0
VERTEX
  5
5EE
100
AcDbEntity
  8
レイヤ1
100
AcDbVertex
100
AcDb2dVertex
 10
34.35225792237
 20
856.1121533201
  0
VERTEX
  5
5EF
100
AcDbEntity
  8
レイヤ1
100
AcDbVertex
100
AcDb2dVertex
 10
37.0566746703
 20
921.1230560903
  0
VERTEX
  5
5F0
100
AcDbEntity
  8
レイヤ1
100
AcDbVertex
100
AcDb2dVertex
 10
38.98169673109
 20
1005.34277125
  0
VERTEX
  5
5F1
100
AcDbEntity
  8
レイヤ1
100
AcDbVertex
100
AcDb2dVertex
 10
42.83174085268
 20
1041.918190405
  0
VERTEX
  5
5F2
100
AcDbEntity
  8
レイヤ1
100
AcDbVertex
100
AcDb2dVertex
 10
45.71927394388
 20
1054.912089316
  0
SEQEND
  5
5F3
100
AcDbEntity
  8
レイヤ1
  0
POLYLINE
  5
5F4
100
AcDbEntity
  8
レイヤ1
  6
CONTINUOUS
 62
     0
100
AcDb2dPolyline
 66
     1
 10
0
 20
0
 70
     0
  0
VERTEX
  5
5F5
100
AcDbEntity
  8
レイヤ1
100
AcDbVertex
100
AcDb2dVertex
 10
48.12555151987
 20
1051.543300709
  0
VERTEX
  5
5F6
100
AcDbEntity
  8
レイヤ1
100
AcDbVertex
100
AcDb2dVertex
 10
44.27550739828
 20
1030.849313556
  0
VERTEX
  5
5F7
100
AcDbEntity
  8
レイヤ1
100
AcDbVertex
100
AcDb2dVertex
 10
43.79425188308
 20
1022.667969797
  0
VERTEX
  5
5F8
100
AcDbEntity
  8
レイヤ1
100
AcDbVertex
100
AcDb2dVertex
 10
41.86922982229
 20
993.3113833701
  0
VERTEX
  5
5F9
100
AcDbEntity
  8
レイヤ1
100
AcDbVertex
100
AcDb2dVertex
 10
37.5379301855
 20
855.1910505081
  0
VERTEX
  5
5FA
100
AcDbEntity
  8
レイヤ1
100
AcDbVertex
100
AcDb2dVertex
 10
32.24411951831
 20
819.0968868682
  0
VERTEX
  5
5FB
100
AcDbEntity
  8
レイヤ1
100
AcDbVertex
100
AcDb2dVertex
 10
28.39407539672
 20
816.209353777
  0
SEQEND
  5
5FC
100
AcDbEntity
  8
レイヤ1
  0
POLYLINE
  5
5FD
100
AcDbEntity
  8
レイヤ1
  6
CONTINUOUS
 62
     0
100
AcDb2dPolyline
 66
     1
 10
0
 20
0
 70
     0
  0
VERTEX
  5
5FE
100
AcDbEntity
  8
レイヤ1
100
AcDbVertex
100
AcDb2dVertex
 10
22.00626312122
 20
814.9194312075
  0
VERTEX
  5
5FF
100
AcDbEntity
  8
レイヤ1
100
AcDbVertex
100
AcDb2dVertex
 10
20.63087167614
 20
773.6576878553
  0
VERTEX
  5
600
100
AcDbEntity
  8
レイヤ1
100
AcDbVertex
100
AcDb2dVertex
 10
68.7695722538
 20
772.2822964102
  0
VERTEX
  5
601
100
AcDbEntity
  8
レイヤ1
100
AcDbVertex
100
AcDb2dVertex
 10
72.20805086649
 20
775.7207750229
  0
VERTEX
  5
602
100
AcDbEntity
  8
レイヤ1
100
AcDbVertex
100
AcDb2dVertex
 10
64.64339791857
 20
926.3261382587
  0
VERTEX
  5
603
100
AcDbEntity
  8
レイヤ1
100
AcDbVertex
100
AcDb2dVertex
 10
59.14183213827
 20
991.6572318998
  0
VERTEX
  5
604
100
AcDbEntity
  8
レイヤ1
100
AcDbVertex
100
AcDb2dVertex
 10
51.97559564146
 20
1016.892903615
  0
SEQEND
  5
605
100
AcDbEntity
  8
レイヤ1
  0
POLYLINE
  5
606
100
AcDbEntity
  8
レイヤ1
  6
CONTINUOUS
 62
     0
100
AcDb2dPolyline
 66
     1
 10
0
 20
0
 70
     0
  0
VERTEX
  5
607
100
AcDbEntity
  8
レイヤ1
100
AcDbVertex
100
AcDb2dVertex
 10
-119.5593290435
 20
1064.583208751
  0
VERTEX
  5
608
100
AcDbEntity
  8
レイヤ1
100
AcDbVertex
100
AcDb2dVertex
 10
-125.6076894669
 20
1078.974865075
  0
VERTEX
  5
609
100
AcDbEntity
  8
レイヤ1
100
AcDbVertex
100
AcDb2dVertex
 10
-137.1578218316
 20
1121.325350413
  0
SEQEND
  5
60A
100
AcDbEntity
  8
レイヤ1
  0
POLYLINE
  5
60B
100
AcDbEntity
  8
レイヤ1
  6
CONTINUOUS
 62
     0
100
AcDb2dPolyline
 66
     1
 10
0
 20
0
 70
     0
  0
VERTEX
  5
60C
100
AcDbEntity
  8
レイヤ1
100
AcDbVertex
100
AcDb2dVertex
 10
-123.4323777309
 20
1060.878553485
  0
VERTEX
  5
60D
100
AcDbEntity
  8
レイヤ1
100
AcDbVertex
100
AcDb2dVertex
 10
-129.3261474724
 20
1076.370748234
  0
VERTEX
  5
60E
100
AcDbEntity
  8
レイヤ1
100
AcDbVertex
100
AcDb2dVertex
 10
-143.1344080099
 20
1098.935466673
  0
VERTEX
  5
60F
100
AcDbEntity
  8
レイヤ1
100
AcDbVertex
100
AcDb2dVertex
 10
-144.8183422217
 20
1107.355137733
  0
SEQEND
  5
610
100
AcDbEntity
  8
レイヤ1
  0
POLYLINE
  5
611
100
AcDbEntity
  8
レイヤ1
  6
CONTINUOUS
 62
     0
100
AcDb2dPolyline
 66
     1
 10
0
 20
0
 70
     0
  0
VERTEX
  5
612
100
AcDbEntity
  8
レイヤ1
100
AcDbVertex
100
AcDb2dVertex
 10
-127.3054264182
 20
1057.173898219
  0
VERTEX
  5
613
100
AcDbEntity
  8
レイヤ1
100
AcDbVertex
100
AcDb2dVertex
 10
-141.1136869556
 20
1070.982158756
  0
VERTEX
  5
614
100
AcDbEntity
  8
レイヤ1
100
AcDbVertex
100
AcDb2dVertex
 10
-151.8908659116
 20
1089.842221929
  0
VERTEX
  5
615
100
AcDbEntity
  8
レイヤ1
100
AcDbVertex
100
AcDb2dVertex
 10
-156.9426685473
 20
1095.904385092
  0
SEQEND
  5
616
100
AcDbEntity
  8
レイヤ1
  0
LINE
  5
617
100
AcDbEntity
  8
レイヤ1
  6
CONTINUOUS
 62
     0
100
AcDbLine
 10
-130.6732948419
 20
1056.837111376
 11
-145.1551290641
 21
1062.899274539
  0
POLYLINE
  5
618
100
AcDbEntity
  8
レイヤ1
  6
CONTINUOUS
 62
     0
100
AcDb2dPolyline
 66
     1
 10
0
 20
0
 70
     0
  0
VERTEX
  5
619
100
AcDbEntity
  8
レイヤ1
100
AcDbVertex
100
AcDb2dVertex
 10
142.4608343251
 20
1050.943341635
  0
VERTEX
  5
61A
100
AcDbEntity
  8
レイヤ1
100
AcDbVertex
100
AcDb2dVertex
 10
147.2641876508
 20
1058.762133437
  0
VERTEX
  5
61B
100
AcDbEntity
  8
レイヤ1
100
AcDbVertex
100
AcDb2dVertex
 10
149.6704652268
 20
1068.868499256
  0
VERTEX
  5
61C
100
AcDbEntity
  8
レイヤ1
100
AcDbVertex
100
AcDb2dVertex
 10
149.6704652268
 20
1082.343653682
  0
VERTEX
  5
61D
100
AcDbEntity
  8
レイヤ1
100
AcDbVertex
100
AcDb2dVertex
 10
147.745443166
 20
1094.375041562
  0
SEQEND
  5
61E
100
AcDbEntity
  8
レイヤ1
  0
POLYLINE
  5
61F
100
AcDbEntity
  8
レイヤ1
  6
CONTINUOUS
 62
     0
100
AcDb2dPolyline
 66
     1
 10
0
 20
0
 70
     0
  0
VERTEX
  5
620
100
AcDbEntity
  8
レイヤ1
100
AcDbVertex
100
AcDb2dVertex
 10
152.557998318
 20
1062.130922044
  0
VERTEX
  5
621
100
AcDbEntity
  8
レイヤ1
100
AcDbVertex
100
AcDb2dVertex
 10
151.5954872876
 20
1049.137023133
  0
VERTEX
  5
622
100
AcDbEntity
  8
レイヤ1
100
AcDbVertex
100
AcDb2dVertex
 10
152.557998318
 20
1025.555502888
  0
VERTEX
  5
623
100
AcDbEntity
  8
レイヤ1
100
AcDbVertex
100
AcDb2dVertex
 10
154.0017648636
 20
1013.042859493
  0
VERTEX
  5
624
100
AcDbEntity
  8
レイヤ1
100
AcDbVertex
100
AcDb2dVertex
 10
156.8892979548
 20
1007.749048826
  0
VERTEX
  5
625
100
AcDbEntity
  8
レイヤ1
100
AcDbVertex
100
AcDb2dVertex
 10
155.5955211778
 20
985.4383007926
  0
VERTEX
  5
626
100
AcDbEntity
  8
レイヤ1
100
AcDbVertex
100
AcDb2dVertex
 10
156.4080424396
 20
924.0105891815
  0
VERTEX
  5
627
100
AcDbEntity
  8
レイヤ1
100
AcDbVertex
100
AcDb2dVertex
 10
154.0017648636
 20
783.4839787435
  0
VERTEX
  5
628
100
AcDbEntity
  8
レイヤ1
100
AcDbVertex
100
AcDb2dVertex
 10
153.0392538332
 20
714.1831845549
  0
VERTEX
  5
629
100
AcDbEntity
  8
レイヤ1
100
AcDbVertex
100
AcDb2dVertex
 10
140.5247961555
 20
441.2282061105
  0
VERTEX
  5
62A
100
AcDbEntity
  8
レイヤ1
100
AcDbVertex
100
AcDb2dVertex
 10
133.30777771
 20
261.3217447529
  0
VERTEX
  5
62B
100
AcDbEntity
  8
レイヤ1
100
AcDbVertex
100
AcDb2dVertex
 10
135.2327997708
 20
259.3967226921
  0
VERTEX
  5
62C
100
AcDbEntity
  8
レイヤ1
100
AcDbVertex
100
AcDb2dVertex
 10
160.2580865612
 20
251.6966344489
  0
SEQEND
  5
62D
100
AcDbEntity
  8
レイヤ1
  0
POLYLINE
  5
62E
100
AcDbEntity
  8
レイヤ1
  6
CONTINUOUS
 62
     0
100
AcDb2dPolyline
 66
     1
 10
0
 20
0
 70
     0
  0
VERTEX
  5
62F
100
AcDbEntity
  8
レイヤ1
100
AcDbVertex
100
AcDb2dVertex
 10
-121.6223784987
 20
996.6884536201
  0
VERTEX
  5
630
100
AcDbEntity
  8
レイヤ1
100
AcDbVertex
100
AcDb2dVertex
 10
-132.6632690978
 20
965.0024463263
  0
VERTEX
  5
631
100
AcDbEntity
  8
レイヤ1
100
AcDbVertex
100
AcDb2dVertex
 10
-144.4555596843
 20
908.0063751583
  0
VERTEX
  5
632
100
AcDbEntity
  8
レイヤ1
100
AcDbVertex
100
AcDb2dVertex
 10
-154.0438418485
 20
867.872001843
  0
VERTEX
  5
633
100
AcDbEntity
  8
レイヤ1
100
AcDbVertex
100
AcDb2dVertex
 10
-158.8577119063
 20
816.2948226526
  0
VERTEX
  5
634
100
AcDbEntity
  8
レイヤ1
100
AcDbVertex
100
AcDb2dVertex
 10
-162.296190519
 20
762.6545562947
  0
SEQEND
  5
635
100
AcDbEntity
  8
レイヤ1
  0
POLYLINE
  5
636
100
AcDbEntity
  8
レイヤ1
  6
CONTINUOUS
 62
     0
100
AcDb2dPolyline
 66
     1
 10
0
 20
0
 70
     0
  0
VERTEX
  5
637
100
AcDbEntity
  8
レイヤ1
100
AcDbVertex
100
AcDb2dVertex
 10
-162.296190519
 20
629.2415861223
  0
VERTEX
  5
638
100
AcDbEntity
  8
レイヤ1
100
AcDbVertex
100
AcDb2dVertex
 10
-133.4129701724
 20
814.231735485
  0
VERTEX
  5
639
100
AcDbEntity
  8
レイヤ1
100
AcDbVertex
100
AcDb2dVertex
 10
-110.0313156061
 20
916.0107024206
  0
VERTEX
  5
63A
100
AcDbEntity
  8
レイヤ1
100
AcDbVertex
100
AcDb2dVertex
 10
-77.10551760001
 20
998.0565483926
  0
SEQEND
  5
63B
100
AcDbEntity
  8
レイヤ1
  0
POLYLINE
  5
63C
100
AcDbEntity
  8
レイヤ1
  6
CONTINUOUS
 62
     0
100
AcDb2dPolyline
 66
     1
 10
0
 20
0
 70
     0
  0
VERTEX
  5
63D
100
AcDbEntity
  8
レイヤ1
100
AcDbVertex
100
AcDb2dVertex
 10
-77.10551760001
 20
998.0565483926
  0
VERTEX
  5
63E
100
AcDbEntity
  8
レイヤ1
100
AcDbVertex
100
AcDb2dVertex
 10
-99.71587976801
 20
923.5753553686
  0
VERTEX
  5
63F
100
AcDbEntity
  8
レイヤ1
100
AcDbVertex
100
AcDb2dVertex
 10
-118.9713599991
 20
807.3547782596
  0
VERTEX
  5
640
100
AcDbEntity
  8
レイヤ1
100
AcDbVertex
100
AcDb2dVertex
 10
-136.1637530625
 20
619.6138460068
  0
VERTEX
  5
641
100
AcDbEntity
  8
レイヤ1
100
AcDbVertex
100
AcDb2dVertex
 10
-157.1299257124
 20
181.1927014723
  0
SEQEND
  5
642
100
AcDbEntity
  8
レイヤ1
  0
POLYLINE
  5
643
100
AcDbEntity
  8
レイヤ1
  6
CONTINUOUS
 62
     0
100
AcDb2dPolyline
 66
     1
 10
0
 20
0
 70
     0
  0
VERTEX
  5
644
100
AcDbEntity
  8
レイヤ1
100
AcDbVertex
100
AcDb2dVertex
 10
-48.49730530216
 20
1003.624790281
  0
VERTEX
  5
645
100
AcDbEntity
  8
レイヤ1
100
AcDbVertex
100
AcDb2dVertex
 10
-65.8402891078
 20
912.9198295693
  0
VERTEX
  5
646
100
AcDbEntity
  8
レイヤ1
100
AcDbVertex
100
AcDb2dVertex
 10
-73.70181616545
 20
855.9237584014
  0
VERTEX
  5
647
100
AcDbEntity
  8
レイヤ1
100
AcDbVertex
100
AcDb2dVertex
 10
-79.59796145868
 20
756.6719792986
  0
VERTEX
  5
648
100
AcDbEntity
  8
レイヤ1
100
AcDbVertex
100
AcDb2dVertex
 10
-86.47679763412
 20
626.9567828474
  0
VERTEX
  5
649
100
AcDbEntity
  8
レイヤ1
100
AcDbVertex
100
AcDb2dVertex
 10
-103.1825426316
 20
421.5743884664
  0
VERTEX
  5
64A
100
AcDbEntity
  8
レイヤ1
100
AcDbVertex
100
AcDb2dVertex
 10
-115.9575241003
 20
278.1015196643
  0
VERTEX
  5
64B
100
AcDbEntity
  8
レイヤ1
100
AcDbVertex
100
AcDb2dVertex
 10
-123.6826674061
 20
154.0017648636
  0
SEQEND
  5
64C
100
AcDbEntity
  8
レイヤ1
  0
POLYLINE
  5
64D
100
AcDbEntity
  8
レイヤ1
  6
CONTINUOUS
 62
     0
100
AcDb2dPolyline
 66
     1
 10
0
 20
0
 70
     0
  0
VERTEX
  5
64E
100
AcDbEntity
  8
レイヤ1
100
AcDbVertex
100
AcDb2dVertex
 10
-54.38187321745
 20
143.8953990444
  0
VERTEX
  5
64F
100
AcDbEntity
  8
レイヤ1
100
AcDbVertex
100
AcDb2dVertex
 10
-44.14492814817
 20
589.936767071
  0
VERTEX
  5
650
100
AcDbEntity
  8
レイヤ1
100
AcDbVertex
100
AcDb2dVertex
 10
-32.29723667228
 20
791.9844123116
  0
VERTEX
  5
651
100
AcDbEntity
  8
レイヤ1
100
AcDbVertex
100
AcDb2dVertex
 10
-17.84970264594
 20
1013.39160871
  0
SEQEND
  5
652
100
AcDbEntity
  8
レイヤ1
  0
POLYLINE
  5
653
100
AcDbEntity
  8
レイヤ1
  6
CONTINUOUS
 62
     0
100
AcDb2dPolyline
 66
     1
 10
0
 20
0
 70
     0
  0
VERTEX
  5
654
100
AcDbEntity
  8
レイヤ1
100
AcDbVertex
100
AcDb2dVertex
 10
24.12706214767
 20
773.5577966989
  0
VERTEX
  5
655
100
AcDbEntity
  8
レイヤ1
100
AcDbVertex
100
AcDb2dVertex
 10
26.46905333593
 20
657.3950337614
  0
VERTEX
  5
656
100
AcDbEntity
  8
レイヤ1
100
AcDbVertex
100
AcDb2dVertex
 10
28.8832203466
 20
469.0084827709
  0
VERTEX
  5
657
100
AcDbEntity
  8
レイヤ1
100
AcDbVertex
100
AcDb2dVertex
 10
27.43156436633
 20
128.495222558
  0
SEQEND
  5
658
100
AcDbEntity
  8
レイヤ1
  0
POLYLINE
  5
659
100
AcDbEntity
  8
レイヤ1
  6
CONTINUOUS
 62
     0
100
AcDb2dPolyline
 66
     1
 10
0
 20
0
 70
     0
  0
VERTEX
  5
65A
100
AcDbEntity
  8
レイヤ1
100
AcDbVertex
100
AcDb2dVertex
 10
63.51888446219
 20
939.6797355533
  0
VERTEX
  5
65B
100
AcDbEntity
  8
レイヤ1
100
AcDbVertex
100
AcDb2dVertex
 10
74.5946048558
 20
863.8536497816
  0
VERTEX
  5
65C
100
AcDbEntity
  8
レイヤ1
100
AcDbVertex
100
AcDb2dVertex
 10
85.18222619017
 20
749.7960926796
  0
VERTEX
  5
65D
100
AcDbEntity
  8
レイヤ1
100
AcDbVertex
100
AcDb2dVertex
 10
100.4035754906
 20
488.263963002
  0
VERTEX
  5
65E
100
AcDbEntity
  8
レイヤ1
100
AcDbVertex
100
AcDb2dVertex
 10
118.9055967469
 20
179.8324314437
  0
VERTEX
  5
65F
100
AcDbEntity
  8
レイヤ1
100
AcDbVertex
100
AcDb2dVertex
 10
122.2389008605
 20
116.9450901933
  0
SEQEND
  5
660
100
AcDbEntity
  8
レイヤ1
  0
POLYLINE
  5
661
100
AcDbEntity
  8
レイヤ1
  6
CONTINUOUS
 62
     0
100
AcDb2dPolyline
 66
     1
 10
0
 20
0
 70
     0
  0
VERTEX
  5
662
100
AcDbEntity
  8
レイヤ1
100
AcDbVertex
100
AcDb2dVertex
 10
104.4324467981
 20
998.1239385221
  0
VERTEX
  5
663
100
AcDbEntity
  8
レイヤ1
100
AcDbVertex
100
AcDb2dVertex
 10
126.536012947
 20
956.5847500504
  0
VERTEX
  5
664
100
AcDbEntity
  8
レイヤ1
100
AcDbVertex
100
AcDb2dVertex
 10
143.0407102879
 20
907.7583537502
  0
VERTEX
  5
665
100
AcDbEntity
  8
レイヤ1
100
AcDbVertex
100
AcDb2dVertex
 10
155.4200928616
 20
866.3143338295
  0
SEQEND
  5
666
100
AcDbEntity
  8
レイヤ1
  0
POLYLINE
  5
667
100
AcDbEntity
  8
レイヤ1
  6
CONTINUOUS
 62
     0
100
AcDb2dPolyline
 66
     1
 10
0
 20
0
 70
     0
  0
VERTEX
  5
668
100
AcDbEntity
  8
レイヤ1
100
AcDbVertex
100
AcDb2dVertex
 10
187.6939585013
 20
1204.779021585
  0
VERTEX
  5
669
100
AcDbEntity
  8
レイヤ1
100
AcDbVertex
100
AcDb2dVertex
 10
173.9362861505
 20
1091.769570131
  0
VERTEX
  5
66A
100
AcDbEntity
  8
レイヤ1
100
AcDbVertex
100
AcDb2dVertex
 10
166.0747590928
 20
991.5351001458
  0
VERTEX
  5
66B
100
AcDbEntity
  8
レイヤ1
100
AcDbVertex
100
AcDb2dVertex
 10
165.0920682106
 20
893.2660119252
  0
VERTEX
  5
66C
100
AcDbEntity
  8
レイヤ1
100
AcDbVertex
100
AcDb2dVertex
 10
165.3318442031
 20
888.3677309365
  0
SEQEND
  5
66D
100
AcDbEntity
  8
レイヤ1
  0
LINE
  5
66E
100
AcDbEntity
  8
レイヤ1
  6
CONTINUOUS
 62
     0
100
AcDbLine
 10
216.5649818394
 20
639.5885796991
 11
204.42562771
 21
761.2777048427
  0
LINE
  5
66F
100
AcDbEntity
  8
レイヤ1
  6
CONTINUOUS
 62
     0
100
AcDbLine
 10
18.18648948831
 20
1261.266724699
 11
3.798484123077
 21
1242.511332191
  0
ENDSEC
  0
SECTION
  2
OBJECTS
  0
DICTIONARY
  5
670
100
AcDbDictionary
  3
ACAD_GROUP
350
671
  3
ACAD_MLINESTYLE
350
672
  0
DICTIONARY
  5
671
100
AcDbDictionary
  0
DICTIONARY
  5
672
100
AcDbDictionary
  3
STANDARD
350
673
  0
MLINESTYLE
  5
673
100
AcDbMlineStyle
  2
STANDARD
 70
     0
  3

 62
   256
 51
90
 52
90
 71
     0
  0
ENDSEC
  0
EOF
