  0
SECTION
  2
HEADER
  9
$ACADVER
  1
AC1014
  9
$DWGCODEPAGE
  3
dos932
  9
$EXTMIN
 10
-276.8387844332
 20
-40.42546327669
  9
$EXTMAX
 10
325.3360897353
 20
1780.16415072
  9
$LIMMIN
 10
0
 20
0
  9
$LIMMAX
 10
8410
 20
5940
  9
$LTSCALE
 40
10
  9
$DIMSCALE
 40
10
  9
$DIMSTYLE
  2
M7DIMSTL
  9
$HANDSEED
  5
7FFFFFFF
  0
ENDSEC
  0
SECTION
  2
CLASSES
  0
CLASS
  1
CSOFTARXCLASS
  2
CSoftArxClass
  3
CSRasterApi
 90
     0
280
     0
281
     0
  0
CLASS
  1
IMAGEDEF
  2
AcDbRasterImageDef
  3
ISM
 90
     0
280
     0
281
     0
  0
CLASS
  1
RASTERVARIABLES
  2
AcDbRasterVariables
  3
ISM
 90
     0
280
     0
281
     0
  0
CLASS
  1
IMAGE
  2
AcDbRasterImage
  3
ISM
 90
   127
280
     0
281
     0
  0
CLASS
  1
IMAGEDEF_REACTOR
  2
AcDbRasterImageDefReactor
  3
ISM
 90
     1
280
     0
281
     0
  0
CLASS
  1
HATCH
  2
AcDbHatch
  3
M7
 90
     0
280
     0
281
     1
  0
ENDSEC
  0
SECTION
  2
TABLES
  0
TABLE
  2
VPORT
  5
FF
100
AcDbSymbolTable
 70
     5
  0
VPORT
  5
100
100
AcDbSymbolTableRecord
100
AcDbViewportTableRecord
  2
*ACTIVE
 70
     0
 10
0
 20
0
 11
1
 21
1
 12
4205
 22
2970
 13
0
 23
0
 14
0
 24
0
 15
0
 25
0
 16
0
 26
0
 36
1
 17
0
 27
0
 37
0
 40
2970
 41
1.415824915825
 42
50
 43
0
 44
0
 50
0
 51
0
 71
     0
 72
   100
 73
     1
 74
     3
 75
     0
 76
     0
 77
     0
 78
     0
  0
ENDTAB
  0
TABLE
  2
LTYPE
  5
101
100
AcDbSymbolTable
 70
     1
  0
LTYPE
  5
102
100
AcDbSymbolTableRecord
100
AcDbLinetypeTableRecord
  2
BYBLOCK
 70
     0
  3

 72
    65
 73
     0
 40
0
  0
LTYPE
  5
103
100
AcDbSymbolTableRecord
100
AcDbLinetypeTableRecord
  2
BYLAYER
 70
     0
  3

 72
    65
 73
     0
 40
0
  0
LTYPE
  5
104
100
AcDbSymbolTableRecord
100
AcDbLinetypeTableRecord
  2
CONTINUOUS
 70
     0
  3
Solid line
 72
    65
 73
     0
 40
0
  0
LTYPE
  5
105
100
AcDbSymbolTableRecord
100
AcDbLinetypeTableRecord
  2
DOT
 70
     0
  3
...............................
 72
    65
 73
     2
 40
2
 49
1
 74
     0
 49
-1
 74
     0
  0
LTYPE
  5
106
100
AcDbSymbolTableRecord
100
AcDbLinetypeTableRecord
  2
DASHED
 70
     0
  3
- - - - - - - - - - - - - - - -
 72
    65
 73
     2
 40
4
 49
2
 74
     0
 49
-2
 74
     0
  0
LTYPE
  5
107
100
AcDbSymbolTableRecord
100
AcDbLinetypeTableRecord
  2
DASHED2
 70
     0
  3
-- -- -- -- -- -- -- -- -- -- -
 72
    65
 73
     2
 40
8
 49
5
 74
     0
 49
-3
 74
     0
  0
LTYPE
  5
108
100
AcDbSymbolTableRecord
100
AcDbLinetypeTableRecord
  2
CENTER
 70
     0
  3
--------- - --------- - -------
 72
    65
 73
     4
 40
23
 49
20
 74
     0
 49
-1
 74
     0
 49
1
 74
     0
 49
-1
 74
     0
  0
LTYPE
  5
109
100
AcDbSymbolTableRecord
100
AcDbLinetypeTableRecord
  2
CENTERX2
 70
     0
  3
-------------- - --------------
 72
    65
 73
     4
 40
43
 49
40
 74
     0
 49
-1
 74
     0
 49
1
 74
     0
 49
-1
 74
     0
  0
LTYPE
  5
10A
100
AcDbSymbolTableRecord
100
AcDbLinetypeTableRecord
  2
CENTER2
 70
     0
  3
------ - ----- - ------ - -----
 72
    65
 73
     4
 40
13
 49
10
 74
     0
 49
-1
 74
     0
 49
1
 74
     0
 49
-1
 74
     0
  0
LTYPE
  5
10B
100
AcDbSymbolTableRecord
100
AcDbLinetypeTableRecord
  2
PHANTOM
 70
     0
  3
-------- - - ------- - - ------
 72
    65
 73
     6
 40
25
 49
20
 74
     0
 49
-1
 74
     0
 49
1
 74
     0
 49
-1
 74
     0
 49
1
 74
     0
 49
-1
 74
     0
  0
LTYPE
  5
10C
100
AcDbSymbolTableRecord
100
AcDbLinetypeTableRecord
  2
PHANTOMX2
 70
     0
  3
------------- - - -------------
 72
    65
 73
     6
 40
45
 49
40
 74
     0
 49
-1
 74
     0
 49
1
 74
     0
 49
-1
 74
     0
 49
1
 74
     0
 49
-1
 74
     0
  0
LTYPE
  5
10D
100
AcDbSymbolTableRecord
100
AcDbLinetypeTableRecord
  2
PHANTOM2
 70
     0
  3
---- - - ---- - - ---- - - ----
 72
    65
 73
     6
 40
15
 49
10
 74
     0
 49
-1
 74
     0
 49
1
 74
     0
 49
-1
 74
     0
 49
1
 74
     0
 49
-1
 74
     0
  0
LTYPE
  5
10E
100
AcDbSymbolTableRecord
100
AcDbLinetypeTableRecord
  2
ACAD_ISO06W100
 70
     0
  3
------------ - - - ------------
 72
    65
 73
     8
 40
47
 49
40
 74
     0
 49
-1
 74
     0
 49
1
 74
     0
 49
-1
 74
     0
 49
1
 74
     0
 49
-1
 74
     0
 49
1
 74
     0
 49
-1
 74
     0
  0
LTYPE
  5
10F
100
AcDbSymbolTableRecord
100
AcDbLinetypeTableRecord
  2
ACAD_ISO14W100
 70
     0
  3
---- - - - -------- - - - -----
 72
    65
 73
     8
 40
27
 49
20
 74
     0
 49
-1
 74
     0
 49
1
 74
     0
 49
-1
 74
     0
 49
1
 74
     0
 49
-1
 74
     0
 49
1
 74
     0
 49
-1
 74
     0
  0
LTYPE
  5
110
100
AcDbSymbolTableRecord
100
AcDbLinetypeTableRecord
  2
ACAD_ISO11W100
 70
     0
  3
------- ------ - ------- ------
 72
    65
 73
     6
 40
44
 49
20
 74
     0
 49
-1
 74
     0
 49
20
 74
     0
 49
-1
 74
     0
 49
1
 74
     0
 49
-1
 74
     0
  0
LTYPE
  5
111
100
AcDbSymbolTableRecord
100
AcDbLinetypeTableRecord
  2
ACAD_ISO13W100
 70
     0
  3
------ ------ - - ------ ------
 72
    65
 73
     8
 40
46
 49
20
 74
     0
 49
-1
 74
     0
 49
20
 74
     0
 49
-1
 74
     0
 49
1
 74
     0
 49
-1
 74
     0
 49
1
 74
     0
 49
-1
 74
     0
  0
LTYPE
  5
112
100
AcDbSymbolTableRecord
100
AcDbLinetypeTableRecord
  2
ACAD_ISO15W100
 70
     0
  3
------ ----- - - - ------ -----
 72
    65
 73
    10
 40
48
 49
20
 74
     0
 49
-1
 74
     0
 49
20
 74
     0
 49
-1
 74
     0
 49
1
 74
     0
 49
-1
 74
     0
 49
1
 74
     0
 49
-1
 74
     0
 49
1
 74
     0
 49
-1
 74
     0
  0
LTYPE
  5
113
100
AcDbSymbolTableRecord
100
AcDbLinetypeTableRecord
  2
HIDDEN
 70
     0
  3
. . . . . . . . . . . . . . . .
 72
    65
 73
     2
 40
1.5
 49
1
 74
     0
 49
-0.5
 74
     0
  0
ENDTAB
  0
TABLE
  2
LAYER
  5
114
100
AcDbSymbolTable
 70
     1
  0
LAYER
  5
115
100
AcDbSymbolTableRecord
100
AcDbLayerTableRecord
  2
0
 70
     0
 62
     7
  6
CONTINUOUS
  0
LAYER
  5
116
100
AcDbSymbolTableRecord
100
AcDbLayerTableRecord
  2
レイヤ1
 70
     0
 62
     7
  6
CONTINUOUS
  0
ENDTAB
  0
TABLE
  2
STYLE
  5
117
100
AcDbSymbolTable
 70
     1
  0
STYLE
  5
118
100
AcDbSymbolTableRecord
100
AcDbTextStyleTableRecord
  2
STANDARD
 70
     0
 40
0
 41
0
 50
0
 71
     0
 42
1
  3
txt
  4
bigfont
  0
STYLE
  5
119
100
AcDbSymbolTableRecord
100
AcDbTextStyleTableRecord
  2
VSTANDARD
 70
     4
 40
0
 41
0
 50
0
 71
     0
 42
1
  3
txt
  4
bigfont
  0
ENDTAB
  0
TABLE
  2
VIEW
  5
11A
100
AcDbSymbolTable
 70
     0
  0
ENDTAB
  0
TABLE
  2
UCS
  5
11B
100
AcDbSymbolTable
 70
     0
  0
ENDTAB
  0
TABLE
  2
APPID
  5
11C
100
AcDbSymbolTable
 70
     1
  0
APPID
  5
11D
100
AcDbSymbolTableRecord
100
AcDbRegAppTableRecord
  2
ACAD
 70
     0
  0
ENDTAB
  0
TABLE
  2
DIMSTYLE
  5
11E
100
AcDbSymbolTable
 70
     1
  0
DIMSTYLE
105
11F
100
AcDbSymbolTableRecord
100
AcDbDimStyleTableRecord
  2
M7DIMSTL
 70
     0
  3

  4

  5

  6

  7

 40
10
 41
2.5
 42
0.625
 43
3.75
 44
1.25
 45
0
 46
0
 47
0
 48
0
140
2.5
141
2.5
142
0
143
0.03937007874016
144
1
145
0
146
1
147
0.625
 71
     0
 72
     0
 73
     0
 74
     0
 75
     0
 76
     0
 77
     1
 78
     8
170
     0
171
     3
172
     1
173
     0
174
     0
175
     0
176
     0
177
     0
178
     0
270
     2
271
     2
272
     2
273
     2
274
     3
340
118
275
     0
280
     0
281
     0
282
     0
283
     0
284
     8
285
     0
286
     0
287
     3
288
     0
  0
ENDTAB
  0
TABLE
  2
BLOCK_RECORD
  5
120
100
AcDbSymbolTable
 70
     2
  0
BLOCK_RECORD
  5
121
100
AcDbSymbolTableRecord
100
AcDbBlockTableRecord
  2
*MODEL_SPACE
  0
BLOCK_RECORD
  5
122
100
AcDbSymbolTableRecord
100
AcDbBlockTableRecord
  2
*PAPER_SPACE
  0
BLOCK_RECORD
  5
123
100
AcDbSymbolTableRecord
100
AcDbBlockTableRecord
  2
_DOT
  0
BLOCK_RECORD
  5
124
100
AcDbSymbolTableRecord
100
AcDbBlockTableRecord
  2
_OPEN30
  0
ENDTAB
  0
ENDSEC
  0
SECTION
  2
BLOCKS
  0
BLOCK
  5
125
100
AcDbEntity
  8
0
100
AcDbBlockBegin
  2
*MODEL_SPACE
 70
     0
 10
0
 20
0
  3
*MODEL_SPACE
  1

  0
ENDBLK
  5
126
100
AcDbEntity
  8
0
100
AcDbBlockEnd
  0
BLOCK
  5
127
100
AcDbEntity
 67
     1
  8
0
100
AcDbBlockBegin
  2
*PAPER_SPACE
 70
     0
 10
0
 20
0
  3
*PAPER_SPACE
  1

  0
ENDBLK
  5
128
100
AcDbEntity
 67
     1
  8
0
100
AcDbBlockEnd
  0
BLOCK
  5
129
100
AcDbEntity
 67
     1
  8
0
100
AcDbBlockBegin
  2
_DOT
 70
     0
 10
0
 20
0
  3
_DOT
  1

  0
LWPOLYLINE
  5
12A
100
AcDbEntity
  8
0
  6
BYBLOCK
 62
     0
100
AcDbPolyline
 90
     2
 70
     1
 43
0.5
 10
-0.25
 20
0
 42
1
 10
0.25
 20
0
 42
1
  0
LINE
  5
12B
100
AcDbEntity
  8
0
  6
BYBLOCK
 62
     0
100
AcDbLine
 10
-0.5
 20
0
 11
-1
 21
0
  0
ENDBLK
  5
12C
100
AcDbEntity
  8
0
100
AcDbBlockEnd
  0
BLOCK
  5
12D
100
AcDbEntity
 67
     1
  8
0
100
AcDbBlockBegin
  2
_OPEN30
 70
     0
 10
0
 20
0
  3
_OPEN30
  1

  0
LINE
  5
12E
100
AcDbEntity
  8
0
  6
BYBLOCK
 62
     0
100
AcDbLine
 10
-1
 20
0.26794919
 11
0
 21
0
  0
LINE
  5
12F
100
AcDbEntity
  8
0
  6
BYBLOCK
 62
     0
100
AcDbLine
 10
-1
 20
-0.26794919
 11
0
 21
0
  0
LINE
  5
130
100
AcDbEntity
  8
0
  6
BYBLOCK
 62
     0
100
AcDbLine
 10
0
 20
0
 11
-1
 21
0
  0
ENDBLK
  5
131
100
AcDbEntity
  8
0
100
AcDbBlockEnd
  0
ENDSEC
  0
SECTION
  2
ENTITIES
  0
POLYLINE
  5
132
100
AcDbEntity
  8
レイヤ1
  6
CONTINUOUS
 62
     0
100
AcDb2dPolyline
 66
     1
 10
0
 20
0
 70
     0
  0
VERTEX
  5
133
100
AcDbEntity
  8
レイヤ1
100
AcDbVertex
100
AcDb2dVertex
 10
43.23839881706
 20
1756.068606502
  0
VERTEX
  5
134
100
AcDbEntity
  8
レイヤ1
100
AcDbVertex
100
AcDb2dVertex
 10
26.95030885113
 20
1768.614018355
  0
VERTEX
  5
135
100
AcDbEntity
  8
レイヤ1
100
AcDbVertex
100
AcDb2dVertex
 10
13.47515442556
 20
1771.501551446
  0
VERTEX
  5
136
100
AcDbEntity
  8
レイヤ1
100
AcDbVertex
100
AcDb2dVertex
 10
7.21883272798
 20
1776.795362114
  0
VERTEX
  5
137
100
AcDbEntity
  8
レイヤ1
100
AcDbVertex
100
AcDb2dVertex
 10
-9.143854788775
 20
1780.16415072
  0
VERTEX
  5
138
100
AcDbEntity
  8
レイヤ1
100
AcDbVertex
100
AcDb2dVertex
 10
-19.73147612315
 20
1776.795362114
  0
VERTEX
  5
139
100
AcDbEntity
  8
レイヤ1
100
AcDbVertex
100
AcDb2dVertex
 10
-41.38797430709
 20
1749.845053262
  0
VERTEX
  5
13A
100
AcDbEntity
  8
レイヤ1
100
AcDbVertex
100
AcDb2dVertex
 10
-72.669582795
 20
1711.344612047
  0
VERTEX
  5
13B
100
AcDbEntity
  8
レイヤ1
100
AcDbVertex
100
AcDb2dVertex
 10
-75.55711588619
 20
1698.350713136
  0
VERTEX
  5
13C
100
AcDbEntity
  8
レイヤ1
100
AcDbVertex
100
AcDb2dVertex
 10
-93.84482546374
 20
1667.069104648
  0
VERTEX
  5
13D
100
AcDbEntity
  8
レイヤ1
100
AcDbVertex
100
AcDb2dVertex
 10
-102.9886802525
 20
1640.600051312
  0
VERTEX
  5
13E
100
AcDbEntity
  8
レイヤ1
100
AcDbVertex
100
AcDb2dVertex
 10
-104.4324467981
 20
1626.643641372
  0
VERTEX
  5
13F
100
AcDbEntity
  8
レイヤ1
100
AcDbVertex
100
AcDb2dVertex
 10
-102.5074247373
 20
1598.73082149
  0
VERTEX
  5
140
100
AcDbEntity
  8
レイヤ1
100
AcDbVertex
100
AcDb2dVertex
 10
-95.76984752454
 20
1559.267869244
  0
VERTEX
  5
141
100
AcDbEntity
  8
レイヤ1
100
AcDbVertex
100
AcDb2dVertex
 10
-90.95729237255
 20
1553.011547546
  0
VERTEX
  5
142
100
AcDbEntity
  8
レイヤ1
100
AcDbVertex
100
AcDb2dVertex
 10
-89.03227031176
 20
1519.323661482
  0
VERTEX
  5
143
100
AcDbEntity
  8
レイヤ1
100
AcDbVertex
100
AcDb2dVertex
 10
-83.25720412937
 20
1505.367251541
  0
VERTEX
  5
144
100
AcDbEntity
  8
レイヤ1
100
AcDbVertex
100
AcDb2dVertex
 10
-86.14473722057
 20
1518.842405967
  0
VERTEX
  5
145
100
AcDbEntity
  8
レイヤ1
100
AcDbVertex
100
AcDb2dVertex
 10
-84.70097067497
 20
1547.236481364
  0
VERTEX
  5
146
100
AcDbEntity
  8
レイヤ1
100
AcDbVertex
100
AcDb2dVertex
 10
-82.77594861417
 20
1514.029850815
  0
VERTEX
  5
147
100
AcDbEntity
  8
レイヤ1
100
AcDbVertex
100
AcDb2dVertex
 10
-76.51962691659
 20
1497.185907783
  0
VERTEX
  5
148
100
AcDbEntity
  8
レイヤ1
100
AcDbVertex
100
AcDb2dVertex
 10
-79.40716000778
 20
1510.179806693
  0
VERTEX
  5
149
100
AcDbEntity
  8
レイヤ1
100
AcDbVertex
100
AcDb2dVertex
 10
-79.40716000778
 20
1540.017648636
  0
VERTEX
  5
14A
100
AcDbEntity
  8
レイヤ1
100
AcDbVertex
100
AcDb2dVertex
 10
-77.48213794699
 20
1530.873793847
  0
VERTEX
  5
14B
100
AcDbEntity
  8
レイヤ1
100
AcDbVertex
100
AcDb2dVertex
 10
-74.5946048558
 20
1496.223396753
  0
VERTEX
  5
14C
100
AcDbEntity
  8
レイヤ1
100
AcDbVertex
100
AcDb2dVertex
 10
-67.37577212782
 20
1481.785731297
  0
VERTEX
  5
14D
100
AcDbEntity
  8
レイヤ1
100
AcDbVertex
100
AcDb2dVertex
 10
-71.22581624941
 20
1496.704652268
  0
VERTEX
  5
14E
100
AcDbEntity
  8
レイヤ1
100
AcDbVertex
100
AcDb2dVertex
 10
-69.78204970381
 20
1515.473617361
  0
VERTEX
  5
14F
100
AcDbEntity
  8
レイヤ1
100
AcDbVertex
100
AcDb2dVertex
 10
-66.41326109742
 20
1523.654961119
  0
VERTEX
  5
150
100
AcDbEntity
  8
レイヤ1
100
AcDbVertex
100
AcDb2dVertex
 10
-68.81953867341
 20
1501.998462935
  0
VERTEX
  5
151
100
AcDbEntity
  8
レイヤ1
100
AcDbVertex
100
AcDb2dVertex
 10
-67.37577212782
 20
1492.373352631
  0
VERTEX
  5
152
100
AcDbEntity
  8
レイヤ1
100
AcDbVertex
100
AcDb2dVertex
 10
-61.11945043023
 20
1482.266986812
  0
VERTEX
  5
153
100
AcDbEntity
  8
レイヤ1
100
AcDbVertex
100
AcDb2dVertex
 10
-51.97559564146
 20
1479.860709236
  0
VERTEX
  5
154
100
AcDbEntity
  8
レイヤ1
100
AcDbVertex
100
AcDb2dVertex
 10
-60.15693939984
 20
1485.154519903
  0
VERTEX
  5
155
100
AcDbEntity
  8
レイヤ1
100
AcDbVertex
100
AcDb2dVertex
 10
-61.60070594543
 20
1492.373352631
  0
VERTEX
  5
156
100
AcDbEntity
  8
レイヤ1
100
AcDbVertex
100
AcDb2dVertex
 10
-58.23191733904
 20
1501.998462935
  0
VERTEX
  5
157
100
AcDbEntity
  8
レイヤ1
100
AcDbVertex
100
AcDb2dVertex
 10
-48.12555151987
 20
1514.029850815
  0
SEQEND
  5
158
100
AcDbEntity
  8
レイヤ1
  0
POLYLINE
  5
159
100
AcDbEntity
  8
レイヤ1
  6
CONTINUOUS
 62
     0
100
AcDb2dPolyline
 66
     1
 10
0
 20
0
 70
     0
  0
VERTEX
  5
15A
100
AcDbEntity
  8
レイヤ1
100
AcDbVertex
100
AcDb2dVertex
 10
43.23839881706
 20
1756.068606502
  0
VERTEX
  5
15B
100
AcDbEntity
  8
レイヤ1
100
AcDbVertex
100
AcDb2dVertex
 10
54.38187321745
 20
1759.470163566
  0
VERTEX
  5
15C
100
AcDbEntity
  8
レイヤ1
100
AcDbVertex
100
AcDb2dVertex
 10
70.26330521901
 20
1758.507652536
  0
VERTEX
  5
15D
100
AcDbEntity
  8
レイヤ1
100
AcDbVertex
100
AcDb2dVertex
 10
81.33218206858
 20
1752.251330838
  0
VERTEX
  5
15E
100
AcDbEntity
  8
レイヤ1
100
AcDbVertex
100
AcDb2dVertex
 10
91.91980340295
 20
1742.144965019
  0
VERTEX
  5
15F
100
AcDbEntity
  8
レイヤ1
100
AcDbVertex
100
AcDb2dVertex
 10
120.7951343149
 20
1724.819766472
  0
VERTEX
  5
160
100
AcDbEntity
  8
レイヤ1
100
AcDbVertex
100
AcDb2dVertex
 10
129.4577335884
 20
1714.232145138
  0
VERTEX
  5
161
100
AcDbEntity
  8
レイヤ1
100
AcDbVertex
100
AcDb2dVertex
 10
136.1953108012
 20
1705.088290349
  0
VERTEX
  5
162
100
AcDbEntity
  8
レイヤ1
100
AcDbVertex
100
AcDb2dVertex
 10
124.1639229213
 20
1718.082189259
  0
VERTEX
  5
163
100
AcDbEntity
  8
レイヤ1
100
AcDbVertex
100
AcDb2dVertex
 10
114.5388126173
 20
1724.338510957
  0
VERTEX
  5
164
100
AcDbEntity
  8
レイヤ1
100
AcDbVertex
100
AcDb2dVertex
 10
133.30777771
 20
1700.756990712
  0
VERTEX
  5
165
100
AcDbEntity
  8
レイヤ1
100
AcDbVertex
100
AcDb2dVertex
 10
137.1578218316
 20
1687.281836287
  0
VERTEX
  5
166
100
AcDbEntity
  8
レイヤ1
100
AcDbVertex
100
AcDb2dVertex
 10
136.1953108012
 20
1682.469281135
  0
VERTEX
  5
167
100
AcDbEntity
  8
レイヤ1
100
AcDbVertex
100
AcDb2dVertex
 10
140.526610438
 20
1671.8816598
  0
VERTEX
  5
168
100
AcDbEntity
  8
レイヤ1
100
AcDbVertex
100
AcDb2dVertex
 10
140.0453549228
 20
1655.518972283
  0
VERTEX
  5
169
100
AcDbEntity
  8
レイヤ1
100
AcDbVertex
100
AcDb2dVertex
 10
134.7515442556
 20
1643.968839919
  0
VERTEX
  5
16A
100
AcDbEntity
  8
レイヤ1
100
AcDbVertex
100
AcDb2dVertex
 10
131.8640111644
 20
1631.456196524
  0
VERTEX
  5
16B
100
AcDbEntity
  8
レイヤ1
100
AcDbVertex
100
AcDb2dVertex
 10
133.30777771
 20
1618.462297613
  0
VERTEX
  5
16C
100
AcDbEntity
  8
レイヤ1
100
AcDbVertex
100
AcDb2dVertex
 10
133.30777771
 20
1600.174588036
  0
VERTEX
  5
16D
100
AcDbEntity
  8
レイヤ1
100
AcDbVertex
100
AcDb2dVertex
 10
128.9764780732
 20
1592.955755308
  0
VERTEX
  5
16E
100
AcDbEntity
  8
レイヤ1
100
AcDbVertex
100
AcDb2dVertex
 10
119.3513677693
 20
1548.198992394
  0
VERTEX
  5
16F
100
AcDbEntity
  8
レイヤ1
100
AcDbVertex
100
AcDb2dVertex
 10
110.6887684957
 20
1528.948771786
  0
VERTEX
  5
170
100
AcDbEntity
  8
レイヤ1
100
AcDbVertex
100
AcDb2dVertex
 10
97.21361407014
 20
1514.029850815
  0
VERTEX
  5
171
100
AcDbEntity
  8
レイヤ1
100
AcDbVertex
100
AcDb2dVertex
 10
105.8762133437
 20
1531.836304877
  0
VERTEX
  5
172
100
AcDbEntity
  8
レイヤ1
100
AcDbVertex
100
AcDb2dVertex
 10
110.2075129805
 20
1548.680247909
  0
VERTEX
  5
173
100
AcDbEntity
  8
レイヤ1
100
AcDbVertex
100
AcDb2dVertex
 10
109.7262574653
 20
1555.417825122
  0
VERTEX
  5
174
100
AcDbEntity
  8
レイヤ1
100
AcDbVertex
100
AcDb2dVertex
 10
106.8387243741
 20
1553.011547546
  0
VERTEX
  5
175
100
AcDbEntity
  8
レイヤ1
100
AcDbVertex
100
AcDb2dVertex
 10
100.5824026765
 20
1534.242582453
  0
VERTEX
  5
176
100
AcDbEntity
  8
レイヤ1
100
AcDbVertex
100
AcDb2dVertex
 10
93.36356994855
 20
1517.398639421
  0
VERTEX
  5
177
100
AcDbEntity
  8
レイヤ1
100
AcDbVertex
100
AcDb2dVertex
 10
93.84482546374
 20
1524.617472149
  0
VERTEX
  5
178
100
AcDbEntity
  8
レイヤ1
100
AcDbVertex
100
AcDb2dVertex
 10
90.95729237255
 20
1516.436128391
  0
VERTEX
  5
179
100
AcDbEntity
  8
レイヤ1
100
AcDbVertex
100
AcDb2dVertex
 10
92.88231443335
 20
1495.260885722
  0
VERTEX
  5
17A
100
AcDbEntity
  8
レイヤ1
100
AcDbVertex
100
AcDb2dVertex
 10
91.91980340295
 20
1476.973176145
  0
VERTEX
  5
17B
100
AcDbEntity
  8
レイヤ1
100
AcDbVertex
100
AcDb2dVertex
 10
82.29469309898
 20
1491.892097116
  0
VERTEX
  5
17C
100
AcDbEntity
  8
レイヤ1
100
AcDbVertex
100
AcDb2dVertex
 10
83.25720412937
 20
1514.992361845
  0
SEQEND
  5
17D
100
AcDbEntity
  8
レイヤ1
  0
POLYLINE
  5
17E
100
AcDbEntity
  8
レイヤ1
  6
CONTINUOUS
 62
     0
100
AcDb2dPolyline
 66
     1
 10
0
 20
0
 70
     0
  0
VERTEX
  5
17F
100
AcDbEntity
  8
レイヤ1
100
AcDbVertex
100
AcDb2dVertex
 10
-48.12555151987
 20
1514.029850815
  0
VERTEX
  5
180
100
AcDbEntity
  8
レイヤ1
100
AcDbVertex
100
AcDb2dVertex
 10
-44.27550739828
 20
1492.854608146
  0
VERTEX
  5
181
100
AcDbEntity
  8
レイヤ1
100
AcDbVertex
100
AcDb2dVertex
 10
-43.36629658313
 20
1482.703107633
  0
VERTEX
  5
182
100
AcDbEntity
  8
レイヤ1
100
AcDbVertex
100
AcDb2dVertex
 10
-4.478041494997
 20
1444.993284517
  0
VERTEX
  5
183
100
AcDbEntity
  8
レイヤ1
100
AcDbVertex
100
AcDb2dVertex
 10
19.79765713578
 20
1419.539153914
  0
VERTEX
  5
184
100
AcDbEntity
  8
レイヤ1
100
AcDbVertex
100
AcDb2dVertex
 10
32.76040883182
 20
1435.330142344
  0
VERTEX
  5
185
100
AcDbEntity
  8
レイヤ1
100
AcDbVertex
100
AcDb2dVertex
 10
63.16395371891
 20
1466.912119203
  0
VERTEX
  5
186
100
AcDbEntity
  8
レイヤ1
100
AcDbVertex
100
AcDb2dVertex
 10
82.29469309898
 20
1491.892097116
  0
SEQEND
  5
187
100
AcDbEntity
  8
レイヤ1
  0
POLYLINE
  5
188
100
AcDbEntity
  8
レイヤ1
  6
CONTINUOUS
 62
     0
100
AcDb2dPolyline
 66
     1
 10
0
 20
0
 70
     0
  0
VERTEX
  5
189
100
AcDbEntity
  8
レイヤ1
100
AcDbVertex
100
AcDb2dVertex
 10
63.16395371891
 20
1466.912119203
  0
VERTEX
  5
18A
100
AcDbEntity
  8
レイヤ1
100
AcDbVertex
100
AcDb2dVertex
 10
32.9960952263
 20
1422.131704253
  0
VERTEX
  5
18B
100
AcDbEntity
  8
レイヤ1
100
AcDbVertex
100
AcDb2dVertex
 10
14.61255645736
 20
1383.007762771
  0
VERTEX
  5
18C
100
AcDbEntity
  8
レイヤ1
100
AcDbVertex
100
AcDb2dVertex
 10
-16.26236121867
 20
1437.2156335
  0
VERTEX
  5
18D
100
AcDbEntity
  8
レイヤ1
100
AcDbVertex
100
AcDb2dVertex
 10
-44.30904216103
 20
1477.28232056
  0
VERTEX
  5
18E
100
AcDbEntity
  8
レイヤ1
100
AcDbVertex
100
AcDb2dVertex
 10
-43.36629658313
 20
1482.703107633
  0
SEQEND
  5
18F
100
AcDbEntity
  8
レイヤ1
  0
LINE
  5
190
100
AcDbEntity
  8
レイヤ1
  6
CONTINUOUS
 62
     0
100
AcDbLine
 10
19.79765713578
 20
1419.539153914
 11
5.780809783324
 21
1398.513882886
  0
POLYLINE
  5
191
100
AcDbEntity
  8
レイヤ1
  6
CONTINUOUS
 62
     0
100
AcDb2dPolyline
 66
     1
 10
0
 20
0
 70
     0
  0
VERTEX
  5
192
100
AcDbEntity
  8
レイヤ1
100
AcDbVertex
100
AcDb2dVertex
 10
-48.12555151987
 20
1514.029850815
  0
VERTEX
  5
193
100
AcDbEntity
  8
レイヤ1
100
AcDbVertex
100
AcDb2dVertex
 10
-53.88589478018
 20
1523.960461752
  0
VERTEX
  5
194
100
AcDbEntity
  8
レイヤ1
100
AcDbVertex
100
AcDb2dVertex
 10
-58.93769741582
 20
1535.748001235
  0
VERTEX
  5
195
100
AcDbEntity
  8
レイヤ1
100
AcDbVertex
100
AcDb2dVertex
 10
-61.96877899721
 20
1556.29199862
  0
VERTEX
  5
196
100
AcDbEntity
  8
レイヤ1
100
AcDbVertex
100
AcDb2dVertex
 10
-70.72523689899
 20
1556.965572305
  0
VERTEX
  5
197
100
AcDbEntity
  8
レイヤ1
100
AcDbVertex
100
AcDb2dVertex
 10
-78.80812111602
 20
1559.659867044
  0
VERTEX
  5
198
100
AcDbEntity
  8
レイヤ1
100
AcDbVertex
100
AcDb2dVertex
 10
-80.15526848552
 20
1562.690948625
  0
SEQEND
  5
199
100
AcDbEntity
  8
レイヤ1
  0
POLYLINE
  5
19A
100
AcDbEntity
  8
レイヤ1
  6
CONTINUOUS
 62
     0
100
AcDb2dPolyline
 66
     1
 10
0
 20
0
 70
     0
  0
VERTEX
  5
19B
100
AcDbEntity
  8
レイヤ1
100
AcDbVertex
100
AcDb2dVertex
 10
-75.10346584988
 20
1564.71166968
  0
VERTEX
  5
19C
100
AcDbEntity
  8
レイヤ1
100
AcDbVertex
100
AcDb2dVertex
 10
-70.72523689899
 20
1562.017374941
  0
VERTEX
  5
19D
100
AcDbEntity
  8
レイヤ1
100
AcDbVertex
100
AcDb2dVertex
 10
-62.97913952434
 20
1560.670227571
  0
VERTEX
  5
19E
100
AcDbEntity
  8
レイヤ1
100
AcDbVertex
100
AcDb2dVertex
 10
-67.6941553176
 20
1586.602814434
  0
VERTEX
  5
19F
100
AcDbEntity
  8
レイヤ1
100
AcDbVertex
100
AcDb2dVertex
 10
-68.03094215998
 20
1605.799664449
  0
VERTEX
  5
1A0
100
AcDbEntity
  8
レイヤ1
100
AcDbVertex
100
AcDb2dVertex
 10
-64.66307373622
 20
1624.659727622
  0
VERTEX
  5
1A1
100
AcDbEntity
  8
レイヤ1
100
AcDbVertex
100
AcDb2dVertex
 10
-54.22268162256
 20
1644.530151323
  0
VERTEX
  5
1A2
100
AcDbEntity
  8
レイヤ1
100
AcDbVertex
100
AcDb2dVertex
 10
-37.04655266138
 20
1660.359132914
  0
VERTEX
  5
1A3
100
AcDbEntity
  8
レイヤ1
100
AcDbVertex
100
AcDb2dVertex
 10
-28.62688160197
 20
1663.390214496
  0
VERTEX
  5
1A4
100
AcDbEntity
  8
レイヤ1
100
AcDbVertex
100
AcDb2dVertex
 10
-35.02583160712
 20
1650.929101328
  0
VERTEX
  5
1A5
100
AcDbEntity
  8
レイヤ1
100
AcDbVertex
100
AcDb2dVertex
 10
-45.1294368784
 20
1637.457627633
  0
VERTEX
  5
1A6
100
AcDbEntity
  8
レイヤ1
100
AcDbVertex
100
AcDb2dVertex
 10
-27.27973423247
 20
1645.203725007
  0
VERTEX
  5
1A7
100
AcDbEntity
  8
レイヤ1
100
AcDbVertex
100
AcDb2dVertex
 10
-11.78753948316
 20
1662.716640811
  0
VERTEX
  5
1A8
100
AcDbEntity
  8
レイヤ1
100
AcDbVertex
100
AcDb2dVertex
 10
0
 20
1671.473098713
  0
VERTEX
  5
1A9
100
AcDbEntity
  8
レイヤ1
100
AcDbVertex
100
AcDb2dVertex
 10
11.78753948316
 20
1682.923851354
  0
VERTEX
  5
1AA
100
AcDbEntity
  8
レイヤ1
100
AcDbVertex
100
AcDb2dVertex
 10
17.84970264594
 20
1697.742472418
  0
VERTEX
  5
1AB
100
AcDbEntity
  8
レイヤ1
100
AcDbVertex
100
AcDb2dVertex
 10
20.88078422732
 20
1686.62850662
  0
VERTEX
  5
1AC
100
AcDbEntity
  8
レイヤ1
100
AcDbVertex
100
AcDb2dVertex
 10
15.4921947493
 20
1669.115590816
  0
VERTEX
  5
1AD
100
AcDbEntity
  8
レイヤ1
100
AcDbVertex
100
AcDb2dVertex
 10
2.694294739009
 20
1651.602675013
  0
VERTEX
  5
1AE
100
AcDbEntity
  8
レイヤ1
100
AcDbVertex
100
AcDb2dVertex
 10
-11.11396579841
 20
1639.141561845
  0
VERTEX
  5
1AF
100
AcDbEntity
  8
レイヤ1
100
AcDbVertex
100
AcDb2dVertex
 10
23.23829212395
 20
1643.519790796
  0
VERTEX
  5
1B0
100
AcDbEntity
  8
レイヤ1
100
AcDbVertex
100
AcDb2dVertex
 10
40.07763424276
 20
1650.592314485
  0
VERTEX
  5
1B1
100
AcDbEntity
  8
レイヤ1
100
AcDbVertex
100
AcDb2dVertex
 10
48.16051845979
 20
1661.706280284
  0
VERTEX
  5
1B2
100
AcDbEntity
  8
レイヤ1
100
AcDbVertex
100
AcDb2dVertex
 10
51.52838688355
 20
1675.851327664
  0
VERTEX
  5
1B3
100
AcDbEntity
  8
レイヤ1
100
AcDbVertex
100
AcDb2dVertex
 10
52.53874741068
 20
1690.669948728
  0
VERTEX
  5
1B4
100
AcDbEntity
  8
レイヤ1
100
AcDbVertex
100
AcDb2dVertex
 10
58.26412373107
 20
1675.514540821
  0
VERTEX
  5
1B5
100
AcDbEntity
  8
レイヤ1
100
AcDbVertex
100
AcDb2dVertex
 10
58.60091057345
 20
1663.053427653
  0
VERTEX
  5
1B6
100
AcDbEntity
  8
レイヤ1
100
AcDbVertex
100
AcDb2dVertex
 10
53.88589478018
 20
1654.633756594
  0
VERTEX
  5
1B7
100
AcDbEntity
  8
レイヤ1
100
AcDbVertex
100
AcDb2dVertex
 10
59.2744842582
 20
1660.359132914
  0
VERTEX
  5
1B8
100
AcDbEntity
  8
レイヤ1
100
AcDbVertex
100
AcDb2dVertex
 10
62.97913952434
 20
1674.840967137
  0
VERTEX
  5
1B9
100
AcDbEntity
  8
レイヤ1
100
AcDbVertex
100
AcDb2dVertex
 10
64.99986057859
 20
1660.359132914
  0
VERTEX
  5
1BA
100
AcDbEntity
  8
レイヤ1
100
AcDbVertex
100
AcDb2dVertex
 10
64.32628689384
 20
1651.602675013
  0
VERTEX
  5
1BB
100
AcDbEntity
  8
レイヤ1
100
AcDbVertex
100
AcDb2dVertex
 10
61.63199215483
 20
1642.509430268
  0
VERTEX
  5
1BC
100
AcDbEntity
  8
レイヤ1
100
AcDbVertex
100
AcDb2dVertex
 10
71.39881058374
 20
1647.224446062
  0
VERTEX
  5
1BD
100
AcDbEntity
  8
レイヤ1
100
AcDbVertex
100
AcDb2dVertex
 10
76.11382637701
 20
1657.328051333
  0
VERTEX
  5
1BE
100
AcDbEntity
  8
レイヤ1
100
AcDbVertex
100
AcDb2dVertex
 10
76.45061321938
 20
1665.074148708
  0
VERTEX
  5
1BF
100
AcDbEntity
  8
レイヤ1
100
AcDbVertex
100
AcDb2dVertex
 10
80.15526848552
 20
1649.581953958
  0
VERTEX
  5
1C0
100
AcDbEntity
  8
レイヤ1
100
AcDbVertex
100
AcDb2dVertex
 10
78.80812111602
 20
1640.825496057
  0
VERTEX
  5
1C1
100
AcDbEntity
  8
レイヤ1
100
AcDbVertex
100
AcDb2dVertex
 10
75.77703953463
 20
1636.447267106
  0
VERTEX
  5
1C2
100
AcDbEntity
  8
レイヤ1
100
AcDbVertex
100
AcDb2dVertex
 10
86.21743164829
 20
1638.804775002
  0
VERTEX
  5
1C3
100
AcDbEntity
  8
レイヤ1
100
AcDbVertex
100
AcDb2dVertex
 10
94.97388955007
 20
1649.245167116
  0
VERTEX
  5
1C4
100
AcDbEntity
  8
レイヤ1
100
AcDbVertex
100
AcDb2dVertex
 10
95.31067639245
 20
1659.68555923
  0
VERTEX
  5
1C5
100
AcDbEntity
  8
レイヤ1
100
AcDbVertex
100
AcDb2dVertex
 10
98.34175797383
 20
1623.312580253
  0
VERTEX
  5
1C6
100
AcDbEntity
  8
レイヤ1
100
AcDbVertex
100
AcDb2dVertex
 10
98.34175797383
 20
1617.923990775
  0
VERTEX
  5
1C7
100
AcDbEntity
  8
レイヤ1
100
AcDbVertex
100
AcDb2dVertex
 10
102.04641324
 20
1604.115730238
  0
VERTEX
  5
1C8
100
AcDbEntity
  8
レイヤ1
100
AcDbVertex
100
AcDb2dVertex
 10
102.3832000823
 20
1586.266027592
  0
VERTEX
  5
1C9
100
AcDbEntity
  8
レイヤ1
100
AcDbVertex
100
AcDb2dVertex
 10
98.67854481621
 20
1560.333440729
  0
VERTEX
  5
1CA
100
AcDbEntity
  8
レイヤ1
100
AcDbVertex
100
AcDb2dVertex
 10
106.7614290332
 20
1563.36452231
  0
VERTEX
  5
1CB
100
AcDbEntity
  8
レイヤ1
100
AcDbVertex
100
AcDb2dVertex
 10
111.8132316689
 20
1568.753111788
  0
SEQEND
  5
1CC
100
AcDbEntity
  8
レイヤ1
  0
POLYLINE
  5
1CD
100
AcDbEntity
  8
レイヤ1
  6
CONTINUOUS
 62
     0
100
AcDb2dPolyline
 66
     1
 10
0
 20
0
 70
     0
  0
VERTEX
  5
1CE
100
AcDbEntity
  8
レイヤ1
100
AcDbVertex
100
AcDb2dVertex
 10
106.8387243741
 20
1553.011547546
  0
VERTEX
  5
1CF
100
AcDbEntity
  8
レイヤ1
100
AcDbVertex
100
AcDb2dVertex
 10
97.66818428908
 20
1552.924130196
  0
VERTEX
  5
1D0
100
AcDbEntity
  8
レイヤ1
100
AcDbVertex
100
AcDb2dVertex
 10
96.65782376195
 20
1542.820524925
  0
VERTEX
  5
1D1
100
AcDbEntity
  8
レイヤ1
100
AcDbVertex
100
AcDb2dVertex
 10
90.97494826679
 20
1527.247836189
  0
VERTEX
  5
1D2
100
AcDbEntity
  8
レイヤ1
100
AcDbVertex
100
AcDb2dVertex
 10
83.25720412937
 20
1514.992361845
  0
VERTEX
  5
1D3
100
AcDbEntity
  8
レイヤ1
100
AcDbVertex
100
AcDb2dVertex
 10
69.99885915864
 20
1503.207823952
  0
VERTEX
  5
1D4
100
AcDbEntity
  8
レイヤ1
100
AcDbVertex
100
AcDb2dVertex
 10
55.38630270128
 20
1494.723113751
  0
VERTEX
  5
1D5
100
AcDbEntity
  8
レイヤ1
100
AcDbVertex
100
AcDb2dVertex
 10
34.41021359314
 20
1486.002717156
  0
VERTEX
  5
1D6
100
AcDbEntity
  8
レイヤ1
100
AcDbVertex
100
AcDb2dVertex
 10
24.27569863078
 20
1483.881539605
  0
VERTEX
  5
1D7
100
AcDbEntity
  8
レイヤ1
100
AcDbVertex
100
AcDb2dVertex
 10
12.72706530157
 20
1483.881539605
  0
VERTEX
  5
1D8
100
AcDbEntity
  8
レイヤ1
100
AcDbVertex
100
AcDb2dVertex
 10
-0.7070591834206
 20
1486.23840355
  0
VERTEX
  5
1D9
100
AcDbEntity
  8
レイヤ1
100
AcDbVertex
100
AcDb2dVertex
 10
-19.79765713578
 20
1494.958800146
  0
VERTEX
  5
1DA
100
AcDbEntity
  8
レイヤ1
100
AcDbVertex
100
AcDb2dVertex
 10
-33.23178162077
 20
1503.207823952
  0
VERTEX
  5
1DB
100
AcDbEntity
  8
レイヤ1
100
AcDbVertex
100
AcDb2dVertex
 10
-48.12555151987
 20
1514.029850815
  0
SEQEND
  5
1DC
100
AcDbEntity
  8
レイヤ1
  0
POLYLINE
  5
1DD
100
AcDbEntity
  8
レイヤ1
  6
CONTINUOUS
 62
     0
100
AcDb2dPolyline
 66
     1
 10
0
 20
0
 70
     0
  0
VERTEX
  5
1DE
100
AcDbEntity
  8
レイヤ1
100
AcDbVertex
100
AcDb2dVertex
 10
-80.15526848552
 20
1562.690948625
  0
VERTEX
  5
1DF
100
AcDbEntity
  8
レイヤ1
100
AcDbVertex
100
AcDb2dVertex
 10
-81.78317888232
 20
1570.614132772
  0
VERTEX
  5
1E0
100
AcDbEntity
  8
レイヤ1
100
AcDbVertex
100
AcDb2dVertex
 10
-75.10346584988
 20
1564.71166968
  0
SEQEND
  5
1E1
100
AcDbEntity
  8
レイヤ1
  0
POLYLINE
  5
1E2
100
AcDbEntity
  8
レイヤ1
  6
CONTINUOUS
 62
     0
100
AcDb2dPolyline
 66
     1
 10
0
 20
0
 70
     0
  0
VERTEX
  5
1E3
100
AcDbEntity
  8
レイヤ1
100
AcDbVertex
100
AcDb2dVertex
 10
109.7262574653
 20
1555.417825122
  0
VERTEX
  5
1E4
100
AcDbEntity
  8
レイヤ1
100
AcDbVertex
100
AcDb2dVertex
 10
111.7153509805
 20
1560.00824502
  0
VERTEX
  5
1E5
100
AcDbEntity
  8
レイヤ1
100
AcDbVertex
100
AcDb2dVertex
 10
111.8132316689
 20
1568.753111788
  0
SEQEND
  5
1E6
100
AcDbEntity
  8
レイヤ1
  0
POLYLINE
  5
1E7
100
AcDbEntity
  8
レイヤ1
  6
CONTINUOUS
 62
     0
100
AcDb2dPolyline
 66
     1
 10
0
 20
0
 70
     0
  0
VERTEX
  5
1E8
100
AcDbEntity
  8
レイヤ1
100
AcDbVertex
100
AcDb2dVertex
 10
-43.82090199071
 20
1487.77885789
  0
VERTEX
  5
1E9
100
AcDbEntity
  8
レイヤ1
100
AcDbVertex
100
AcDb2dVertex
 10
-47.17152777804
 20
1482.934287596
  0
VERTEX
  5
1EA
100
AcDbEntity
  8
レイヤ1
100
AcDbVertex
100
AcDb2dVertex
 10
-47.00659236623
 20
1473.697904534
  0
VERTEX
  5
1EB
100
AcDbEntity
  8
レイヤ1
100
AcDbVertex
100
AcDb2dVertex
 10
-50.14036519064
 20
1462.812167355
  0
VERTEX
  5
1EC
100
AcDbEntity
  8
レイヤ1
100
AcDbVertex
100
AcDb2dVertex
 10
-57.27179385707
 20
1458.427409002
  0
VERTEX
  5
1ED
100
AcDbEntity
  8
レイヤ1
100
AcDbVertex
100
AcDb2dVertex
 10
-63.39964011338
 20
1450.885444379
  0
VERTEX
  5
1EE
100
AcDbEntity
  8
レイヤ1
100
AcDbVertex
100
AcDb2dVertex
 10
-72.82709589233
 20
1433.680337583
  0
VERTEX
  5
1EF
100
AcDbEntity
  8
レイヤ1
100
AcDbVertex
100
AcDb2dVertex
 10
-79.89768772653
 20
1428.730923299
  0
VERTEX
  5
1F0
100
AcDbEntity
  8
レイヤ1
100
AcDbVertex
100
AcDb2dVertex
 10
-98.51691288994
 20
1428.495236904
  0
VERTEX
  5
1F1
100
AcDbEntity
  8
レイヤ1
100
AcDbVertex
100
AcDb2dVertex
 10
-162.1522393978
 20
1394.320709706
  0
VERTEX
  5
1F2
100
AcDbEntity
  8
レイヤ1
100
AcDbVertex
100
AcDb2dVertex
 10
-169.9298904154
 20
1392.670904944
  0
VERTEX
  5
1F3
100
AcDbEntity
  8
レイヤ1
100
AcDbVertex
100
AcDb2dVertex
 10
-199.6263761191
 20
1372.637561414
  0
VERTEX
  5
1F4
100
AcDbEntity
  8
レイヤ1
100
AcDbVertex
100
AcDb2dVertex
 10
-206.4612815588
 20
1371.223443047
  0
VERTEX
  5
1F5
100
AcDbEntity
  8
レイヤ1
100
AcDbVertex
100
AcDb2dVertex
 10
-219.5850212292
 20
1359.945269515
  0
VERTEX
  5
1F6
100
AcDbEntity
  8
レイヤ1
100
AcDbVertex
100
AcDb2dVertex
 10
-238.1082975599
 20
1323.909077381
  0
VERTEX
  5
1F7
100
AcDbEntity
  8
レイヤ1
100
AcDbVertex
100
AcDb2dVertex
 10
-246.191181777
 20
1304.03865368
  0
VERTEX
  5
1F8
100
AcDbEntity
  8
レイヤ1
100
AcDbVertex
100
AcDb2dVertex
 10
-247.8751159888
 20
1298.31327736
  0
VERTEX
  5
1F9
100
AcDbEntity
  8
レイヤ1
100
AcDbVertex
100
AcDb2dVertex
 10
-247.5383291465
 20
1244.764169422
  0
VERTEX
  5
1FA
100
AcDbEntity
  8
レイヤ1
100
AcDbVertex
100
AcDb2dVertex
 10
-273.4709160094
 20
1112.743727211
  0
VERTEX
  5
1FB
100
AcDbEntity
  8
レイヤ1
100
AcDbVertex
100
AcDb2dVertex
 10
-276.8387844332
 20
1049.091014002
  0
VERTEX
  5
1FC
100
AcDbEntity
  8
レイヤ1
100
AcDbVertex
100
AcDb2dVertex
 10
-266.3983923195
 20
990.8268902706
  0
VERTEX
  5
1FD
100
AcDbEntity
  8
レイヤ1
100
AcDbVertex
100
AcDb2dVertex
 10
-251.9165580974
 20
938.2881428599
  0
VERTEX
  5
1FE
100
AcDbEntity
  8
レイヤ1
100
AcDbVertex
100
AcDb2dVertex
 10
-252.9269186245
 20
841.630319098
  0
VERTEX
  5
1FF
100
AcDbEntity
  8
レイヤ1
100
AcDbVertex
100
AcDb2dVertex
 10
-258.6522949449
 20
789.0915716873
  0
VERTEX
  5
200
100
AcDbEntity
  8
レイヤ1
100
AcDbVertex
100
AcDb2dVertex
 10
-273.4709160094
 20
732.5113821681
  0
VERTEX
  5
201
100
AcDbEntity
  8
レイヤ1
100
AcDbVertex
100
AcDb2dVertex
 10
-273.134129167
 20
727.1227926901
  0
VERTEX
  5
202
100
AcDbEntity
  8
レイヤ1
100
AcDbVertex
100
AcDb2dVertex
 10
-253.2637054669
 20
695.4648295067
  0
VERTEX
  5
203
100
AcDbEntity
  8
レイヤ1
100
AcDbVertex
100
AcDb2dVertex
 10
-247.2015423041
 20
689.7394531863
  0
VERTEX
  5
204
100
AcDbEntity
  8
レイヤ1
100
AcDbVertex
100
AcDb2dVertex
 10
-239.1186580871
 20
689.0658795016
  0
VERTEX
  5
205
100
AcDbEntity
  8
レイヤ1
100
AcDbVertex
100
AcDb2dVertex
 10
-228.6782659734
 20
695.4648295067
  0
VERTEX
  5
206
100
AcDbEntity
  8
レイヤ1
100
AcDbVertex
100
AcDb2dVertex
 10
-234.0668554514
 20
655.7239821063
  0
VERTEX
  5
207
100
AcDbEntity
  8
レイヤ1
100
AcDbVertex
100
AcDb2dVertex
 10
-242.4865265108
 20
597.4598583753
  0
VERTEX
  5
208
100
AcDbEntity
  8
レイヤ1
100
AcDbVertex
100
AcDb2dVertex
 10
-242.1497396684
 20
594.4287767939
  0
VERTEX
  5
209
100
AcDbEntity
  8
レイヤ1
100
AcDbVertex
100
AcDb2dVertex
 10
-223.6264633378
 20
587.6930399464
  0
VERTEX
  5
20A
100
AcDbEntity
  8
レイヤ1
100
AcDbVertex
100
AcDb2dVertex
 10
-223.9632501801
 20
544.2475372798
  0
VERTEX
  5
20B
100
AcDbEntity
  8
レイヤ1
100
AcDbVertex
100
AcDb2dVertex
 10
-221.6057422835
 20
315.5692713064
  0
VERTEX
  5
20C
100
AcDbEntity
  8
レイヤ1
100
AcDbVertex
100
AcDb2dVertex
 10
-226.3207580768
 20
165.3623396067
  0
VERTEX
  5
20D
100
AcDbEntity
  8
レイヤ1
100
AcDbVertex
100
AcDb2dVertex
 10
-186.5799106764
 20
127.6422132606
  0
VERTEX
  5
20E
100
AcDbEntity
  8
レイヤ1
100
AcDbVertex
100
AcDb2dVertex
 10
-186.5799106764
 20
117.5386079893
  0
VERTEX
  5
20F
100
AcDbEntity
  8
レイヤ1
100
AcDbVertex
100
AcDb2dVertex
 10
-182.8752554102
 20
114.1707395655
  0
VERTEX
  5
210
100
AcDbEntity
  8
レイヤ1
100
AcDbVertex
100
AcDb2dVertex
 10
-179.1706001441
 20
101.7096263976
  0
VERTEX
  5
211
100
AcDbEntity
  8
レイヤ1
100
AcDbVertex
100
AcDb2dVertex
 10
-179.5073869865
 20
86.21743164829
  0
VERTEX
  5
212
100
AcDbEntity
  8
レイヤ1
100
AcDbVertex
100
AcDb2dVertex
 10
-178.4970264594
 20
78.47133427364
  0
VERTEX
  5
213
100
AcDbEntity
  8
レイヤ1
100
AcDbVertex
100
AcDb2dVertex
 10
-176.4763054051
 20
76.45061321938
  0
VERTEX
  5
214
100
AcDbEntity
  8
レイヤ1
100
AcDbVertex
100
AcDb2dVertex
 10
-173.1084369813
 20
76.45061321938
  0
VERTEX
  5
215
100
AcDbEntity
  8
レイヤ1
100
AcDbVertex
100
AcDb2dVertex
 10
-167.0462738186
 20
83.18635006691
  0
VERTEX
  5
216
100
AcDbEntity
  8
レイヤ1
100
AcDbVertex
100
AcDb2dVertex
 10
-153.2380132811
 20
98.67854481621
  0
VERTEX
  5
217
100
AcDbEntity
  8
レイヤ1
100
AcDbVertex
100
AcDb2dVertex
 10
-129.9997211572
 20
84.19671059403
  0
VERTEX
  5
218
100
AcDbEntity
  8
レイヤ1
100
AcDbVertex
100
AcDb2dVertex
 10
-122.5904106249
 20
85.20707112116
  0
VERTEX
  5
219
100
AcDbEntity
  8
レイヤ1
100
AcDbVertex
100
AcDb2dVertex
 10
-121.9168369402
 20
77.79776058889
  0
VERTEX
  5
21A
100
AcDbEntity
  8
レイヤ1
100
AcDbVertex
100
AcDb2dVertex
 10
-103.7303474519
 20
62.30556583959
  0
VERTEX
  5
21B
100
AcDbEntity
  8
レイヤ1
100
AcDbVertex
100
AcDb2dVertex
 10
-88.23815270255
 20
55.23304214969
  0
VERTEX
  5
21C
100
AcDbEntity
  8
レイヤ1
100
AcDbVertex
100
AcDb2dVertex
 10
-83.85992375166
 20
57.25376320394
  0
VERTEX
  5
21D
100
AcDbEntity
  8
レイヤ1
100
AcDbVertex
100
AcDb2dVertex
 10
-79.48169480077
 20
77.12418690414
  0
VERTEX
  5
21E
100
AcDbEntity
  8
レイヤ1
100
AcDbVertex
100
AcDb2dVertex
 10
-77.79776058889
 20
87.22779217542
  0
VERTEX
  5
21F
100
AcDbEntity
  8
レイヤ1
100
AcDbVertex
100
AcDb2dVertex
 10
-58.93769741582
 20
88.57493954492
  0
VERTEX
  5
220
100
AcDbEntity
  8
レイヤ1
100
AcDbVertex
100
AcDb2dVertex
 10
-52.53874741068
 20
90.93244744156
  0
VERTEX
  5
221
100
AcDbEntity
  8
レイヤ1
100
AcDbVertex
100
AcDb2dVertex
 10
-22.5647184392
 20
92.95316849581
  0
VERTEX
  5
222
100
AcDbEntity
  8
レイヤ1
100
AcDbVertex
100
AcDb2dVertex
 10
-4.715015793266
 20
85.20707112116
  0
VERTEX
  5
223
100
AcDbEntity
  8
レイヤ1
100
AcDbVertex
100
AcDb2dVertex
 10
9.766818428908
 20
83.18635006691
  0
VERTEX
  5
224
100
AcDbEntity
  8
レイヤ1
100
AcDbVertex
100
AcDb2dVertex
 10
49.50766582929
 20
82.17598953978
  0
VERTEX
  5
225
100
AcDbEntity
  8
レイヤ1
100
AcDbVertex
100
AcDb2dVertex
 10
82.84956322453
 20
84.87028427879
  0
VERTEX
  5
226
100
AcDbEntity
  8
レイヤ1
100
AcDbVertex
100
AcDb2dVertex
 10
82.51277638215
 20
66.01022110572
  0
VERTEX
  5
227
100
AcDbEntity
  8
レイヤ1
100
AcDbVertex
100
AcDb2dVertex
 10
88.9117263873
 20
66.68379479048
  0
VERTEX
  5
228
100
AcDbEntity
  8
レイヤ1
100
AcDbVertex
100
AcDb2dVertex
 10
104.0671342942
 20
74.42989216513
  0
VERTEX
  5
229
100
AcDbEntity
  8
レイヤ1
100
AcDbVertex
100
AcDb2dVertex
 10
134.0411632657
 20
109.4557237722
  0
VERTEX
  5
22A
100
AcDbEntity
  8
レイヤ1
100
AcDbVertex
100
AcDb2dVertex
 10
137.0722448471
 20
109.4557237722
  0
VERTEX
  5
22B
100
AcDbEntity
  8
レイヤ1
100
AcDbVertex
100
AcDb2dVertex
 10
166.0359132914
 20
85.54385796354
  0
VERTEX
  5
22C
100
AcDbEntity
  8
レイヤ1
100
AcDbVertex
100
AcDb2dVertex
 10
170.4141422423
 20
85.20707112116
  0
VERTEX
  5
22D
100
AcDbEntity
  8
レイヤ1
100
AcDbVertex
100
AcDb2dVertex
 10
187.5902712035
 20
127.6422132606
  0
VERTEX
  5
22E
100
AcDbEntity
  8
レイヤ1
100
AcDbVertex
100
AcDb2dVertex
 10
189.9477791001
 20
141.7872606404
  0
VERTEX
  5
22F
100
AcDbEntity
  8
レイヤ1
100
AcDbVertex
100
AcDb2dVertex
 10
194.9995817358
 20
151.8908659116
  0
VERTEX
  5
230
100
AcDbEntity
  8
レイヤ1
100
AcDbVertex
100
AcDb2dVertex
 10
199.3778106867
 20
152.227652754
  0
VERTEX
  5
231
100
AcDbEntity
  8
レイヤ1
100
AcDbVertex
100
AcDb2dVertex
 10
212.175710697
 20
164.6887659219
  0
VERTEX
  5
232
100
AcDbEntity
  8
レイヤ1
100
AcDbVertex
100
AcDb2dVertex
 10
213.1860712241
 20
188.2638448883
  0
VERTEX
  5
233
100
AcDbEntity
  8
レイヤ1
100
AcDbVertex
100
AcDb2dVertex
 10
217.2275133326
 20
262.0201633686
  0
VERTEX
  5
234
100
AcDbEntity
  8
レイヤ1
100
AcDbVertex
100
AcDb2dVertex
 10
217.2275133326
 20
364.7401502934
  0
VERTEX
  5
235
100
AcDbEntity
  8
レイヤ1
100
AcDbVertex
100
AcDb2dVertex
 10
222.6161028106
 20
470.8280056418
  0
VERTEX
  5
236
100
AcDbEntity
  8
レイヤ1
100
AcDbVertex
100
AcDb2dVertex
 10
220.258594914
 20
564.7915346648
  0
VERTEX
  5
237
100
AcDbEntity
  8
レイヤ1
100
AcDbVertex
100
AcDb2dVertex
 10
217.2275133326
 20
584.3251715226
  0
VERTEX
  5
238
100
AcDbEntity
  8
レイヤ1
100
AcDbVertex
100
AcDb2dVertex
 10
218.5746607021
 20
668.1850952743
  0
VERTEX
  5
239
100
AcDbEntity
  8
レイヤ1
100
AcDbVertex
100
AcDb2dVertex
 10
216.2171528055
 20
723.0813505816
  0
VERTEX
  5
23A
100
AcDbEntity
  8
レイヤ1
100
AcDbVertex
100
AcDb2dVertex
 10
209.481415958
 20
764.5061321938
  0
VERTEX
  5
23B
100
AcDbEntity
  8
レイヤ1
100
AcDbVertex
100
AcDb2dVertex
 10
199.3778106867
 20
807.9516348604
  0
VERTEX
  5
23C
100
AcDbEntity
  8
レイヤ1
100
AcDbVertex
100
AcDb2dVertex
 10
187.5902712035
 20
867.5629059609
  0
VERTEX
  5
23D
100
AcDbEntity
  8
レイヤ1
100
AcDbVertex
100
AcDb2dVertex
 10
202.0721054257
 20
859.1432349015
  0
VERTEX
  5
23E
100
AcDbEntity
  8
レイヤ1
100
AcDbVertex
100
AcDb2dVertex
 10
205.1031870071
 20
825.1277638215
  0
VERTEX
  5
23F
100
AcDbEntity
  8
レイヤ1
100
AcDbVertex
100
AcDb2dVertex
 10
208.8078422732
 20
808.6252085451
  0
VERTEX
  5
240
100
AcDbEntity
  8
レイヤ1
100
AcDbVertex
100
AcDb2dVertex
 10
246.8647554617
 20
756.7600348192
  0
VERTEX
  5
241
100
AcDbEntity
  8
レイヤ1
100
AcDbVertex
100
AcDb2dVertex
 10
277.8491449603
 20
722.7445637392
  0
VERTEX
  5
242
100
AcDbEntity
  8
レイヤ1
100
AcDbVertex
100
AcDb2dVertex
 10
286.2688160197
 20
717.6927611035
  0
VERTEX
  5
243
100
AcDbEntity
  8
レイヤ1
100
AcDbVertex
100
AcDb2dVertex
 10
294.6884870791
 20
717.3559742612
  0
VERTEX
  5
244
100
AcDbEntity
  8
レイヤ1
100
AcDbVertex
100
AcDb2dVertex
 10
301.0874370843
 20
721.3974163697
  0
VERTEX
  5
245
100
AcDbEntity
  8
レイヤ1
100
AcDbVertex
100
AcDb2dVertex
 10
320.2842870997
 20
751.3714453412
  0
VERTEX
  5
246
100
AcDbEntity
  8
レイヤ1
100
AcDbVertex
100
AcDb2dVertex
 10
321.6314344692
 20
782.6926216821
  0
VERTEX
  5
247
100
AcDbEntity
  8
レイヤ1
100
AcDbVertex
100
AcDb2dVertex
 10
305.4656660352
 20
820.7495348706
  0
VERTEX
  5
248
100
AcDbEntity
  8
レイヤ1
100
AcDbVertex
100
AcDb2dVertex
 10
303.1081581385
 20
833.5474348809
  0
VERTEX
  5
249
100
AcDbEntity
  8
レイヤ1
100
AcDbVertex
100
AcDb2dVertex
 10
289.6366844435
 20
849.3764164726
  0
VERTEX
  5
24A
100
AcDbEntity
  8
レイヤ1
100
AcDbVertex
100
AcDb2dVertex
 10
290.983831813
 20
890.1276244001
  0
VERTEX
  5
24B
100
AcDbEntity
  8
レイヤ1
100
AcDbVertex
100
AcDb2dVertex
 10
304.455305508
 20
889.7908375578
  0
VERTEX
  5
24C
100
AcDbEntity
  8
レイヤ1
100
AcDbVertex
100
AcDb2dVertex
 10
307.4863870894
 20
891.811558612
  0
VERTEX
  5
24D
100
AcDbEntity
  8
レイヤ1
100
AcDbVertex
100
AcDb2dVertex
 10
308.4967476165
 20
897.20014809
  0
VERTEX
  5
24E
100
AcDbEntity
  8
レイヤ1
100
AcDbVertex
100
AcDb2dVertex
 10
325.3360897353
 20
937.9513560175
  0
VERTEX
  5
24F
100
AcDbEntity
  8
レイヤ1
100
AcDbVertex
100
AcDb2dVertex
 10
324.3257292082
 20
1003.624790281
  0
VERTEX
  5
250
100
AcDbEntity
  8
レイヤ1
100
AcDbVertex
100
AcDb2dVertex
 10
317.5899923607
 20
1100.619400885
  0
VERTEX
  5
251
100
AcDbEntity
  8
レイヤ1
100
AcDbVertex
100
AcDb2dVertex
 10
310.5174686708
 20
1146.759198291
  0
VERTEX
  5
252
100
AcDbEntity
  8
レイヤ1
100
AcDbVertex
100
AcDb2dVertex
 10
297.7195686605
 20
1224.55695888
  0
VERTEX
  5
253
100
AcDbEntity
  8
レイヤ1
100
AcDbVertex
100
AcDb2dVertex
 10
298.0563555029
 20
1232.976629939
  0
VERTEX
  5
254
100
AcDbEntity
  8
レイヤ1
100
AcDbVertex
100
AcDb2dVertex
 10
305.1288791928
 20
1270.696756285
  0
VERTEX
  5
255
100
AcDbEntity
  8
レイヤ1
100
AcDbVertex
100
AcDb2dVertex
 10
305.1288791928
 20
1281.473935241
  0
VERTEX
  5
256
100
AcDbEntity
  8
レイヤ1
100
AcDbVertex
100
AcDb2dVertex
 10
300.4138633995
 20
1298.650064202
  0
VERTEX
  5
257
100
AcDbEntity
  8
レイヤ1
100
AcDbVertex
100
AcDb2dVertex
 10
300.0770765571
 20
1307.743308947
  0
VERTEX
  5
258
100
AcDbEntity
  8
レイヤ1
100
AcDbVertex
100
AcDb2dVertex
 10
278.8595054874
 20
1357.250974776
  0
VERTEX
  5
259
100
AcDbEntity
  8
レイヤ1
100
AcDbVertex
100
AcDb2dVertex
 10
259.3258686296
 20
1380.152480057
  0
VERTEX
  5
25A
100
AcDbEntity
  8
レイヤ1
100
AcDbVertex
100
AcDb2dVertex
 10
238.1082975599
 20
1404.401132708
  0
VERTEX
  5
25B
100
AcDbEntity
  8
レイヤ1
100
AcDbVertex
100
AcDb2dVertex
 10
218.2378738597
 20
1415.515098507
  0
VERTEX
  5
25C
100
AcDbEntity
  8
レイヤ1
100
AcDbVertex
100
AcDb2dVertex
 10
197.02030279
 20
1423.597982724
  0
VERTEX
  5
25D
100
AcDbEntity
  8
レイヤ1
100
AcDbVertex
100
AcDb2dVertex
 10
186.5799106764
 20
1431.680866941
  0
VERTEX
  5
25E
100
AcDbEntity
  8
レイヤ1
100
AcDbVertex
100
AcDb2dVertex
 10
178.160239617
 20
1433.02801431
  0
VERTEX
  5
25F
100
AcDbEntity
  8
レイヤ1
100
AcDbVertex
100
AcDb2dVertex
 10
154.921947493
 20
1439.090177473
  0
VERTEX
  5
260
100
AcDbEntity
  8
レイヤ1
100
AcDbVertex
100
AcDb2dVertex
 10
146.5022764336
 20
1446.836274848
  0
VERTEX
  5
261
100
AcDbEntity
  8
レイヤ1
100
AcDbVertex
100
AcDb2dVertex
 10
141.1136869556
 20
1448.52020906
  0
VERTEX
  5
262
100
AcDbEntity
  8
レイヤ1
100
AcDbVertex
100
AcDb2dVertex
 10
128.3157869453
 20
1446.499488006
  0
VERTEX
  5
263
100
AcDbEntity
  8
レイヤ1
100
AcDbVertex
100
AcDb2dVertex
 10
122.5904106249
 20
1447.846635375
  0
VERTEX
  5
264
100
AcDbEntity
  8
レイヤ1
100
AcDbVertex
100
AcDb2dVertex
 10
113.1603790384
 20
1455.59273275
  0
VERTEX
  5
265
100
AcDbEntity
  8
レイヤ1
100
AcDbVertex
100
AcDb2dVertex
 10
101.0360527128
 20
1470.411353814
  0
VERTEX
  5
266
100
AcDbEntity
  8
レイヤ1
100
AcDbVertex
100
AcDb2dVertex
 10
92.61638165344
 20
1473.442435396
  0
VERTEX
  5
267
100
AcDbEntity
  8
レイヤ1
100
AcDbVertex
100
AcDb2dVertex
 10
84.19671059403
 20
1485.229974879
  0
VERTEX
  5
268
100
AcDbEntity
  8
レイヤ1
100
AcDbVertex
100
AcDb2dVertex
 10
82.29469309898
 20
1491.892097116
  0
SEQEND
  5
269
100
AcDbEntity
  8
レイヤ1
  0
POLYLINE
  5
26A
100
AcDbEntity
  8
レイヤ1
  6
CONTINUOUS
 62
     0
100
AcDb2dPolyline
 66
     1
 10
0
 20
0
 70
     0
  0
VERTEX
  5
26B
100
AcDbEntity
  8
レイヤ1
100
AcDbVertex
100
AcDb2dVertex
 10
-186.5799106764
 20
117.5386079893
  0
VERTEX
  5
26C
100
AcDbEntity
  8
レイヤ1
100
AcDbVertex
100
AcDb2dVertex
 10
-188.1709064427
 20
107.3199798893
  0
VERTEX
  5
26D
100
AcDbEntity
  8
レイヤ1
100
AcDbVertex
100
AcDb2dVertex
 10
-187.2083954123
 20
102.9886802525
  0
VERTEX
  5
26E
100
AcDbEntity
  8
レイヤ1
100
AcDbVertex
100
AcDb2dVertex
 10
-191.5396950491
 20
100.1011471613
  0
VERTEX
  5
26F
100
AcDbEntity
  8
レイヤ1
100
AcDbVertex
100
AcDb2dVertex
 10
-192.0209505643
 20
95.28859200934
  0
VERTEX
  5
270
100
AcDbEntity
  8
レイヤ1
100
AcDbVertex
100
AcDb2dVertex
 10
-196.3522502011
 20
90.47603685735
  0
VERTEX
  5
271
100
AcDbEntity
  8
レイヤ1
100
AcDbVertex
100
AcDb2dVertex
 10
-214.6399597786
 20
61.60070594543
  0
VERTEX
  5
272
100
AcDbEntity
  8
レイヤ1
100
AcDbVertex
100
AcDb2dVertex
 10
-238.7027355385
 20
40.42546327669
  0
VERTEX
  5
273
100
AcDbEntity
  8
レイヤ1
100
AcDbVertex
100
AcDb2dVertex
 10
-244.4778017209
 20
38.98169673109
  0
VERTEX
  5
274
100
AcDbEntity
  8
レイヤ1
100
AcDbVertex
100
AcDb2dVertex
 10
-256.5091896009
 20
25.02528679033
  0
VERTEX
  5
275
100
AcDbEntity
  8
レイヤ1
100
AcDbVertex
100
AcDb2dVertex
 10
-259.8779782073
 20
21.17524266874
  0
VERTEX
  5
276
100
AcDbEntity
  8
レイヤ1
100
AcDbVertex
100
AcDb2dVertex
 10
-262.7655112985
 20
13.47515442556
  0
VERTEX
  5
277
100
AcDbEntity
  8
レイヤ1
100
AcDbVertex
100
AcDb2dVertex
 10
-263.7280223289
 20
-2.887533091192
  0
VERTEX
  5
278
100
AcDbEntity
  8
レイヤ1
100
AcDbVertex
100
AcDb2dVertex
 10
-262.2842557833
 20
-12.99389891036
  0
VERTEX
  5
279
100
AcDbEntity
  8
レイヤ1
100
AcDbVertex
100
AcDb2dVertex
 10
-247.3653348121
 20
-25.98779782073
  0
VERTEX
  5
27A
100
AcDbEntity
  8
レイヤ1
100
AcDbVertex
100
AcDb2dVertex
 10
-239.6652465689
 20
-27.91281988152
  0
VERTEX
  5
27B
100
AcDbEntity
  8
レイヤ1
100
AcDbVertex
100
AcDb2dVertex
 10
-230.5213917802
 20
-27.91281988152
  0
VERTEX
  5
27C
100
AcDbEntity
  8
レイヤ1
100
AcDbVertex
100
AcDb2dVertex
 10
-224.7463255978
 20
-25.98779782073
  0
VERTEX
  5
27D
100
AcDbEntity
  8
レイヤ1
100
AcDbVertex
100
AcDb2dVertex
 10
-218.9712594154
 20
-29.83784194232
  0
VERTEX
  5
27E
100
AcDbEntity
  8
レイヤ1
100
AcDbVertex
100
AcDb2dVertex
 10
-209.8274046266
 20
-31.28160848791
  0
VERTEX
  5
27F
100
AcDbEntity
  8
レイヤ1
100
AcDbVertex
100
AcDb2dVertex
 10
-200.2022943227
 20
-31.28160848791
  0
VERTEX
  5
280
100
AcDbEntity
  8
レイヤ1
100
AcDbVertex
100
AcDb2dVertex
 10
-183.8396068059
 20
-24.54403127513
  0
VERTEX
  5
281
100
AcDbEntity
  8
レイヤ1
100
AcDbVertex
100
AcDb2dVertex
 10
-166.5144082587
 20
-4.812555151987
  0
VERTEX
  5
282
100
AcDbEntity
  8
レイヤ1
100
AcDbVertex
100
AcDb2dVertex
 10
-161.7018531068
 20
4.812555151987
  0
VERTEX
  5
283
100
AcDbEntity
  8
レイヤ1
100
AcDbVertex
100
AcDb2dVertex
 10
-160.2580865612
 20
13.95640994076
  0
VERTEX
  5
284
100
AcDbEntity
  8
レイヤ1
100
AcDbVertex
100
AcDb2dVertex
 10
-148.2266986812
 20
33.20663054871
  0
VERTEX
  5
285
100
AcDbEntity
  8
レイヤ1
100
AcDbVertex
100
AcDb2dVertex
 10
-129.4577335884
 20
50.05057358066
  0
VERTEX
  5
286
100
AcDbEntity
  8
レイヤ1
100
AcDbVertex
100
AcDb2dVertex
 10
-119.3513677693
 20
61.60070594543
  0
VERTEX
  5
287
100
AcDbEntity
  8
レイヤ1
100
AcDbVertex
100
AcDb2dVertex
 10
-118.7513444791
 20
75.10122997393
  0
SEQEND
  5
288
100
AcDbEntity
  8
レイヤ1
  0
POLYLINE
  5
289
100
AcDbEntity
  8
レイヤ1
  6
CONTINUOUS
 62
     0
100
AcDb2dPolyline
 66
     1
 10
0
 20
0
 70
     0
  0
VERTEX
  5
28A
100
AcDbEntity
  8
レイヤ1
100
AcDbVertex
100
AcDb2dVertex
 10
-224.7463255978
 20
-25.98779782073
  0
VERTEX
  5
28B
100
AcDbEntity
  8
レイヤ1
100
AcDbVertex
100
AcDb2dVertex
 10
-224.2650700826
 20
-16.36268751676
  0
VERTEX
  5
28C
100
AcDbEntity
  8
レイヤ1
100
AcDbVertex
100
AcDb2dVertex
 10
-221.3775369914
 20
-9.625110303974
  0
VERTEX
  5
28D
100
AcDbEntity
  8
レイヤ1
100
AcDbVertex
100
AcDb2dVertex
 10
-214.6399597786
 20
-2.406277575993
  0
VERTEX
  5
28E
100
AcDbEntity
  8
レイヤ1
100
AcDbVertex
100
AcDb2dVertex
 10
-212.2336822026
 20
3.368788606391
  0
SEQEND
  5
28F
100
AcDbEntity
  8
レイヤ1
  0
POLYLINE
  5
290
100
AcDbEntity
  8
レイヤ1
  6
CONTINUOUS
 62
     0
100
AcDb2dPolyline
 66
     1
 10
0
 20
0
 70
     0
  0
VERTEX
  5
291
100
AcDbEntity
  8
レイヤ1
100
AcDbVertex
100
AcDb2dVertex
 10
126.6976194766
 20
100.8745040637
  0
VERTEX
  5
292
100
AcDbEntity
  8
レイヤ1
100
AcDbVertex
100
AcDb2dVertex
 10
128.9764780732
 20
65.93200558222
  0
VERTEX
  5
293
100
AcDbEntity
  8
レイヤ1
100
AcDbVertex
100
AcDb2dVertex
 10
137.6390773468
 20
42.35048533748
  0
VERTEX
  5
294
100
AcDbEntity
  8
レイヤ1
100
AcDbVertex
100
AcDb2dVertex
 10
158.8143200156
 20
13.47515442556
  0
VERTEX
  5
295
100
AcDbEntity
  8
レイヤ1
100
AcDbVertex
100
AcDb2dVertex
 10
166.0331527435
 20
-7.21883272798
  0
VERTEX
  5
296
100
AcDbEntity
  8
レイヤ1
100
AcDbVertex
100
AcDb2dVertex
 10
170.8457078955
 20
-17.32519854715
  0
VERTEX
  5
297
100
AcDbEntity
  8
レイヤ1
100
AcDbVertex
100
AcDb2dVertex
 10
188.6521619579
 20
-35.1316526095
  0
VERTEX
  5
298
100
AcDbEntity
  8
レイヤ1
100
AcDbVertex
100
AcDb2dVertex
 10
198.7585277771
 20
-39.46295224629
  0
VERTEX
  5
299
100
AcDbEntity
  8
レイヤ1
100
AcDbVertex
100
AcDb2dVertex
 10
210.789915657
 20
-40.42546327669
  0
VERTEX
  5
29A
100
AcDbEntity
  8
レイヤ1
100
AcDbVertex
100
AcDb2dVertex
 10
219.4525149306
 20
-38.0191857007
  0
VERTEX
  5
29B
100
AcDbEntity
  8
レイヤ1
100
AcDbVertex
100
AcDb2dVertex
 10
226.1900921434
 20
-33.20663054871
  0
VERTEX
  5
29C
100
AcDbEntity
  8
レイヤ1
100
AcDbVertex
100
AcDb2dVertex
 10
231.9651583258
 20
-36.5754191551
  0
VERTEX
  5
29D
100
AcDbEntity
  8
レイヤ1
100
AcDbVertex
100
AcDb2dVertex
 10
239.6652465689
 20
-38.5004412159
  0
VERTEX
  5
29E
100
AcDbEntity
  8
レイヤ1
100
AcDbVertex
100
AcDb2dVertex
 10
248.8091013577
 20
-36.0941636399
  0
VERTEX
  5
29F
100
AcDbEntity
  8
レイヤ1
100
AcDbVertex
100
AcDb2dVertex
 10
257.9529561465
 20
-29.35658642712
  0
VERTEX
  5
2A0
100
AcDbEntity
  8
レイヤ1
100
AcDbVertex
100
AcDb2dVertex
 10
264.2092778441
 20
-18.76896509275
  0
VERTEX
  5
2A1
100
AcDbEntity
  8
レイヤ1
100
AcDbVertex
100
AcDb2dVertex
 10
265.6530443897
 20
-5.775066182384
  0
VERTEX
  5
2A2
100
AcDbEntity
  8
レイヤ1
100
AcDbVertex
100
AcDb2dVertex
 10
265.1717888745
 20
6.256321697583
  0
VERTEX
  5
2A3
100
AcDbEntity
  8
レイヤ1
100
AcDbVertex
100
AcDb2dVertex
 10
258.9154671769
 20
18.76896509275
  0
VERTEX
  5
2A4
100
AcDbEntity
  8
レイヤ1
100
AcDbVertex
100
AcDb2dVertex
 10
250.2528679033
 20
29.83784194232
  0
VERTEX
  5
2A5
100
AcDbEntity
  8
レイヤ1
100
AcDbVertex
100
AcDb2dVertex
 10
227.1526031738
 20
46.68178497427
  0
VERTEX
  5
2A6
100
AcDbEntity
  8
レイヤ1
100
AcDbVertex
100
AcDb2dVertex
 10
205.0148494746
 20
78.92590449258
  0
VERTEX
  5
2A7
100
AcDbEntity
  8
レイヤ1
100
AcDbVertex
100
AcDb2dVertex
 10
201.6460608683
 20
83.25720412937
  0
VERTEX
  5
2A8
100
AcDbEntity
  8
レイヤ1
100
AcDbVertex
100
AcDb2dVertex
 10
203.0898274138
 20
85.18222619017
  0
VERTEX
  5
2A9
100
AcDbEntity
  8
レイヤ1
100
AcDbVertex
100
AcDb2dVertex
 10
203.0898274138
 20
89.99478134215
  0
VERTEX
  5
2AA
100
AcDbEntity
  8
レイヤ1
100
AcDbVertex
100
AcDb2dVertex
 10
200.6835498379
 20
92.40105891815
  0
VERTEX
  5
2AB
100
AcDbEntity
  8
レイヤ1
100
AcDbVertex
100
AcDb2dVertex
 10
200.2022943227
 20
108.7637464349
  0
VERTEX
  5
2AC
100
AcDbEntity
  8
レイヤ1
100
AcDbVertex
100
AcDb2dVertex
 10
192.0209505643
 20
128.9764780732
  0
VERTEX
  5
2AD
100
AcDbEntity
  8
レイヤ1
100
AcDbVertex
100
AcDb2dVertex
 10
189.9477791001
 20
141.7872606404
  0
SEQEND
  5
2AE
100
AcDbEntity
  8
レイヤ1
  0
POLYLINE
  5
2AF
100
AcDbEntity
  8
レイヤ1
  6
CONTINUOUS
 62
     0
100
AcDb2dPolyline
 66
     1
 10
0
 20
0
 70
     0
  0
VERTEX
  5
2B0
100
AcDbEntity
  8
レイヤ1
100
AcDbVertex
100
AcDb2dVertex
 10
213.8596449088
 20
-5.725376320394
  0
VERTEX
  5
2B1
100
AcDbEntity
  8
レイヤ1
100
AcDbVertex
100
AcDb2dVertex
 10
216.5539396479
 20
-11.11396579841
  0
VERTEX
  5
2B2
100
AcDbEntity
  8
レイヤ1
100
AcDbVertex
100
AcDb2dVertex
 10
222.2793159683
 20
-14.48183422217
  0
VERTEX
  5
2B3
100
AcDbEntity
  8
レイヤ1
100
AcDbVertex
100
AcDb2dVertex
 10
226.9943317615
 20
-19.87042370019
  0
VERTEX
  5
2B4
100
AcDbEntity
  8
レイヤ1
100
AcDbVertex
100
AcDb2dVertex
 10
228.6782659734
 20
-25.93258686296
  0
VERTEX
  5
2B5
100
AcDbEntity
  8
レイヤ1
100
AcDbVertex
100
AcDb2dVertex
 10
228.0046922886
 20
-29.6372421291
  0
VERTEX
  5
2B6
100
AcDbEntity
  8
レイヤ1
100
AcDbVertex
100
AcDb2dVertex
 10
226.1900921434
 20
-33.20663054871
  0
SEQEND
  5
2B7
100
AcDbEntity
  8
レイヤ1
  0
POLYLINE
  5
2B8
100
AcDbEntity
  8
レイヤ1
  6
CONTINUOUS
 62
     0
100
AcDb2dPolyline
 66
     1
 10
0
 20
0
 70
     0
  0
VERTEX
  5
2B9
100
AcDbEntity
  8
レイヤ1
100
AcDbVertex
100
AcDb2dVertex
 10
-63.4644556846
 20
1398.162299415
  0
VERTEX
  5
2BA
100
AcDbEntity
  8
レイヤ1
100
AcDbVertex
100
AcDb2dVertex
 10
-41.08799476989
 20
1358.598122145
  0
VERTEX
  5
2BB
100
AcDbEntity
  8
レイヤ1
100
AcDbVertex
100
AcDb2dVertex
 10
-17.84970264594
 20
1316.836553691
  0
SEQEND
  5
2BC
100
AcDbEntity
  8
レイヤ1
  0
POLYLINE
  5
2BD
100
AcDbEntity
  8
レイヤ1
  6
CONTINUOUS
 62
     0
100
AcDb2dPolyline
 66
     1
 10
0
 20
0
 70
     0
  0
VERTEX
  5
2BE
100
AcDbEntity
  8
レイヤ1
100
AcDbVertex
100
AcDb2dVertex
 10
-50.14036519064
 20
1462.812167355
  0
VERTEX
  5
2BF
100
AcDbEntity
  8
レイヤ1
100
AcDbVertex
100
AcDb2dVertex
 10
-60.6216316277
 20
1446.499488006
  0
VERTEX
  5
2C0
100
AcDbEntity
  8
レイヤ1
100
AcDbVertex
100
AcDb2dVertex
 10
-62.30556583959
 20
1433.701587995
  0
VERTEX
  5
2C1
100
AcDbEntity
  8
レイヤ1
100
AcDbVertex
100
AcDb2dVertex
 10
-64.32628689384
 20
1371.732808998
  0
VERTEX
  5
2C2
100
AcDbEntity
  8
レイヤ1
100
AcDbVertex
100
AcDb2dVertex
 10
-51.19160004117
 20
1326.940158962
  0
VERTEX
  5
2C3
100
AcDbEntity
  8
レイヤ1
100
AcDbVertex
100
AcDb2dVertex
 10
-30.49967436225
 20
1296.077625746
  0
SEQEND
  5
2C4
100
AcDbEntity
  8
レイヤ1
  0
POLYLINE
  5
2C5
100
AcDbEntity
  8
レイヤ1
  6
CONTINUOUS
 62
     0
100
AcDb2dPolyline
 66
     1
 10
0
 20
0
 70
     0
  0
VERTEX
  5
2C6
100
AcDbEntity
  8
レイヤ1
100
AcDbVertex
100
AcDb2dVertex
 10
-64.32628689384
 20
1371.732808998
  0
VERTEX
  5
2C7
100
AcDbEntity
  8
レイヤ1
100
AcDbVertex
100
AcDb2dVertex
 10
-55.70335352558
 20
1316.93730866
  0
VERTEX
  5
2C8
100
AcDbEntity
  8
レイヤ1
100
AcDbVertex
100
AcDb2dVertex
 10
-54.3279620805
 20
1241.290779181
  0
VERTEX
  5
2C9
100
AcDbEntity
  8
レイヤ1
100
AcDbVertex
100
AcDb2dVertex
 10
-55.34438424785
 20
1117.956561807
  0
VERTEX
  5
2CA
100
AcDbEntity
  8
レイヤ1
100
AcDbVertex
100
AcDb2dVertex
 10
-49.08806255027
 20
1116.994050776
  0
VERTEX
  5
2CB
100
AcDbEntity
  8
レイヤ1
100
AcDbVertex
100
AcDb2dVertex
 10
-47.64429600467
 20
1114.5877732
  0
VERTEX
  5
2CC
100
AcDbEntity
  8
レイヤ1
100
AcDbVertex
100
AcDb2dVertex
 10
-48.60680703507
 20
1111.218984594
  0
VERTEX
  5
2CD
100
AcDbEntity
  8
レイヤ1
100
AcDbVertex
100
AcDb2dVertex
 10
-51.49434012626
 20
1109.775218048
  0
VERTEX
  5
2CE
100
AcDbEntity
  8
レイヤ1
100
AcDbVertex
100
AcDb2dVertex
 10
-55.34438424785
 20
1109.775218048
  0
VERTEX
  5
2CF
100
AcDbEntity
  8
レイヤ1
100
AcDbVertex
100
AcDb2dVertex
 10
-57.26940630864
 20
1062.130922044
  0
SEQEND
  5
2D0
100
AcDbEntity
  8
レイヤ1
  0
POLYLINE
  5
2D1
100
AcDbEntity
  8
レイヤ1
  6
CONTINUOUS
 62
     0
100
AcDb2dPolyline
 66
     1
 10
0
 20
0
 70
     0
  0
VERTEX
  5
2D2
100
AcDbEntity
  8
レイヤ1
100
AcDbVertex
100
AcDb2dVertex
 10
14.61255645736
 20
1383.007762771
  0
VERTEX
  5
2D3
100
AcDbEntity
  8
レイヤ1
100
AcDbVertex
100
AcDb2dVertex
 10
-17.84970264594
 20
1316.836553691
  0
VERTEX
  5
2D4
100
AcDbEntity
  8
レイヤ1
100
AcDbVertex
100
AcDb2dVertex
 10
-54.60486411856
 20
1256.520391274
  0
SEQEND
  5
2D5
100
AcDbEntity
  8
レイヤ1
  0
POLYLINE
  5
2D6
100
AcDbEntity
  8
レイヤ1
  6
CONTINUOUS
 62
     0
100
AcDb2dPolyline
 66
     1
 10
0
 20
0
 70
     0
  0
VERTEX
  5
2D7
100
AcDbEntity
  8
レイヤ1
100
AcDbVertex
100
AcDb2dVertex
 10
-112.7820984962
 20
1357.51135629
  0
VERTEX
  5
2D8
100
AcDbEntity
  8
レイヤ1
100
AcDbVertex
100
AcDb2dVertex
 10
-120.3467514442
 20
1334.817397446
  0
VERTEX
  5
2D9
100
AcDbEntity
  8
レイヤ1
100
AcDbVertex
100
AcDb2dVertex
 10
-121.0344471667
 20
1169.770424037
  0
VERTEX
  5
2DA
100
AcDbEntity
  8
レイヤ1
100
AcDbVertex
100
AcDb2dVertex
 10
-116.9082728315
 20
1126.445593517
  0
SEQEND
  5
2DB
100
AcDbEntity
  8
レイヤ1
  0
POLYLINE
  5
2DC
100
AcDbEntity
  8
レイヤ1
  6
CONTINUOUS
 62
     0
100
AcDb2dPolyline
 66
     1
 10
0
 20
0
 70
     0
  0
VERTEX
  5
2DD
100
AcDbEntity
  8
レイヤ1
100
AcDbVertex
100
AcDb2dVertex
 10
-131.3498830048
 20
1379.517619411
  0
VERTEX
  5
2DE
100
AcDbEntity
  8
レイヤ1
100
AcDbVertex
100
AcDb2dVertex
 10
-140.2899273978
 20
1283.240218256
  0
VERTEX
  5
2DF
100
AcDbEntity
  8
レイヤ1
100
AcDbVertex
100
AcDb2dVertex
 10
-137.5391445076
 20
1216.53373317
  0
VERTEX
  5
2E0
100
AcDbEntity
  8
レイヤ1
100
AcDbVertex
100
AcDb2dVertex
 10
-128.5991001146
 20
1149.139552361
  0
VERTEX
  5
2E1
100
AcDbEntity
  8
レイヤ1
100
AcDbVertex
100
AcDb2dVertex
 10
-123.7852300568
 20
1128.508680685
  0
SEQEND
  5
2E2
100
AcDbEntity
  8
レイヤ1
  0
POLYLINE
  5
2E3
100
AcDbEntity
  8
レイヤ1
  6
CONTINUOUS
 62
     0
100
AcDb2dPolyline
 66
     1
 10
0
 20
0
 70
     0
  0
VERTEX
  5
2E4
100
AcDbEntity
  8
レイヤ1
100
AcDbVertex
100
AcDb2dVertex
 10
-204.9333253163
 20
1347.883616175
  0
VERTEX
  5
2E5
100
AcDbEntity
  8
レイヤ1
100
AcDbVertex
100
AcDb2dVertex
 10
-198.7440638135
 20
1329.315831666
  0
VERTEX
  5
2E6
100
AcDbEntity
  8
レイヤ1
100
AcDbVertex
100
AcDb2dVertex
 10
-181.55167075
 20
1221.347603228
  0
SEQEND
  5
2E7
100
AcDbEntity
  8
レイヤ1
  0
POLYLINE
  5
2E8
100
AcDbEntity
  8
レイヤ1
  6
CONTINUOUS
 62
     0
100
AcDb2dPolyline
 66
     1
 10
0
 20
0
 70
     0
  0
VERTEX
  5
2E9
100
AcDbEntity
  8
レイヤ1
100
AcDbVertex
100
AcDb2dVertex
 10
-172.611626357
 20
1132.63485502
  0
VERTEX
  5
2EA
100
AcDbEntity
  8
レイヤ1
100
AcDbVertex
100
AcDb2dVertex
 10
-179.5083071691
 20
1127.581672111
  0
VERTEX
  5
2EB
100
AcDbEntity
  8
レイヤ1
100
AcDbVertex
100
AcDb2dVertex
 10
-189.6146729883
 20
1126.61916108
  0
VERTEX
  5
2EC
100
AcDbEntity
  8
レイヤ1
100
AcDbVertex
100
AcDb2dVertex
 10
-192.5022060795
 20
1124.212883504
  0
VERTEX
  5
2ED
100
AcDbEntity
  8
レイヤ1
100
AcDbVertex
100
AcDb2dVertex
 10
-192.9834615947
 20
1121.806605928
  0
VERTEX
  5
2EE
100
AcDbEntity
  8
レイヤ1
100
AcDbVertex
100
AcDb2dVertex
 10
-189.6146729883
 20
1118.919072837
  0
VERTEX
  5
2EF
100
AcDbEntity
  8
レイヤ1
100
AcDbVertex
100
AcDb2dVertex
 10
-154.964275894
 20
1109.293962533
  0
VERTEX
  5
2F0
100
AcDbEntity
  8
レイヤ1
100
AcDbVertex
100
AcDb2dVertex
 10
-99.61989164613
 20
1082.343653682
  0
VERTEX
  5
2F1
100
AcDbEntity
  8
レイヤ1
100
AcDbVertex
100
AcDb2dVertex
 10
-57.26940630864
 20
1062.130922044
  0
VERTEX
  5
2F2
100
AcDbEntity
  8
レイヤ1
100
AcDbVertex
100
AcDb2dVertex
 10
-50.51802635642
 20
1059.194619273
  0
VERTEX
  5
2F3
100
AcDbEntity
  8
レイヤ1
100
AcDbVertex
100
AcDb2dVertex
 10
-60.95841847008
 20
1060.2049798
  0
VERTEX
  5
2F4
100
AcDbEntity
  8
レイヤ1
100
AcDbVertex
100
AcDb2dVertex
 10
-72.74595795325
 20
1056.163537692
  0
VERTEX
  5
2F5
100
AcDbEntity
  8
レイヤ1
100
AcDbVertex
100
AcDb2dVertex
 10
-97.66818428908
 20
1037.977048203
  0
VERTEX
  5
2F6
100
AcDbEntity
  8
レイヤ1
100
AcDbVertex
100
AcDb2dVertex
 10
-118.8857553588
 20
1016.422690291
  0
VERTEX
  5
2F7
100
AcDbEntity
  8
レイヤ1
100
AcDbVertex
100
AcDb2dVertex
 10
-137.7458185318
 20
987.7958086892
  0
VERTEX
  5
2F8
100
AcDbEntity
  8
レイヤ1
100
AcDbVertex
100
AcDb2dVertex
 10
-166.7094869762
 20
955.8010586635
  0
VERTEX
  5
2F9
100
AcDbEntity
  8
レイヤ1
100
AcDbVertex
100
AcDb2dVertex
 10
-184.5591896221
 20
939.9720770718
  0
VERTEX
  5
2FA
100
AcDbEntity
  8
レイヤ1
100
AcDbVertex
100
AcDb2dVertex
 10
-200.0513843714
 20
929.1948981158
  0
VERTEX
  5
2FB
100
AcDbEntity
  8
レイヤ1
100
AcDbVertex
100
AcDb2dVertex
 10
-217.9010870174
 20
916.7337849478
  0
VERTEX
  5
2FC
100
AcDbEntity
  8
レイヤ1
100
AcDbVertex
100
AcDb2dVertex
 10
-226.6575449191
 20
907.3037533613
  0
VERTEX
  5
2FD
100
AcDbEntity
  8
レイヤ1
100
AcDbVertex
100
AcDb2dVertex
 10
-227.3311186039
 20
904.6094586223
  0
VERTEX
  5
2FE
100
AcDbEntity
  8
レイヤ1
100
AcDbVertex
100
AcDb2dVertex
 10
-226.6575449191
 20
901.5783770409
  0
VERTEX
  5
2FF
100
AcDbEntity
  8
レイヤ1
100
AcDbVertex
100
AcDb2dVertex
 10
-223.6264633378
 20
898.5472954595
  0
VERTEX
  5
300
100
AcDbEntity
  8
レイヤ1
100
AcDbVertex
100
AcDb2dVertex
 10
-215.5435791207
 20
896.5265744053
  0
SEQEND
  5
301
100
AcDbEntity
  8
レイヤ1
  0
POLYLINE
  5
302
100
AcDbEntity
  8
レイヤ1
  6
CONTINUOUS
 62
     0
100
AcDb2dPolyline
 66
     1
 10
0
 20
0
 70
     0
  0
VERTEX
  5
303
100
AcDbEntity
  8
レイヤ1
100
AcDbVertex
100
AcDb2dVertex
 10
-251.9165580974
 20
938.2881428599
  0
VERTEX
  5
304
100
AcDbEntity
  8
レイヤ1
100
AcDbVertex
100
AcDb2dVertex
 10
-244.1704607227
 20
912.6923428393
  0
VERTEX
  5
305
100
AcDbEntity
  8
レイヤ1
100
AcDbVertex
100
AcDb2dVertex
 10
-237.0979370328
 20
900.2312296714
  0
SEQEND
  5
306
100
AcDbEntity
  8
レイヤ1
  0
POLYLINE
  5
307
100
AcDbEntity
  8
レイヤ1
  6
CONTINUOUS
 62
     0
100
AcDb2dPolyline
 66
     1
 10
0
 20
0
 70
     0
  0
VERTEX
  5
308
100
AcDbEntity
  8
レイヤ1
100
AcDbVertex
100
AcDb2dVertex
 10
-228.6782659734
 20
695.4648295067
  0
VERTEX
  5
309
100
AcDbEntity
  8
レイヤ1
100
AcDbVertex
100
AcDb2dVertex
 10
-211.1653501698
 20
709.6098768865
  0
VERTEX
  5
30A
100
AcDbEntity
  8
レイヤ1
100
AcDbVertex
100
AcDb2dVertex
 10
-182.2016817255
 20
748.0035769174
  0
VERTEX
  5
30B
100
AcDbEntity
  8
レイヤ1
100
AcDbVertex
100
AcDb2dVertex
 10
-161.3208974982
 20
790.7755058992
  0
VERTEX
  5
30C
100
AcDbEntity
  8
レイヤ1
100
AcDbVertex
100
AcDb2dVertex
 10
-129.2363419996
 20
907.312512078
  0
SEQEND
  5
30D
100
AcDbEntity
  8
レイヤ1
  0
POLYLINE
  5
30E
100
AcDbEntity
  8
レイヤ1
  6
CONTINUOUS
 62
     0
100
AcDb2dPolyline
 66
     1
 10
0
 20
0
 70
     0
  0
VERTEX
  5
30F
100
AcDbEntity
  8
レイヤ1
100
AcDbVertex
100
AcDb2dVertex
 10
-97.66818428908
 20
1037.977048203
  0
VERTEX
  5
310
100
AcDbEntity
  8
レイヤ1
100
AcDbVertex
100
AcDb2dVertex
 10
-129.3261474724
 20
1009.686953444
  0
VERTEX
  5
311
100
AcDbEntity
  8
レイヤ1
100
AcDbVertex
100
AcDb2dVertex
 10
-158.2898159168
 20
982.7440060536
  0
VERTEX
  5
312
100
AcDbEntity
  8
レイヤ1
100
AcDbVertex
100
AcDb2dVertex
 10
-194.9995817358
 20
950.0756823431
  0
VERTEX
  5
313
100
AcDbEntity
  8
レイヤ1
100
AcDbVertex
100
AcDb2dVertex
 10
-229.3518396581
 20
918.0809323174
  0
VERTEX
  5
314
100
AcDbEntity
  8
レイヤ1
100
AcDbVertex
100
AcDb2dVertex
 10
-237.0979370328
 20
907.6405402037
  0
VERTEX
  5
315
100
AcDbEntity
  8
レイヤ1
100
AcDbVertex
100
AcDb2dVertex
 10
-238.1082975599
 20
903.9358849376
  0
VERTEX
  5
316
100
AcDbEntity
  8
レイヤ1
100
AcDbVertex
100
AcDb2dVertex
 10
-237.0979370328
 20
900.2312296714
  0
VERTEX
  5
317
100
AcDbEntity
  8
レイヤ1
100
AcDbVertex
100
AcDb2dVertex
 10
-227.6679054463
 20
892.1483454544
  0
VERTEX
  5
318
100
AcDbEntity
  8
レイヤ1
100
AcDbVertex
100
AcDb2dVertex
 10
-222.2793159683
 20
890.4644112425
  0
VERTEX
  5
319
100
AcDbEntity
  8
レイヤ1
100
AcDbVertex
100
AcDb2dVertex
 10
-198.0306633172
 20
888.4436901883
  0
VERTEX
  5
31A
100
AcDbEntity
  8
レイヤ1
100
AcDbVertex
100
AcDb2dVertex
 10
-179.0270516539
 20
886.472658996
  0
VERTEX
  5
31B
100
AcDbEntity
  8
レイヤ1
100
AcDbVertex
100
AcDb2dVertex
 10
-174.1187975085
 20
887.4333296611
  0
VERTEX
  5
31C
100
AcDbEntity
  8
レイヤ1
100
AcDbVertex
100
AcDb2dVertex
 10
-163.6784053948
 20
895.5162138781
  0
VERTEX
  5
31D
100
AcDbEntity
  8
レイヤ1
100
AcDbVertex
100
AcDb2dVertex
 10
-133.3130068858
 20
931.4025939342
  0
SEQEND
  5
31E
100
AcDbEntity
  8
レイヤ1
  0
POLYLINE
  5
31F
100
AcDbEntity
  8
レイヤ1
  6
CONTINUOUS
 62
     0
100
AcDb2dPolyline
 66
     1
 10
0
 20
0
 70
     0
  0
VERTEX
  5
320
100
AcDbEntity
  8
レイヤ1
100
AcDbVertex
100
AcDb2dVertex
 10
-133.3130068858
 20
931.4025939342
  0
VERTEX
  5
321
100
AcDbEntity
  8
レイヤ1
100
AcDbVertex
100
AcDb2dVertex
 10
-93.62674218057
 20
982.7440060536
  0
VERTEX
  5
322
100
AcDbEntity
  8
レイヤ1
100
AcDbVertex
100
AcDb2dVertex
 10
-74.09310532275
 20
1003.961577123
  0
SEQEND
  5
323
100
AcDbEntity
  8
レイヤ1
  0
POLYLINE
  5
324
100
AcDbEntity
  8
レイヤ1
  6
CONTINUOUS
 62
     0
100
AcDb2dPolyline
 66
     1
 10
0
 20
0
 70
     0
  0
VERTEX
  5
325
100
AcDbEntity
  8
レイヤ1
100
AcDbVertex
100
AcDb2dVertex
 10
-96.73235855494
 20
1005.34277125
  0
VERTEX
  5
326
100
AcDbEntity
  8
レイヤ1
100
AcDbVertex
100
AcDb2dVertex
 10
-132.3452666796
 20
939.892021183
  0
VERTEX
  5
327
100
AcDbEntity
  8
レイヤ1
100
AcDbVertex
100
AcDb2dVertex
 10
-149.6704652268
 20
917.2730119687
  0
VERTEX
  5
328
100
AcDbEntity
  8
レイヤ1
100
AcDbVertex
100
AcDb2dVertex
 10
-167.9581748043
 20
896.5790248152
  0
VERTEX
  5
329
100
AcDbEntity
  8
レイヤ1
100
AcDbVertex
100
AcDb2dVertex
 10
-174.2144965019
 20
895.6165137848
  0
VERTEX
  5
32A
100
AcDbEntity
  8
レイヤ1
100
AcDbVertex
100
AcDb2dVertex
 10
-180.4708181995
 20
899.4665579063
  0
VERTEX
  5
32B
100
AcDbEntity
  8
レイヤ1
100
AcDbVertex
100
AcDb2dVertex
 10
-201.1648053531
 20
911.9792013015
  0
VERTEX
  5
32C
100
AcDbEntity
  8
レイヤ1
100
AcDbVertex
100
AcDb2dVertex
 10
-213.196193233
 20
916.7917564535
  0
SEQEND
  5
32D
100
AcDbEntity
  8
レイヤ1
  0
POLYLINE
  5
32E
100
AcDbEntity
  8
レイヤ1
  6
CONTINUOUS
 62
     0
100
AcDb2dPolyline
 66
     1
 10
0
 20
0
 70
     0
  0
VERTEX
  5
32F
100
AcDbEntity
  8
レイヤ1
100
AcDbVertex
100
AcDb2dVertex
 10
-85.73193064245
 20
991.3194047933
  0
VERTEX
  5
330
100
AcDbEntity
  8
レイヤ1
100
AcDbVertex
100
AcDb2dVertex
 10
-87.33735676233
 20
979.2787088941
  0
VERTEX
  5
331
100
AcDbEntity
  8
レイヤ1
100
AcDbVertex
100
AcDb2dVertex
 10
-117.595968554
 20
922.887659646
  0
VERTEX
  5
332
100
AcDbEntity
  8
レイヤ1
100
AcDbVertex
100
AcDb2dVertex
 10
-166.4223648542
 20
857.5565660049
  0
VERTEX
  5
333
100
AcDbEntity
  8
レイヤ1
100
AcDbVertex
100
AcDb2dVertex
 10
-255.1351130616
 20
772.9699921327
  0
VERTEX
  5
334
100
AcDbEntity
  8
レイヤ1
100
AcDbVertex
100
AcDb2dVertex
 10
-266.0616054771
 20
760.8014769277
  0
SEQEND
  5
335
100
AcDbEntity
  8
レイヤ1
  0
POLYLINE
  5
336
100
AcDbEntity
  8
レイヤ1
  6
CONTINUOUS
 62
     0
100
AcDb2dPolyline
 66
     1
 10
0
 20
0
 70
     0
  0
VERTEX
  5
337
100
AcDbEntity
  8
レイヤ1
100
AcDbVertex
100
AcDb2dVertex
 10
-215.2487611544
 20
1343.757441839
  0
VERTEX
  5
338
100
AcDbEntity
  8
レイヤ1
100
AcDbVertex
100
AcDb2dVertex
 10
-220.7503269347
 20
1321.063482996
  0
VERTEX
  5
339
100
AcDbEntity
  8
レイヤ1
100
AcDbVertex
100
AcDb2dVertex
 10
-234.5042413855
 20
1305.246481377
  0
VERTEX
  5
33A
100
AcDbEntity
  8
レイヤ1
100
AcDbVertex
100
AcDb2dVertex
 10
-179.4885835824
 20
1213.78295028
  0
VERTEX
  5
33B
100
AcDbEntity
  8
レイヤ1
100
AcDbVertex
100
AcDb2dVertex
 10
-140.2899273978
 20
1149.827248084
  0
VERTEX
  5
33C
100
AcDbEntity
  8
レイヤ1
100
AcDbVertex
100
AcDb2dVertex
 10
-113.4697942188
 20
1102.376243228
  0
VERTEX
  5
33D
100
AcDbEntity
  8
レイヤ1
100
AcDbVertex
100
AcDb2dVertex
 10
-106.7401220307
 20
1085.810896304
  0
SEQEND
  5
33E
100
AcDbEntity
  8
レイヤ1
  0
LINE
  5
33F
100
AcDbEntity
  8
レイヤ1
  6
CONTINUOUS
 62
     0
100
AcDbLine
 10
-129.2363419996
 20
907.312512078
 11
-135.47605734
 21
821.1086927104
  0
LINE
  5
340
100
AcDbEntity
  8
レイヤ1
  6
CONTINUOUS
 62
     0
100
AcDbLine
 10
-135.47605734
 20
821.1086927104
 11
-143.7284060104
 21
704.2004198789
  0
LINE
  5
341
100
AcDbEntity
  8
レイヤ1
  6
CONTINUOUS
 62
     0
100
AcDbLine
 10
-143.7284060104
 20
704.2004198789
 11
-150.6053632358
 21
539.8411421923
  0
LINE
  5
342
100
AcDbEntity
  8
レイヤ1
  6
CONTINUOUS
 62
     0
100
AcDbLine
 10
-150.6053632358
 20
539.8411421923
 11
-107.9682284385
 21
535.7149678571
  0
LINE
  5
343
100
AcDbEntity
  8
レイヤ1
  6
CONTINUOUS
 62
     0
100
AcDbLine
 10
-107.9682284385
 20
535.7149678571
 11
-83.2111824271
 21
532.964184967
  0
LINE
  5
344
100
AcDbEntity
  8
レイヤ1
  6
CONTINUOUS
 62
     0
100
AcDbLine
 10
-83.2111824271
 20
532.964184967
 11
-80.46039953695
 21
535.0272721346
  0
LINE
  5
345
100
AcDbEntity
  8
レイヤ1
  6
CONTINUOUS
 62
     0
100
AcDbLine
 10
-80.46039953695
 20
535.0272721346
 11
-74.27113803411
 21
715.8912471621
  0
LINE
  5
346
100
AcDbEntity
  8
レイヤ1
  6
CONTINUOUS
 62
     0
100
AcDbLine
 10
-74.27113803411
 20
715.8912471621
 11
-66.01878936365
 21
911.1968323629
  0
LINE
  5
347
100
AcDbEntity
  8
レイヤ1
  6
CONTINUOUS
 62
     0
100
AcDbLine
 10
-66.01878936365
 20
911.1968323629
 11
-61.20491930588
 21
994.40801479
  0
POLYLINE
  5
348
100
AcDbEntity
  8
レイヤ1
  6
CONTINUOUS
 62
     0
100
AcDb2dPolyline
 66
     1
 10
0
 20
0
 70
     0
  0
VERTEX
  5
349
100
AcDbEntity
  8
レイヤ1
100
AcDbVertex
100
AcDb2dVertex
 10
-223.6264633378
 20
587.6930399464
  0
VERTEX
  5
34A
100
AcDbEntity
  8
レイヤ1
100
AcDbVertex
100
AcDb2dVertex
 10
-196.4380754673
 20
574.6349747506
  0
VERTEX
  5
34B
100
AcDbEntity
  8
レイヤ1
100
AcDbVertex
100
AcDb2dVertex
 10
-170.3782804011
 20
564.4089792183
  0
VERTEX
  5
34C
100
AcDbEntity
  8
レイヤ1
100
AcDbVertex
100
AcDb2dVertex
 10
-149.7459889103
 20
560.3801885722
  0
SEQEND
  5
34D
100
AcDbEntity
  8
レイヤ1
  0
POLYLINE
  5
34E
100
AcDbEntity
  8
レイヤ1
  6
CONTINUOUS
 62
     0
100
AcDb2dPolyline
 66
     1
 10
0
 20
0
 70
     0
  0
VERTEX
  5
34F
100
AcDbEntity
  8
レイヤ1
100
AcDbVertex
100
AcDb2dVertex
 10
-176.5729245812
 20
886.9529943286
  0
VERTEX
  5
350
100
AcDbEntity
  8
レイヤ1
100
AcDbVertex
100
AcDb2dVertex
 10
-204.0523384442
 20
849.4159843257
  0
VERTEX
  5
351
100
AcDbEntity
  8
レイヤ1
100
AcDbVertex
100
AcDb2dVertex
 10
-237.6173873782
 20
802.0872687116
  0
SEQEND
  5
352
100
AcDbEntity
  8
レイヤ1
  0
POLYLINE
  5
353
100
AcDbEntity
  8
レイヤ1
  6
CONTINUOUS
 62
     0
100
AcDb2dPolyline
 66
     1
 10
0
 20
0
 70
     0
  0
VERTEX
  5
354
100
AcDbEntity
  8
レイヤ1
100
AcDbVertex
100
AcDb2dVertex
 10
96.82621718314
 20
1471.926894605
  0
VERTEX
  5
355
100
AcDbEntity
  8
レイヤ1
100
AcDbVertex
100
AcDb2dVertex
 10
102.7199869247
 20
1457.950240646
  0
VERTEX
  5
356
100
AcDbEntity
  8
レイヤ1
100
AcDbVertex
100
AcDb2dVertex
 10
103.3935606095
 20
1444.815553794
  0
VERTEX
  5
357
100
AcDbEntity
  8
レイヤ1
100
AcDbVertex
100
AcDb2dVertex
 10
114.8443132503
 20
1423.261195882
  0
VERTEX
  5
358
100
AcDbEntity
  8
レイヤ1
100
AcDbVertex
100
AcDb2dVertex
 10
119.2225422012
 20
1418.209393246
  0
VERTEX
  5
359
100
AcDbEntity
  8
レイヤ1
100
AcDbVertex
100
AcDb2dVertex
 10
128.9893606301
 20
1367.691366889
  0
VERTEX
  5
35A
100
AcDbEntity
  8
レイヤ1
100
AcDbVertex
100
AcDb2dVertex
 10
129.4577335884
 20
1347.515442556
  0
VERTEX
  5
35B
100
AcDbEntity
  8
レイヤ1
100
AcDbVertex
100
AcDb2dVertex
 10
125.6076894669
 20
1315.752578553
  0
VERTEX
  5
35C
100
AcDbEntity
  8
レイヤ1
100
AcDbVertex
100
AcDb2dVertex
 10
117.9076012237
 20
1264.739493942
  0
VERTEX
  5
35D
100
AcDbEntity
  8
レイヤ1
100
AcDbVertex
100
AcDb2dVertex
 10
113.0950460717
 20
1218.538964483
  0
VERTEX
  5
35E
100
AcDbEntity
  8
レイヤ1
100
AcDbVertex
100
AcDb2dVertex
 10
98.17612510053
 20
1160.788302659
  0
VERTEX
  5
35F
100
AcDbEntity
  8
レイヤ1
100
AcDbVertex
100
AcDb2dVertex
 10
93.36356994855
 20
1141.056826536
  0
VERTEX
  5
360
100
AcDbEntity
  8
レイヤ1
100
AcDbVertex
100
AcDb2dVertex
 10
90.0322026889
 20
1138.600971702
  0
VERTEX
  5
361
100
AcDbEntity
  8
レイヤ1
100
AcDbVertex
100
AcDb2dVertex
 10
87.91057449543
 20
1136.240051968
  0
VERTEX
  5
362
100
AcDbEntity
  8
レイヤ1
100
AcDbVertex
100
AcDb2dVertex
 10
87.74563908362
 20
1132.77640832
  0
VERTEX
  5
363
100
AcDbEntity
  8
レイヤ1
100
AcDbVertex
100
AcDb2dVertex
 10
94.50799096788
 20
1128.323152201
  0
VERTEX
  5
364
100
AcDbEntity
  8
レイヤ1
100
AcDbVertex
100
AcDb2dVertex
 10
94.30031586532
 20
1081.759337712
  0
VERTEX
  5
365
100
AcDbEntity
  8
レイヤ1
100
AcDbVertex
100
AcDb2dVertex
 10
94.97388955007
 20
1009.013379759
  0
SEQEND
  5
366
100
AcDbEntity
  8
レイヤ1
  0
POLYLINE
  5
367
100
AcDbEntity
  8
レイヤ1
  6
CONTINUOUS
 62
     0
100
AcDb2dPolyline
 66
     1
 10
0
 20
0
 70
     0
  0
VERTEX
  5
368
100
AcDbEntity
  8
レイヤ1
100
AcDbVertex
100
AcDb2dVertex
 10
109.1189369299
 20
1434.038374838
  0
VERTEX
  5
369
100
AcDbEntity
  8
レイヤ1
100
AcDbVertex
100
AcDb2dVertex
 10
107.8012354045
 20
1427.885113595
  0
VERTEX
  5
36A
100
AcDbEntity
  8
レイヤ1
100
AcDbVertex
100
AcDb2dVertex
 10
44.27550739828
 20
1299.871146552
  0
VERTEX
  5
36B
100
AcDbEntity
  8
レイヤ1
100
AcDbVertex
100
AcDb2dVertex
 10
-23.10026472954
 20
1170.894668478
  0
VERTEX
  5
36C
100
AcDbEntity
  8
レイヤ1
100
AcDbVertex
100
AcDb2dVertex
 10
-52.21622339906
 20
1117.475306291
  0
SEQEND
  5
36D
100
AcDbEntity
  8
レイヤ1
  0
POLYLINE
  5
36E
100
AcDbEntity
  8
レイヤ1
  6
CONTINUOUS
 62
     0
100
AcDb2dPolyline
 66
     1
 10
0
 20
0
 70
     0
  0
VERTEX
  5
36F
100
AcDbEntity
  8
レイヤ1
100
AcDbVertex
100
AcDb2dVertex
 10
-23.10026472954
 20
1170.894668478
  0
VERTEX
  5
370
100
AcDbEntity
  8
レイヤ1
100
AcDbVertex
100
AcDb2dVertex
 10
-42.83174085268
 20
1182.926056358
  0
VERTEX
  5
371
100
AcDbEntity
  8
レイヤ1
100
AcDbVertex
100
AcDb2dVertex
 10
-54.75822794315
 20
1189.081662599
  0
SEQEND
  5
372
100
AcDbEntity
  8
レイヤ1
  0
POLYLINE
  5
373
100
AcDbEntity
  8
レイヤ1
  6
CONTINUOUS
 62
     0
100
AcDb2dPolyline
 66
     1
 10
0
 20
0
 70
     0
  0
VERTEX
  5
374
100
AcDbEntity
  8
レイヤ1
100
AcDbVertex
100
AcDb2dVertex
 10
114.8443132503
 20
1423.261195882
  0
VERTEX
  5
375
100
AcDbEntity
  8
レイヤ1
100
AcDbVertex
100
AcDb2dVertex
 10
76.33422520172
 20
1331.378918834
  0
VERTEX
  5
376
100
AcDbEntity
  8
レイヤ1
100
AcDbVertex
100
AcDb2dVertex
 10
58.45413641573
 20
1291.492566926
  0
VERTEX
  5
377
100
AcDbEntity
  8
レイヤ1
100
AcDbVertex
100
AcDb2dVertex
 10
46.07561341005
 20
1245.416953516
  0
SEQEND
  5
378
100
AcDbEntity
  8
レイヤ1
  0
POLYLINE
  5
379
100
AcDbEntity
  8
レイヤ1
  6
CONTINUOUS
 62
     0
100
AcDb2dPolyline
 66
     1
 10
0
 20
0
 70
     0
  0
VERTEX
  5
37A
100
AcDbEntity
  8
レイヤ1
100
AcDbVertex
100
AcDb2dVertex
 10
134.7147369505
 20
1447.509848533
  0
VERTEX
  5
37B
100
AcDbEntity
  8
レイヤ1
100
AcDbVertex
100
AcDb2dVertex
 10
141.450473798
 20
1445.152340636
  0
VERTEX
  5
37C
100
AcDbEntity
  8
レイヤ1
100
AcDbVertex
100
AcDb2dVertex
 10
145.1551290641
 20
1441.44768537
  0
VERTEX
  5
37D
100
AcDbEntity
  8
レイヤ1
100
AcDbVertex
100
AcDb2dVertex
 10
147.8494238031
 20
1431.007293256
  0
VERTEX
  5
37E
100
AcDbEntity
  8
レイヤ1
100
AcDbVertex
100
AcDb2dVertex
 10
158.9633896015
 20
1356.914187933
  0
VERTEX
  5
37F
100
AcDbEntity
  8
レイヤ1
100
AcDbVertex
100
AcDb2dVertex
 10
162.6680448677
 20
1324.245864223
  0
VERTEX
  5
380
100
AcDbEntity
  8
レイヤ1
100
AcDbVertex
100
AcDb2dVertex
 10
163.0048317101
 20
1215.463714135
  0
VERTEX
  5
381
100
AcDbEntity
  8
レイヤ1
100
AcDbVertex
100
AcDb2dVertex
 10
155.9267869244
 20
1097.262574653
  0
VERTEX
  5
382
100
AcDbEntity
  8
レイヤ1
100
AcDbVertex
100
AcDb2dVertex
 10
154.0017648636
 20
1070.793521317
  0
SEQEND
  5
383
100
AcDbEntity
  8
レイヤ1
  0
POLYLINE
  5
384
100
AcDbEntity
  8
レイヤ1
  6
CONTINUOUS
 62
     0
100
AcDb2dPolyline
 66
     1
 10
0
 20
0
 70
     0
  0
VERTEX
  5
385
100
AcDbEntity
  8
レイヤ1
100
AcDbVertex
100
AcDb2dVertex
 10
155.9267869244
 20
1097.262574653
  0
VERTEX
  5
386
100
AcDbEntity
  8
レイヤ1
100
AcDbVertex
100
AcDb2dVertex
 10
175.6582630475
 20
1117.475306291
  0
VERTEX
  5
387
100
AcDbEntity
  8
レイヤ1
100
AcDbVertex
100
AcDb2dVertex
 10
198.7585277771
 20
1151.64444787
  0
SEQEND
  5
388
100
AcDbEntity
  8
レイヤ1
  0
POLYLINE
  5
389
100
AcDbEntity
  8
レイヤ1
  6
CONTINUOUS
 62
     0
100
AcDb2dPolyline
 66
     1
 10
0
 20
0
 70
     0
  0
VERTEX
  5
38A
100
AcDbEntity
  8
レイヤ1
100
AcDbVertex
100
AcDb2dVertex
 10
231.0657627728
 20
1402.899273978
  0
VERTEX
  5
38B
100
AcDbEntity
  8
レイヤ1
100
AcDbVertex
100
AcDb2dVertex
 10
226.9395884375
 20
1399.460795365
  0
VERTEX
  5
38C
100
AcDbEntity
  8
レイヤ1
100
AcDbVertex
100
AcDb2dVertex
 10
220.0626312122
 20
1309.372655712
  0
VERTEX
  5
38D
100
AcDbEntity
  8
レイヤ1
100
AcDbVertex
100
AcDb2dVertex
 10
213.8733697093
 20
1279.114043921
  0
VERTEX
  5
38E
100
AcDbEntity
  8
レイヤ1
100
AcDbVertex
100
AcDb2dVertex
 10
213.1856739868
 20
1254.356997909
  0
VERTEX
  5
38F
100
AcDbEntity
  8
レイヤ1
100
AcDbVertex
100
AcDb2dVertex
 10
198.7585277771
 20
1151.64444787
  0
VERTEX
  5
390
100
AcDbEntity
  8
レイヤ1
100
AcDbVertex
100
AcDb2dVertex
 10
198.0563680909
 20
1144.325682303
  0
SEQEND
  5
391
100
AcDbEntity
  8
レイヤ1
  0
POLYLINE
  5
392
100
AcDbEntity
  8
レイヤ1
  6
CONTINUOUS
 62
     0
100
AcDb2dPolyline
 66
     1
 10
0
 20
0
 70
     0
  0
VERTEX
  5
393
100
AcDbEntity
  8
レイヤ1
100
AcDbVertex
100
AcDb2dVertex
 10
273.1880652533
 20
1326.632690978
  0
VERTEX
  5
394
100
AcDbEntity
  8
レイヤ1
100
AcDbVertex
100
AcDb2dVertex
 10
279.0842105465
 20
1302.065418923
  0
VERTEX
  5
395
100
AcDbEntity
  8
レイヤ1
100
AcDbVertex
100
AcDb2dVertex
 10
251.5688658447
 20
1213.623239524
  0
SEQEND
  5
396
100
AcDbEntity
  8
レイヤ1
  0
POLYLINE
  5
397
100
AcDbEntity
  8
レイヤ1
  6
CONTINUOUS
 62
     0
100
AcDb2dPolyline
 66
     1
 10
0
 20
0
 70
     0
  0
VERTEX
  5
398
100
AcDbEntity
  8
レイヤ1
100
AcDbVertex
100
AcDb2dVertex
 10
291.8591920152
 20
1283.394292161
  0
VERTEX
  5
399
100
AcDbEntity
  8
レイヤ1
100
AcDbVertex
100
AcDb2dVertex
 10
295.0096308168
 20
1285.914736611
  0
VERTEX
  5
39A
100
AcDbEntity
  8
レイヤ1
100
AcDbVertex
100
AcDb2dVertex
 10
300.303441484
 20
1283.98971455
  0
VERTEX
  5
39B
100
AcDbEntity
  8
レイヤ1
100
AcDbVertex
100
AcDb2dVertex
 10
296.9346528776
 20
1278.695903883
  0
VERTEX
  5
39C
100
AcDbEntity
  8
レイヤ1
100
AcDbVertex
100
AcDb2dVertex
 10
287.7907980888
 20
1244.526762304
  0
VERTEX
  5
39D
100
AcDbEntity
  8
レイヤ1
100
AcDbVertex
100
AcDb2dVertex
 10
266.6155554201
 20
1224.795286181
  0
VERTEX
  5
39E
100
AcDbEntity
  8
レイヤ1
100
AcDbVertex
100
AcDb2dVertex
 10
244.4778017209
 20
1199.288743875
  0
VERTEX
  5
39F
100
AcDbEntity
  8
レイヤ1
100
AcDbVertex
100
AcDb2dVertex
 10
211.2711711722
 20
1161.269558174
  0
VERTEX
  5
3A0
100
AcDbEntity
  8
レイヤ1
100
AcDbVertex
100
AcDb2dVertex
 10
198.0563680909
 20
1144.325682303
  0
VERTEX
  5
3A1
100
AcDbEntity
  8
レイヤ1
100
AcDbVertex
100
AcDb2dVertex
 10
174.6957520171
 20
1105.925173927
  0
VERTEX
  5
3A2
100
AcDbEntity
  8
レイヤ1
100
AcDbVertex
100
AcDb2dVertex
 10
162.6643641372
 20
1085.231186773
  0
VERTEX
  5
3A3
100
AcDbEntity
  8
レイヤ1
100
AcDbVertex
100
AcDb2dVertex
 10
154.0017648636
 20
1070.793521317
  0
VERTEX
  5
3A4
100
AcDbEntity
  8
レイヤ1
100
AcDbVertex
100
AcDb2dVertex
 10
122.7201563757
 20
1038.068146284
  0
VERTEX
  5
3A5
100
AcDbEntity
  8
レイヤ1
100
AcDbVertex
100
AcDb2dVertex
 10
101.0636581917
 20
1014.486626039
  0
VERTEX
  5
3A6
100
AcDbEntity
  8
レイヤ1
100
AcDbVertex
100
AcDb2dVertex
 10
111.6512795261
 20
1020.261692221
  0
VERTEX
  5
3A7
100
AcDbEntity
  8
レイヤ1
100
AcDbVertex
100
AcDb2dVertex
 10
116.9450901933
 20
1020.261692221
  0
VERTEX
  5
3A8
100
AcDbEntity
  8
レイヤ1
100
AcDbVertex
100
AcDb2dVertex
 10
134.7515442556
 20
1014.486626039
  0
VERTEX
  5
3A9
100
AcDbEntity
  8
レイヤ1
100
AcDbVertex
100
AcDb2dVertex
 10
161.7018531068
 20
996.6801719765
  0
VERTEX
  5
3AA
100
AcDbEntity
  8
レイヤ1
100
AcDbVertex
100
AcDb2dVertex
 10
172.7707299563
 20
989.9425947637
  0
VERTEX
  5
3AB
100
AcDbEntity
  8
レイヤ1
100
AcDbVertex
100
AcDb2dVertex
 10
216.5649818394
 20
962.5110303974
  0
VERTEX
  5
3AC
100
AcDbEntity
  8
レイヤ1
100
AcDbVertex
100
AcDb2dVertex
 10
296.9346528776
 20
907.1666461495
  0
VERTEX
  5
3AD
100
AcDbEntity
  8
レイヤ1
100
AcDbVertex
100
AcDb2dVertex
 10
302.2284635448
 20
901.3915799671
  0
VERTEX
  5
3AE
100
AcDbEntity
  8
レイヤ1
100
AcDbVertex
100
AcDb2dVertex
 10
305.9209400267
 20
897.9651629442
  0
VERTEX
  5
3AF
100
AcDbEntity
  8
レイヤ1
100
AcDbVertex
100
AcDb2dVertex
 10
307.4863870894
 20
891.811558612
  0
SEQEND
  5
3B0
100
AcDbEntity
  8
レイヤ1
  0
POLYLINE
  5
3B1
100
AcDbEntity
  8
レイヤ1
  6
CONTINUOUS
 62
     0
100
AcDb2dPolyline
 66
     1
 10
0
 20
0
 70
     1
  0
VERTEX
  5
3B2
100
AcDbEntity
  8
レイヤ1
100
AcDbVertex
100
AcDb2dVertex
 10
-240.0058071658
 20
1138.1364208
  0
VERTEX
  5
3B3
100
AcDbEntity
  8
レイヤ1
100
AcDbVertex
100
AcDb2dVertex
 10
-248.9458515588
 20
1137.448725078
  0
VERTEX
  5
3B4
100
AcDbEntity
  8
レイヤ1
100
AcDbVertex
100
AcDb2dVertex
 10
-256.5105045067
 20
1131.259463575
  0
VERTEX
  5
3B5
100
AcDbEntity
  8
レイヤ1
100
AcDbVertex
100
AcDb2dVertex
 10
-262.6997660095
 20
1120.256332014
  0
VERTEX
  5
3B6
100
AcDbEntity
  8
レイヤ1
100
AcDbVertex
100
AcDb2dVertex
 10
-264.7628531771
 20
1109.253200454
  0
VERTEX
  5
3B7
100
AcDbEntity
  8
レイヤ1
100
AcDbVertex
100
AcDb2dVertex
 10
-262.012070287
 20
1101.000851783
  0
VERTEX
  5
3B8
100
AcDbEntity
  8
レイヤ1
100
AcDbVertex
100
AcDb2dVertex
 10
-256.5105045067
 20
1097.562373171
  0
VERTEX
  5
3B9
100
AcDbEntity
  8
レイヤ1
100
AcDbVertex
100
AcDb2dVertex
 10
-252.3843301715
 20
1097.562373171
  0
VERTEX
  5
3BA
100
AcDbEntity
  8
レイヤ1
100
AcDbVertex
100
AcDb2dVertex
 10
-246.1950686686
 20
1107.190113286
  0
VERTEX
  5
3BB
100
AcDbEntity
  8
レイヤ1
100
AcDbVertex
100
AcDb2dVertex
 10
-242.1497396684
 20
1117.121956162
  0
VERTEX
  5
3BC
100
AcDbEntity
  8
レイヤ1
100
AcDbVertex
100
AcDb2dVertex
 10
-238.4450844023
 20
1122.51054564
  0
VERTEX
  5
3BD
100
AcDbEntity
  8
レイヤ1
100
AcDbVertex
100
AcDb2dVertex
 10
-236.7611501904
 20
1129.919856172
  0
VERTEX
  5
3BE
100
AcDbEntity
  8
レイヤ1
100
AcDbVertex
100
AcDb2dVertex
 10
-237.7715107176
 20
1135.30844565
  0
SEQEND
  5
3BF
100
AcDbEntity
  8
レイヤ1
  0
POLYLINE
  5
3C0
100
AcDbEntity
  8
レイヤ1
  6
CONTINUOUS
 62
     0
100
AcDb2dPolyline
 66
     1
 10
0
 20
0
 70
     1
  0
VERTEX
  5
3C1
100
AcDbEntity
  8
レイヤ1
100
AcDbVertex
100
AcDb2dVertex
 10
300.303441484
 20
1121.806605928
  0
VERTEX
  5
3C2
100
AcDbEntity
  8
レイヤ1
100
AcDbVertex
100
AcDb2dVertex
 10
295.490886332
 20
1120.844094898
  0
VERTEX
  5
3C3
100
AcDbEntity
  8
レイヤ1
100
AcDbVertex
100
AcDb2dVertex
 10
291.1595866952
 20
1113.144006655
  0
VERTEX
  5
3C4
100
AcDbEntity
  8
レイヤ1
100
AcDbVertex
100
AcDb2dVertex
 10
289.2345646344
 20
1102.075129805
  0
VERTEX
  5
3C5
100
AcDbEntity
  8
レイヤ1
100
AcDbVertex
100
AcDb2dVertex
 10
289.2345646344
 20
1087.156208834
  0
VERTEX
  5
3C6
100
AcDbEntity
  8
レイヤ1
100
AcDbVertex
100
AcDb2dVertex
 10
290.67833118
 20
1082.343653682
  0
VERTEX
  5
3C7
100
AcDbEntity
  8
レイヤ1
100
AcDbVertex
100
AcDb2dVertex
 10
295.9721418472
 20
1080.418631621
  0
VERTEX
  5
3C8
100
AcDbEntity
  8
レイヤ1
100
AcDbVertex
100
AcDb2dVertex
 10
298.8596749384
 20
1080.899887136
  0
VERTEX
  5
3C9
100
AcDbEntity
  8
レイヤ1
100
AcDbVertex
100
AcDb2dVertex
 10
300.303441484
 20
1083.787420227
  0
VERTEX
  5
3CA
100
AcDbEntity
  8
レイヤ1
100
AcDbVertex
100
AcDb2dVertex
 10
303.1909745752
 20
1100.150107744
  0
VERTEX
  5
3CB
100
AcDbEntity
  8
レイヤ1
100
AcDbVertex
100
AcDb2dVertex
 10
303.1909745752
 20
1115.069028715
  0
SEQEND
  5
3CC
100
AcDbEntity
  8
レイヤ1
  0
POLYLINE
  5
3CD
100
AcDbEntity
  8
レイヤ1
  6
CONTINUOUS
 62
     0
100
AcDb2dPolyline
 66
     1
 10
0
 20
0
 70
     0
  0
VERTEX
  5
3CE
100
AcDbEntity
  8
レイヤ1
100
AcDbVertex
100
AcDb2dVertex
 10
162.6762376526
 20
1321.59959469
  0
VERTEX
  5
3CF
100
AcDbEntity
  8
レイヤ1
100
AcDbVertex
100
AcDb2dVertex
 10
165.0255527643
 20
1320.877995799
  0
VERTEX
  5
3D0
100
AcDbEntity
  8
レイヤ1
100
AcDbVertex
100
AcDb2dVertex
 10
169.7405685576
 20
1315.489406321
  0
VERTEX
  5
3D1
100
AcDbEntity
  8
レイヤ1
100
AcDbVertex
100
AcDb2dVertex
 10
171.7612896118
 20
1308.753669474
  0
VERTEX
  5
3D2
100
AcDbEntity
  8
レイヤ1
100
AcDbVertex
100
AcDb2dVertex
 10
172.0980764542
 20
1299.323637887
  0
VERTEX
  5
3D3
100
AcDbEntity
  8
レイヤ1
100
AcDbVertex
100
AcDb2dVertex
 10
169.7405685576
 20
1293.598261567
  0
VERTEX
  5
3D4
100
AcDbEntity
  8
レイヤ1
100
AcDbVertex
100
AcDb2dVertex
 10
166.7094869762
 20
1289.556819458
  0
VERTEX
  5
3D5
100
AcDbEntity
  8
レイヤ1
100
AcDbVertex
100
AcDb2dVertex
 10
162.7843528443
 20
1286.678387762
  0
SEQEND
  5
3D6
100
AcDbEntity
  8
レイヤ1
  0
POLYLINE
  5
3D7
100
AcDbEntity
  8
レイヤ1
  6
CONTINUOUS
 62
     0
100
AcDb2dPolyline
 66
     1
 10
0
 20
0
 70
     0
  0
VERTEX
  5
3D8
100
AcDbEntity
  8
レイヤ1
100
AcDbVertex
100
AcDb2dVertex
 10
147.745443166
 20
972.1361407013
  0
VERTEX
  5
3D9
100
AcDbEntity
  8
レイヤ1
100
AcDbVertex
100
AcDb2dVertex
 10
176.6207740779
 20
950.4796425174
  0
VERTEX
  5
3DA
100
AcDbEntity
  8
レイヤ1
100
AcDbVertex
100
AcDb2dVertex
 10
183.8396068059
 20
938.9295101526
  0
VERTEX
  5
3DB
100
AcDbEntity
  8
レイヤ1
100
AcDbVertex
100
AcDb2dVertex
 10
197.3147612315
 20
890.8039586328
  0
VERTEX
  5
3DC
100
AcDbEntity
  8
レイヤ1
100
AcDbVertex
100
AcDb2dVertex
 10
202.0721054257
 20
859.1432349015
  0
SEQEND
  5
3DD
100
AcDbEntity
  8
レイヤ1
  0
LINE
  5
3DE
100
AcDbEntity
  8
レイヤ1
  6
CONTINUOUS
 62
     0
100
AcDbLine
 10
187.5902712035
 20
867.5629059609
 11
162.183108622
 21
961.3078916094
  0
POLYLINE
  5
3DF
100
AcDbEntity
  8
レイヤ1
  6
CONTINUOUS
 62
     0
100
AcDb2dPolyline
 66
     1
 10
0
 20
0
 70
     0
  0
VERTEX
  5
3E0
100
AcDbEntity
  8
レイヤ1
100
AcDbVertex
100
AcDb2dVertex
 10
147.745443166
 20
972.1361407013
  0
VERTEX
  5
3E1
100
AcDbEntity
  8
レイヤ1
100
AcDbVertex
100
AcDb2dVertex
 10
148.5422760682
 20
839.6764772189
  0
VERTEX
  5
3E2
100
AcDbEntity
  8
レイヤ1
100
AcDbVertex
100
AcDb2dVertex
 10
149.2299717907
 20
691.8218968732
  0
VERTEX
  5
3E3
100
AcDbEntity
  8
レイヤ1
100
AcDbVertex
100
AcDb2dVertex
 10
152.6684504034
 20
596.2321914405
  0
VERTEX
  5
3E4
100
AcDbEntity
  8
レイヤ1
100
AcDbVertex
100
AcDb2dVertex
 10
155.4192332936
 20
575.6013197643
  0
VERTEX
  5
3E5
100
AcDbEntity
  8
レイヤ1
100
AcDbVertex
100
AcDb2dVertex
 10
156.7946247387
 20
553.5950566431
  0
VERTEX
  5
3E6
100
AcDbEntity
  8
レイヤ1
100
AcDbVertex
100
AcDb2dVertex
 10
136.8514487851
 20
541.90422936
  0
VERTEX
  5
3E7
100
AcDbEntity
  8
レイヤ1
100
AcDbVertex
100
AcDb2dVertex
 10
129.9744915597
 20
541.90422936
  0
VERTEX
  5
3E8
100
AcDbEntity
  8
レイヤ1
100
AcDbVertex
100
AcDb2dVertex
 10
129.2867958371
 20
545.3427079726
  0
VERTEX
  5
3E9
100
AcDbEntity
  8
レイヤ1
100
AcDbVertex
100
AcDb2dVertex
 10
118.9713599991
 20
545.3427079726
  0
VERTEX
  5
3EA
100
AcDbEntity
  8
レイヤ1
100
AcDbVertex
100
AcDb2dVertex
 10
95.58970543278
 20
554.2827523656
  0
VERTEX
  5
3EB
100
AcDbEntity
  8
レイヤ1
100
AcDbVertex
100
AcDb2dVertex
 10
96.96509687786
 20
724.1435958325
  0
VERTEX
  5
3EC
100
AcDbEntity
  8
レイヤ1
100
AcDbVertex
100
AcDb2dVertex
 10
98.34048832294
 20
876.812046236
  0
VERTEX
  5
3ED
100
AcDbEntity
  8
レイヤ1
100
AcDbVertex
100
AcDb2dVertex
 10
94.21431398771
 20
911.8845280854
  0
VERTEX
  5
3EE
100
AcDbEntity
  8
レイヤ1
100
AcDbVertex
100
AcDb2dVertex
 10
94.90200971025
 20
947.6447056574
  0
SEQEND
  5
3EF
100
AcDbEntity
  8
レイヤ1
  0
POLYLINE
  5
3F0
100
AcDbEntity
  8
レイヤ1
  6
CONTINUOUS
 62
     0
100
AcDb2dPolyline
 66
     1
 10
0
 20
0
 70
     0
  0
VERTEX
  5
3F1
100
AcDbEntity
  8
レイヤ1
100
AcDbVertex
100
AcDb2dVertex
 10
155.4192332936
 20
575.6013197643
  0
VERTEX
  5
3F2
100
AcDbEntity
  8
レイヤ1
100
AcDbVertex
100
AcDb2dVertex
 10
190.491715143
 20
577.6644069319
  0
VERTEX
  5
3F3
100
AcDbEntity
  8
レイヤ1
100
AcDbVertex
100
AcDb2dVertex
 10
217.2275133326
 20
584.3251715226
  0
SEQEND
  5
3F4
100
AcDbEntity
  8
レイヤ1
  0
LINE
  5
3F5
100
AcDbEntity
  8
レイヤ1
  6
CONTINUOUS
 62
     0
100
AcDbLine
 10
268.8890275124
 20
876.1243505134
 11
289.6366844435
 21
849.3764164726
  0
POLYLINE
  5
3F6
100
AcDbEntity
  8
レイヤ1
  6
CONTINUOUS
 62
     0
100
AcDb2dPolyline
 66
     1
 10
0
 20
0
 70
     0
  0
VERTEX
  5
3F7
100
AcDbEntity
  8
レイヤ1
100
AcDbVertex
100
AcDb2dVertex
 10
-48.36617927747
 20
1115.790911988
  0
VERTEX
  5
3F8
100
AcDbEntity
  8
レイヤ1
100
AcDbVertex
100
AcDb2dVertex
 10
-43.10871582415
 20
1115.774808792
  0
VERTEX
  5
3F9
100
AcDbEntity
  8
レイヤ1
100
AcDbVertex
100
AcDb2dVertex
 10
-40.07763424276
 20
1112.743727211
  0
VERTEX
  5
3FA
100
AcDbEntity
  8
レイヤ1
100
AcDbVertex
100
AcDb2dVertex
 10
-40.07763424276
 20
1110.049432472
  0
VERTEX
  5
3FB
100
AcDbEntity
  8
レイヤ1
100
AcDbVertex
100
AcDb2dVertex
 10
-38.39370003088
 20
1105.334416678
  0
VERTEX
  5
3FC
100
AcDbEntity
  8
レイヤ1
100
AcDbVertex
100
AcDb2dVertex
 10
-30.9843894986
 20
1103.987269309
  0
VERTEX
  5
3FD
100
AcDbEntity
  8
レイヤ1
100
AcDbVertex
100
AcDb2dVertex
 10
7.072523689899
 20
1074.013240338
  0
SEQEND
  5
3FE
100
AcDbEntity
  8
レイヤ1
  0
POLYLINE
  5
3FF
100
AcDbEntity
  8
レイヤ1
  6
CONTINUOUS
 62
     0
100
AcDb2dPolyline
 66
     1
 10
0
 20
0
 70
     0
  0
VERTEX
  5
400
100
AcDbEntity
  8
レイヤ1
100
AcDbVertex
100
AcDb2dVertex
 10
-51.49434012626
 20
1109.775218048
  0
VERTEX
  5
401
100
AcDbEntity
  8
レイヤ1
100
AcDbVertex
100
AcDb2dVertex
 10
-49.84445267167
 20
1104.660842994
  0
VERTEX
  5
402
100
AcDbEntity
  8
レイヤ1
100
AcDbVertex
100
AcDb2dVertex
 10
-47.15015793266
 20
1103.313695624
  0
VERTEX
  5
403
100
AcDbEntity
  8
レイヤ1
100
AcDbVertex
100
AcDb2dVertex
 10
-41.42478161226
 20
1101.629761412
  0
VERTEX
  5
404
100
AcDbEntity
  8
レイヤ1
100
AcDbVertex
100
AcDb2dVertex
 10
-40.41442108514
 20
1096.241171934
  0
VERTEX
  5
405
100
AcDbEntity
  8
レイヤ1
100
AcDbVertex
100
AcDb2dVertex
 10
-9.093244744156
 20
1070.645371914
  0
SEQEND
  5
406
100
AcDbEntity
  8
レイヤ1
  0
POLYLINE
  5
407
100
AcDbEntity
  8
レイヤ1
  6
CONTINUOUS
 62
     0
100
AcDb2dPolyline
 66
     1
 10
0
 20
0
 70
     0
  0
VERTEX
  5
408
100
AcDbEntity
  8
レイヤ1
100
AcDbVertex
100
AcDb2dVertex
 10
87.74563908362
 20
1132.77640832
  0
VERTEX
  5
409
100
AcDbEntity
  8
レイヤ1
100
AcDbVertex
100
AcDb2dVertex
 10
85.54385796354
 20
1131.940577226
  0
VERTEX
  5
40A
100
AcDbEntity
  8
レイヤ1
100
AcDbVertex
100
AcDb2dVertex
 10
85.54385796354
 20
1126.888774591
  0
VERTEX
  5
40B
100
AcDbEntity
  8
レイヤ1
100
AcDbVertex
100
AcDb2dVertex
 10
83.18635006691
 20
1125.878414063
  0
VERTEX
  5
40C
100
AcDbEntity
  8
レイヤ1
100
AcDbVertex
100
AcDb2dVertex
 10
80.4920553279
 20
1121.836971955
  0
VERTEX
  5
40D
100
AcDbEntity
  8
レイヤ1
100
AcDbVertex
100
AcDb2dVertex
 10
80.4920553279
 20
1116.448382477
  0
VERTEX
  5
40E
100
AcDbEntity
  8
レイヤ1
100
AcDbVertex
100
AcDb2dVertex
 10
75.10346584988
 20
1117.458743004
  0
VERTEX
  5
40F
100
AcDbEntity
  8
レイヤ1
100
AcDbVertex
100
AcDb2dVertex
 10
52.2019605683
 20
1084.790419294
  0
VERTEX
  5
410
100
AcDbEntity
  8
レイヤ1
100
AcDbVertex
100
AcDb2dVertex
 10
48.49730530216
 20
1085.800779821
  0
VERTEX
  5
411
100
AcDbEntity
  8
レイヤ1
100
AcDbVertex
100
AcDb2dVertex
 10
48.49730530216
 20
1087.484714033
  0
VERTEX
  5
412
100
AcDbEntity
  8
レイヤ1
100
AcDbVertex
100
AcDb2dVertex
 10
47.15015793266
 20
1087.484714033
  0
VERTEX
  5
413
100
AcDbEntity
  8
レイヤ1
100
AcDbVertex
100
AcDb2dVertex
 10
46.47658424791
 20
1083.780058766
  0
VERTEX
  5
414
100
AcDbEntity
  8
レイヤ1
100
AcDbVertex
100
AcDb2dVertex
 10
39.74084740038
 20
1083.106485082
  0
VERTEX
  5
415
100
AcDbEntity
  8
レイヤ1
100
AcDbVertex
100
AcDb2dVertex
 10
37.04655266138
 20
1080.748977185
  0
VERTEX
  5
416
100
AcDbEntity
  8
レイヤ1
100
AcDbVertex
100
AcDb2dVertex
 10
36.37297897662
 20
1076.707535077
  0
VERTEX
  5
417
100
AcDbEntity
  8
レイヤ1
100
AcDbVertex
100
AcDb2dVertex
 10
31.32117634098
 20
1079.065042973
  0
VERTEX
  5
418
100
AcDbEntity
  8
レイヤ1
100
AcDbVertex
100
AcDb2dVertex
 10
26.94294739009
 20
1079.065042973
  0
VERTEX
  5
419
100
AcDbEntity
  8
レイヤ1
100
AcDbVertex
100
AcDb2dVertex
 10
26.94294739009
 20
1082.769698239
  0
VERTEX
  5
41A
100
AcDbEntity
  8
レイヤ1
100
AcDbVertex
100
AcDb2dVertex
 10
23.57507896633
 20
1082.432911397
  0
VERTEX
  5
41B
100
AcDbEntity
  8
レイヤ1
100
AcDbVertex
100
AcDb2dVertex
 10
23.23829212395
 20
1079.401829816
  0
VERTEX
  5
41C
100
AcDbEntity
  8
レイヤ1
100
AcDbVertex
100
AcDb2dVertex
 10
21.55435791207
 20
1079.401829816
  0
VERTEX
  5
41D
100
AcDbEntity
  8
レイヤ1
100
AcDbVertex
100
AcDb2dVertex
 10
19.87042370019
 20
1080.748977185
  0
VERTEX
  5
41E
100
AcDbEntity
  8
レイヤ1
100
AcDbVertex
100
AcDb2dVertex
 10
16.83934211881
 20
1079.738616658
  0
VERTEX
  5
41F
100
AcDbEntity
  8
レイヤ1
100
AcDbVertex
100
AcDb2dVertex
 10
16.16576843405
 20
1078.054682446
  0
VERTEX
  5
420
100
AcDbEntity
  8
レイヤ1
100
AcDbVertex
100
AcDb2dVertex
 10
17.51291580356
 20
1075.697174549
  0
VERTEX
  5
421
100
AcDbEntity
  8
レイヤ1
100
AcDbVertex
100
AcDb2dVertex
 10
16.83934211881
 20
1074.35002718
  0
SEQEND
  5
422
100
AcDbEntity
  8
レイヤ1
  0
POLYLINE
  5
423
100
AcDbEntity
  8
レイヤ1
  6
CONTINUOUS
 62
     0
100
AcDb2dPolyline
 66
     1
 10
0
 20
0
 70
     0
  0
VERTEX
  5
424
100
AcDbEntity
  8
レイヤ1
100
AcDbVertex
100
AcDb2dVertex
 10
94.50799096788
 20
1128.323152201
  0
VERTEX
  5
425
100
AcDbEntity
  8
レイヤ1
100
AcDbVertex
100
AcDb2dVertex
 10
93.62674218057
 20
1124.531266694
  0
VERTEX
  5
426
100
AcDbEntity
  8
レイヤ1
100
AcDbVertex
100
AcDb2dVertex
 10
91.26923428393
 20
1124.868053536
  0
VERTEX
  5
427
100
AcDbEntity
  8
レイヤ1
100
AcDbVertex
100
AcDb2dVertex
 10
89.92208691443
 20
1118.469103531
  0
VERTEX
  5
428
100
AcDbEntity
  8
レイヤ1
100
AcDbVertex
100
AcDb2dVertex
 10
87.22779217542
 20
1115.43802195
  0
VERTEX
  5
429
100
AcDbEntity
  8
レイヤ1
100
AcDbVertex
100
AcDb2dVertex
 10
83.85992375166
 20
1115.101235107
  0
VERTEX
  5
42A
100
AcDbEntity
  8
レイヤ1
100
AcDbVertex
100
AcDb2dVertex
 10
85.20707112116
 20
1108.36549826
  0
VERTEX
  5
42B
100
AcDbEntity
  8
レイヤ1
100
AcDbVertex
100
AcDb2dVertex
 10
66.01022110572
 20
1081.085764027
  0
VERTEX
  5
42C
100
AcDbEntity
  8
レイヤ1
100
AcDbVertex
100
AcDb2dVertex
 10
67.02058163285
 20
1078.728256131
  0
VERTEX
  5
42D
100
AcDbEntity
  8
レイヤ1
100
AcDbVertex
100
AcDb2dVertex
 10
70.38845005661
 20
1081.42255087
  0
VERTEX
  5
42E
100
AcDbEntity
  8
レイヤ1
100
AcDbVertex
100
AcDb2dVertex
 10
72.07238426849
 20
1080.748977185
  0
VERTEX
  5
42F
100
AcDbEntity
  8
レイヤ1
100
AcDbVertex
100
AcDb2dVertex
 10
72.07238426849
 20
1079.065042973
  0
VERTEX
  5
430
100
AcDbEntity
  8
レイヤ1
100
AcDbVertex
100
AcDb2dVertex
 10
69.37808952948
 20
1076.370748234
  0
VERTEX
  5
431
100
AcDbEntity
  8
レイヤ1
100
AcDbVertex
100
AcDb2dVertex
 10
74.09310532275
 20
1071.992519283
  0
VERTEX
  5
432
100
AcDbEntity
  8
レイヤ1
100
AcDbVertex
100
AcDb2dVertex
 10
76.45061321938
 20
1071.655732441
  0
VERTEX
  5
433
100
AcDbEntity
  8
レイヤ1
100
AcDbVertex
100
AcDb2dVertex
 10
76.45061321938
 20
1069.298224544
  0
VERTEX
  5
434
100
AcDbEntity
  8
レイヤ1
100
AcDbVertex
100
AcDb2dVertex
 10
79.48169480077
 20
1068.287864017
  0
VERTEX
  5
435
100
AcDbEntity
  8
レイヤ1
100
AcDbVertex
100
AcDb2dVertex
 10
80.15526848552
 20
1065.256782436
  0
VERTEX
  5
436
100
AcDbEntity
  8
レイヤ1
100
AcDbVertex
100
AcDb2dVertex
 10
78.47133427364
 20
1064.583208751
  0
VERTEX
  5
437
100
AcDbEntity
  8
レイヤ1
100
AcDbVertex
100
AcDb2dVertex
 10
80.4920553279
 20
1061.215340327
  0
VERTEX
  5
438
100
AcDbEntity
  8
レイヤ1
100
AcDbVertex
100
AcDb2dVertex
 10
79.14490795839
 20
1058.184258746
  0
VERTEX
  5
439
100
AcDbEntity
  8
レイヤ1
100
AcDbVertex
100
AcDb2dVertex
 10
76.78740006176
 20
1057.173898219
  0
VERTEX
  5
43A
100
AcDbEntity
  8
レイヤ1
100
AcDbVertex
100
AcDb2dVertex
 10
79.48169480077
 20
1054.816390322
  0
VERTEX
  5
43B
100
AcDbEntity
  8
レイヤ1
100
AcDbVertex
100
AcDb2dVertex
 10
81.8392026974
 20
1049.427800844
  0
VERTEX
  5
43C
100
AcDbEntity
  8
レイヤ1
100
AcDbVertex
100
AcDb2dVertex
 10
79.48169480077
 20
1046.733506105
  0
VERTEX
  5
43D
100
AcDbEntity
  8
レイヤ1
100
AcDbVertex
100
AcDb2dVertex
 10
82.84956322453
 20
1046.05993242
  0
VERTEX
  5
43E
100
AcDbEntity
  8
レイヤ1
100
AcDbVertex
100
AcDb2dVertex
 10
84.53349743641
 20
1040.3345561
  0
VERTEX
  5
43F
100
AcDbEntity
  8
レイヤ1
100
AcDbVertex
100
AcDb2dVertex
 10
81.8392026974
 20
1039.324195573
  0
VERTEX
  5
440
100
AcDbEntity
  8
レイヤ1
100
AcDbVertex
100
AcDb2dVertex
 10
81.50241585503
 20
1036.293113991
  0
VERTEX
  5
441
100
AcDbEntity
  8
レイヤ1
100
AcDbVertex
100
AcDb2dVertex
 10
84.19671059403
 20
1035.282753464
  0
VERTEX
  5
442
100
AcDbEntity
  8
レイヤ1
100
AcDbVertex
100
AcDb2dVertex
 10
83.18635006691
 20
1030.567737671
  0
VERTEX
  5
443
100
AcDbEntity
  8
レイヤ1
100
AcDbVertex
100
AcDb2dVertex
 10
81.50241585503
 20
1031.578098198
  0
VERTEX
  5
444
100
AcDbEntity
  8
レイヤ1
100
AcDbVertex
100
AcDb2dVertex
 10
80.4920553279
 20
1029.220590301
  0
VERTEX
  5
445
100
AcDbEntity
  8
レイヤ1
100
AcDbVertex
100
AcDb2dVertex
 10
77.46097374651
 20
1028.210229774
  0
SEQEND
  5
446
100
AcDbEntity
  8
レイヤ1
  0
LINE
  5
447
100
AcDbEntity
  8
レイヤ1
  6
CONTINUOUS
 62
     0
100
AcDbLine
 10
79.14490795839
 20
1025.515935035
 11
94.82108811233
 21
1025.515935035
  0
POLYLINE
  5
448
100
AcDbEntity
  8
レイヤ1
  6
CONTINUOUS
 62
     0
100
AcDb2dPolyline
 66
     1
 10
0
 20
0
 70
     0
  0
VERTEX
  5
449
100
AcDbEntity
  8
レイヤ1
100
AcDbVertex
100
AcDb2dVertex
 10
-35.02583160712
 20
1039.660982415
  0
VERTEX
  5
44A
100
AcDbEntity
  8
レイヤ1
100
AcDbVertex
100
AcDb2dVertex
 10
-36.37297897662
 20
1035.282753464
  0
VERTEX
  5
44B
100
AcDbEntity
  8
レイヤ1
100
AcDbVertex
100
AcDb2dVertex
 10
-35.69940529187
 20
1032.251671883
  0
VERTEX
  5
44C
100
AcDbEntity
  8
レイヤ1
100
AcDbVertex
100
AcDb2dVertex
 10
-29.97402897148
 20
1026.863082405
  0
VERTEX
  5
44D
100
AcDbEntity
  8
レイヤ1
100
AcDbVertex
100
AcDb2dVertex
 10
-26.94294739009
 20
1026.526295562
  0
VERTEX
  5
44E
100
AcDbEntity
  8
レイヤ1
100
AcDbVertex
100
AcDb2dVertex
 10
-21.89114475445
 20
1028.210229774
  0
VERTEX
  5
44F
100
AcDbEntity
  8
レイヤ1
100
AcDbVertex
100
AcDb2dVertex
 10
-4.041442108514
 20
1043.702424524
  0
VERTEX
  5
450
100
AcDbEntity
  8
レイヤ1
100
AcDbVertex
100
AcDb2dVertex
 10
9.430031586532
 20
1048.754227159
  0
VERTEX
  5
451
100
AcDbEntity
  8
レイヤ1
100
AcDbVertex
100
AcDb2dVertex
 10
21.2175710697
 20
1047.40707979
  0
SEQEND
  5
452
100
AcDbEntity
  8
レイヤ1
  0
POLYLINE
  5
453
100
AcDbEntity
  8
レイヤ1
  6
CONTINUOUS
 62
     0
100
AcDb2dPolyline
 66
     1
 10
0
 20
0
 70
     0
  0
VERTEX
  5
454
100
AcDbEntity
  8
レイヤ1
100
AcDbVertex
100
AcDb2dVertex
 10
46.13979740553
 20
1045.723145578
  0
VERTEX
  5
455
100
AcDbEntity
  8
レイヤ1
100
AcDbVertex
100
AcDb2dVertex
 10
39.40406055801
 20
1045.723145578
  0
VERTEX
  5
456
100
AcDbEntity
  8
レイヤ1
100
AcDbVertex
100
AcDb2dVertex
 10
34.01547107999
 20
1048.080653475
  0
VERTEX
  5
457
100
AcDbEntity
  8
レイヤ1
100
AcDbVertex
100
AcDb2dVertex
 10
27.27973423247
 20
1048.754227159
  0
VERTEX
  5
458
100
AcDbEntity
  8
レイヤ1
100
AcDbVertex
100
AcDb2dVertex
 10
21.2175710697
 20
1047.40707979
  0
VERTEX
  5
459
100
AcDbEntity
  8
レイヤ1
100
AcDbVertex
100
AcDb2dVertex
 10
8.419671059403
 20
1041.344916627
  0
VERTEX
  5
45A
100
AcDbEntity
  8
レイヤ1
100
AcDbVertex
100
AcDb2dVertex
 10
1.010360527128
 20
1038.98740873
  0
VERTEX
  5
45B
100
AcDbEntity
  8
レイヤ1
100
AcDbVertex
100
AcDb2dVertex
 10
-13.47147369505
 20
1030.567737671
  0
VERTEX
  5
45C
100
AcDbEntity
  8
レイヤ1
100
AcDbVertex
100
AcDb2dVertex
 10
-24.58543949346
 20
1023.158427139
  0
VERTEX
  5
45D
100
AcDbEntity
  8
レイヤ1
100
AcDbVertex
100
AcDb2dVertex
 10
-26.60616054771
 20
1019.790558715
  0
VERTEX
  5
45E
100
AcDbEntity
  8
レイヤ1
100
AcDbVertex
100
AcDb2dVertex
 10
-27.27973423247
 20
1015.075542922
  0
VERTEX
  5
45F
100
AcDbEntity
  8
レイヤ1
100
AcDbVertex
100
AcDb2dVertex
 10
-25.93258686296
 20
1011.707674498
  0
VERTEX
  5
460
100
AcDbEntity
  8
レイヤ1
100
AcDbVertex
100
AcDb2dVertex
 10
-22.90150528158
 20
1009.686953444
  0
VERTEX
  5
461
100
AcDbEntity
  8
レイヤ1
100
AcDbVertex
100
AcDb2dVertex
 10
-13.80826053742
 20
1009.686953444
  0
VERTEX
  5
462
100
AcDbEntity
  8
レイヤ1
100
AcDbVertex
100
AcDb2dVertex
 10
-6.398950005147
 20
1012.718035025
  0
VERTEX
  5
463
100
AcDbEntity
  8
レイヤ1
100
AcDbVertex
100
AcDb2dVertex
 10
8.082884217027
 20
1022.148066612
  0
VERTEX
  5
464
100
AcDbEntity
  8
レイヤ1
100
AcDbVertex
100
AcDb2dVertex
 10
27.61652107484
 20
1026.526295562
  0
VERTEX
  5
465
100
AcDbEntity
  8
レイヤ1
100
AcDbVertex
100
AcDb2dVertex
 10
35.36261844949
 20
1024.505574508
  0
VERTEX
  5
466
100
AcDbEntity
  8
レイヤ1
100
AcDbVertex
100
AcDb2dVertex
 10
45.80301056315
 20
1023.832000823
  0
VERTEX
  5
467
100
AcDbEntity
  8
レイヤ1
100
AcDbVertex
100
AcDb2dVertex
 10
49.84445267167
 20
1023.495213981
  0
SEQEND
  5
468
100
AcDbEntity
  8
レイヤ1
  0
POLYLINE
  5
469
100
AcDbEntity
  8
レイヤ1
  6
CONTINUOUS
 62
     0
100
AcDb2dPolyline
 66
     1
 10
0
 20
0
 70
     0
  0
VERTEX
  5
46A
100
AcDbEntity
  8
レイヤ1
100
AcDbVertex
100
AcDb2dVertex
 10
40.58281450632
 20
1024.168787666
  0
VERTEX
  5
46B
100
AcDbEntity
  8
レイヤ1
100
AcDbVertex
100
AcDb2dVertex
 10
40.75120792751
 20
1021.811279769
  0
VERTEX
  5
46C
100
AcDbEntity
  8
レイヤ1
100
AcDbVertex
100
AcDb2dVertex
 10
42.43514213939
 20
1019.790558715
  0
SEQEND
  5
46D
100
AcDbEntity
  8
レイヤ1
  0
POLYLINE
  5
46E
100
AcDbEntity
  8
レイヤ1
  6
CONTINUOUS
 62
     0
100
AcDb2dPolyline
 66
     1
 10
0
 20
0
 70
     0
  0
VERTEX
  5
46F
100
AcDbEntity
  8
レイヤ1
100
AcDbVertex
100
AcDb2dVertex
 10
60.95841847008
 20
1020.800919242
  0
VERTEX
  5
470
100
AcDbEntity
  8
レイヤ1
100
AcDbVertex
100
AcDb2dVertex
 10
52.87553425305
 20
1018.780198188
  0
VERTEX
  5
471
100
AcDbEntity
  8
レイヤ1
100
AcDbVertex
100
AcDb2dVertex
 10
42.43514213939
 20
1019.790558715
  0
VERTEX
  5
472
100
AcDbEntity
  8
レイヤ1
100
AcDbVertex
100
AcDb2dVertex
 10
32.33153686811
 20
1018.443411345
  0
VERTEX
  5
473
100
AcDbEntity
  8
レイヤ1
100
AcDbVertex
100
AcDb2dVertex
 10
26.94294739009
 20
1016.085903449
  0
VERTEX
  5
474
100
AcDbEntity
  8
レイヤ1
100
AcDbVertex
100
AcDb2dVertex
 10
13.47147369505
 20
1012.381248183
  0
VERTEX
  5
475
100
AcDbEntity
  8
レイヤ1
100
AcDbVertex
100
AcDb2dVertex
 10
2.357507896633
 20
1005.645511335
  0
VERTEX
  5
476
100
AcDbEntity
  8
レイヤ1
100
AcDbVertex
100
AcDb2dVertex
 10
-7.072523689899
 20
1002.614429754
  0
VERTEX
  5
477
100
AcDbEntity
  8
レイヤ1
100
AcDbVertex
100
AcDb2dVertex
 10
-8.75645790178
 20
999.5833481724
  0
VERTEX
  5
478
100
AcDbEntity
  8
レイヤ1
100
AcDbVertex
100
AcDb2dVertex
 10
-8.75645790178
 20
995.5419060639
  0
VERTEX
  5
479
100
AcDbEntity
  8
レイヤ1
100
AcDbVertex
100
AcDb2dVertex
 10
-6.398950005147
 20
993.5211850096
  0
VERTEX
  5
47A
100
AcDbEntity
  8
レイヤ1
100
AcDbVertex
100
AcDb2dVertex
 10
-0.3367868423761
 20
991.5004639553
  0
VERTEX
  5
47B
100
AcDbEntity
  8
レイヤ1
100
AcDbVertex
100
AcDb2dVertex
 10
13.13468685267
 20
992.8476113249
  0
VERTEX
  5
47C
100
AcDbEntity
  8
レイヤ1
100
AcDbVertex
100
AcDb2dVertex
 10
23.23829212395
 20
997.5626271181
  0
VERTEX
  5
47D
100
AcDbEntity
  8
レイヤ1
100
AcDbVertex
100
AcDb2dVertex
 10
26.60616054771
 20
996.8890534334
  0
VERTEX
  5
47E
100
AcDbEntity
  8
レイヤ1
100
AcDbVertex
100
AcDb2dVertex
 10
38.0569131885
 20
998.5729876452
  0
VERTEX
  5
47F
100
AcDbEntity
  8
レイヤ1
100
AcDbVertex
100
AcDb2dVertex
 10
41.08799476989
 20
999.9201350148
  0
VERTEX
  5
480
100
AcDbEntity
  8
レイヤ1
100
AcDbVertex
100
AcDb2dVertex
 10
54.89625530731
 20
999.24656133
  0
VERTEX
  5
481
100
AcDbEntity
  8
レイヤ1
100
AcDbVertex
100
AcDb2dVertex
 10
61.96877899721
 20
990.8268902706
  0
VERTEX
  5
482
100
AcDbEntity
  8
レイヤ1
100
AcDbVertex
100
AcDb2dVertex
 10
61.96877899721
 20
982.4072192112
  0
VERTEX
  5
483
100
AcDbEntity
  8
レイヤ1
100
AcDbVertex
100
AcDb2dVertex
 10
66.3470079481
 20
963.2103691958
  0
VERTEX
  5
484
100
AcDbEntity
  8
レイヤ1
100
AcDbVertex
100
AcDb2dVertex
 10
66.68379479048
 20
956.8114191906
  0
VERTEX
  5
485
100
AcDbEntity
  8
レイヤ1
100
AcDbVertex
100
AcDb2dVertex
 10
78.13454743126
 20
950.0756823431
  0
VERTEX
  5
486
100
AcDbEntity
  8
レイヤ1
100
AcDbVertex
100
AcDb2dVertex
 10
85.20707112116
 20
947.7181744465
  0
VERTEX
  5
487
100
AcDbEntity
  8
レイヤ1
100
AcDbVertex
100
AcDb2dVertex
 10
94.90200971025
 20
947.6447056574
  0
VERTEX
  5
488
100
AcDbEntity
  8
レイヤ1
100
AcDbVertex
100
AcDb2dVertex
 10
110.8028711417
 20
953.1067639245
  0
VERTEX
  5
489
100
AcDbEntity
  8
レイヤ1
100
AcDbVertex
100
AcDb2dVertex
 10
116.8650343045
 20
954.1171244516
  0
VERTEX
  5
48A
100
AcDbEntity
  8
レイヤ1
100
AcDbVertex
100
AcDb2dVertex
 10
128.9893606301
 20
961.8632218262
  0
VERTEX
  5
48B
100
AcDbEntity
  8
レイヤ1
100
AcDbVertex
100
AcDb2dVertex
 10
147.745443166
 20
972.1361407013
  0
VERTEX
  5
48C
100
AcDbEntity
  8
レイヤ1
100
AcDbVertex
100
AcDb2dVertex
 10
179.4991593198
 20
985.7280840635
  0
SEQEND
  5
48D
100
AcDbEntity
  8
レイヤ1
  0
POLYLINE
  5
48E
100
AcDbEntity
  8
レイヤ1
  6
CONTINUOUS
 62
     0
100
AcDb2dPolyline
 66
     1
 10
0
 20
0
 70
     0
  0
VERTEX
  5
48F
100
AcDbEntity
  8
レイヤ1
100
AcDbVertex
100
AcDb2dVertex
 10
150.9467434122
 20
973.5064335962
  0
VERTEX
  5
490
100
AcDbEntity
  8
レイヤ1
100
AcDbVertex
100
AcDb2dVertex
 10
218.9712594154
 20
930.7481663943
  0
VERTEX
  5
491
100
AcDbEntity
  8
レイヤ1
100
AcDbVertex
100
AcDb2dVertex
 10
246.8840792969
 20
908.6104126951
  0
VERTEX
  5
492
100
AcDbEntity
  8
レイヤ1
100
AcDbVertex
100
AcDb2dVertex
 10
264.2092778441
 20
899.4665579063
  0
VERTEX
  5
493
100
AcDbEntity
  8
レイヤ1
100
AcDbVertex
100
AcDb2dVertex
 10
290.983831813
 20
890.1276244001
  0
SEQEND
  5
494
100
AcDbEntity
  8
レイヤ1
  0
POLYLINE
  5
495
100
AcDbEntity
  8
レイヤ1
  6
CONTINUOUS
 62
     0
100
AcDb2dPolyline
 66
     1
 10
0
 20
0
 70
     0
  0
VERTEX
  5
496
100
AcDbEntity
  8
レイヤ1
100
AcDbVertex
100
AcDb2dVertex
 10
164.1632599622
 20
979.1636657615
  0
VERTEX
  5
497
100
AcDbEntity
  8
レイヤ1
100
AcDbVertex
100
AcDb2dVertex
 10
206.7871212189
 20
951.0860428702
  0
VERTEX
  5
498
100
AcDbEntity
  8
レイヤ1
100
AcDbVertex
100
AcDb2dVertex
 10
229.3518396581
 20
931.5524060124
  0
VERTEX
  5
499
100
AcDbEntity
  8
レイヤ1
100
AcDbVertex
100
AcDb2dVertex
 10
237.7715107176
 20
920.1016533716
  0
VERTEX
  5
49A
100
AcDbEntity
  8
レイヤ1
100
AcDbVertex
100
AcDb2dVertex
 10
240.4658054566
 20
918.0809323173
  0
VERTEX
  5
49B
100
AcDbEntity
  8
レイヤ1
100
AcDbVertex
100
AcDb2dVertex
 10
248.885476516
 20
914.7130638936
  0
VERTEX
  5
49C
100
AcDbEntity
  8
レイヤ1
100
AcDbVertex
100
AcDb2dVertex
 10
268.0823265314
 20
906.2933928342
  0
VERTEX
  5
49D
100
AcDbEntity
  8
レイヤ1
100
AcDbVertex
100
AcDb2dVertex
 10
274.1444896942
 20
904.9462454647
  0
VERTEX
  5
49E
100
AcDbEntity
  8
レイヤ1
100
AcDbVertex
100
AcDb2dVertex
 10
278.1859318027
 20
906.6301796766
  0
VERTEX
  5
49F
100
AcDbEntity
  8
レイヤ1
100
AcDbVertex
100
AcDb2dVertex
 10
278.8595054874
 20
911.0084086275
  0
VERTEX
  5
4A0
100
AcDbEntity
  8
レイヤ1
100
AcDbVertex
100
AcDb2dVertex
 10
239.4554449294
 20
941.3192244413
  0
VERTEX
  5
4A1
100
AcDbEntity
  8
レイヤ1
100
AcDbVertex
100
AcDb2dVertex
 10
176.886871056
 20
984.6099133916
  0
SEQEND
  5
4A2
100
AcDbEntity
  8
レイヤ1
  0
POLYLINE
  5
4A3
100
AcDbEntity
  8
レイヤ1
  6
CONTINUOUS
 62
     0
100
AcDb2dPolyline
 66
     1
 10
0
 20
0
 70
     0
  0
VERTEX
  5
4A4
100
AcDbEntity
  8
レイヤ1
100
AcDbVertex
100
AcDb2dVertex
 10
101.0636581917
 20
1014.486626039
  0
VERTEX
  5
4A5
100
AcDbEntity
  8
レイヤ1
100
AcDbVertex
100
AcDb2dVertex
 10
94.97388955007
 20
1009.013379759
  0
VERTEX
  5
4A6
100
AcDbEntity
  8
レイヤ1
100
AcDbVertex
100
AcDb2dVertex
 10
89.99478134215
 20
1009.192815372
  0
VERTEX
  5
4A7
100
AcDbEntity
  8
レイヤ1
100
AcDbVertex
100
AcDb2dVertex
 10
79.14490795839
 20
1025.515935035
  0
VERTEX
  5
4A8
100
AcDbEntity
  8
レイヤ1
100
AcDbVertex
100
AcDb2dVertex
 10
77.46097374651
 20
1028.210229774
  0
VERTEX
  5
4A9
100
AcDbEntity
  8
レイヤ1
100
AcDbVertex
100
AcDb2dVertex
 10
72.12003670891
 20
1036.077390106
  0
VERTEX
  5
4AA
100
AcDbEntity
  8
レイヤ1
100
AcDbVertex
100
AcDb2dVertex
 10
71.41297752549
 20
1042.912295545
  0
VERTEX
  5
4AB
100
AcDbEntity
  8
レイヤ1
100
AcDbVertex
100
AcDb2dVertex
 10
68.5847407918
 20
1047.626023435
  0
VERTEX
  5
4AC
100
AcDbEntity
  8
レイヤ1
100
AcDbVertex
100
AcDb2dVertex
 10
59.39297140733
 20
1051.868378535
  0
VERTEX
  5
4AD
100
AcDbEntity
  8
レイヤ1
100
AcDbVertex
100
AcDb2dVertex
 10
26.16118978656
 20
1071.194662882
  0
VERTEX
  5
4AE
100
AcDbEntity
  8
レイヤ1
100
AcDbVertex
100
AcDb2dVertex
 10
16.83934211881
 20
1074.35002718
  0
VERTEX
  5
4AF
100
AcDbEntity
  8
レイヤ1
100
AcDbVertex
100
AcDb2dVertex
 10
7.072523689899
 20
1074.013240338
  0
VERTEX
  5
4B0
100
AcDbEntity
  8
レイヤ1
100
AcDbVertex
100
AcDb2dVertex
 10
-9.093244744156
 20
1070.645371914
  0
VERTEX
  5
4B1
100
AcDbEntity
  8
レイヤ1
100
AcDbVertex
100
AcDb2dVertex
 10
-14.48183422217
 20
1066.603929805
  0
VERTEX
  5
4B2
100
AcDbEntity
  8
レイヤ1
100
AcDbVertex
100
AcDb2dVertex
 10
-26.94294739009
 20
1063.909635066
  0
VERTEX
  5
4B3
100
AcDbEntity
  8
レイヤ1
100
AcDbVertex
100
AcDb2dVertex
 10
-41.08799476989
 20
1049.764587686
  0
VERTEX
  5
4B4
100
AcDbEntity
  8
レイヤ1
100
AcDbVertex
100
AcDb2dVertex
 10
-44.79265003603
 20
1049.091014002
  0
VERTEX
  5
4B5
100
AcDbEntity
  8
レイヤ1
100
AcDbVertex
100
AcDb2dVertex
 10
-45.80301056315
 20
1046.733506105
  0
VERTEX
  5
4B6
100
AcDbEntity
  8
レイヤ1
100
AcDbVertex
100
AcDb2dVertex
 10
-45.46622372078
 20
1044.039211366
  0
VERTEX
  5
4B7
100
AcDbEntity
  8
レイヤ1
100
AcDbVertex
100
AcDb2dVertex
 10
-42.77192898177
 20
1040.671342942
  0
VERTEX
  5
4B8
100
AcDbEntity
  8
レイヤ1
100
AcDbVertex
100
AcDb2dVertex
 10
-37.04655266138
 20
1038.98740873
  0
VERTEX
  5
4B9
100
AcDbEntity
  8
レイヤ1
100
AcDbVertex
100
AcDb2dVertex
 10
-35.02583160712
 20
1039.660982415
  0
VERTEX
  5
4BA
100
AcDbEntity
  8
レイヤ1
100
AcDbVertex
100
AcDb2dVertex
 10
-21.2175710697
 20
1054.816390322
  0
VERTEX
  5
4BB
100
AcDbEntity
  8
レイヤ1
100
AcDbVertex
100
AcDb2dVertex
 10
6.189545511773
 20
1069.631047934
  0
SEQEND
  5
4BC
100
AcDbEntity
  8
レイヤ1
  0
LINE
  5
4BD
100
AcDbEntity
  8
レイヤ1
  6
CONTINUOUS
 62
     0
100
AcDbLine
 10
-50.51802635642
 20
1059.194619273
 11
-38.0661609161
 21
1052.78642154
  0
POLYLINE
  5
4BE
100
AcDbEntity
  8
レイヤ1
  6
CONTINUOUS
 62
     0
100
AcDb2dPolyline
 66
     1
 10
0
 20
0
 70
     0
  0
VERTEX
  5
4BF
100
AcDbEntity
  8
レイヤ1
100
AcDbVertex
100
AcDb2dVertex
 10
-126.8075214765
 20
1004.398581005
  0
VERTEX
  5
4C0
100
AcDbEntity
  8
レイヤ1
100
AcDbVertex
100
AcDb2dVertex
 10
-96.73235855494
 20
1005.34277125
  0
VERTEX
  5
4C1
100
AcDbEntity
  8
レイヤ1
100
AcDbVertex
100
AcDb2dVertex
 10
-74.09310532275
 20
1003.961577123
  0
VERTEX
  5
4C2
100
AcDbEntity
  8
レイヤ1
100
AcDbVertex
100
AcDb2dVertex
 10
-67.35736847523
 20
1000.930495542
  0
VERTEX
  5
4C3
100
AcDbEntity
  8
レイヤ1
100
AcDbVertex
100
AcDb2dVertex
 10
-61.20491930588
 20
994.40801479
  0
VERTEX
  5
4C4
100
AcDbEntity
  8
レイヤ1
100
AcDbVertex
100
AcDb2dVertex
 10
-54.55946846493
 20
991.8372507977
  0
VERTEX
  5
4C5
100
AcDbEntity
  8
レイヤ1
100
AcDbVertex
100
AcDb2dVertex
 10
-39.40406055801
 20
990.4901034282
  0
VERTEX
  5
4C6
100
AcDbEntity
  8
レイヤ1
100
AcDbVertex
100
AcDb2dVertex
 10
-28.62688160197
 20
988.1325955316
  0
VERTEX
  5
4C7
100
AcDbEntity
  8
レイヤ1
100
AcDbVertex
100
AcDb2dVertex
 10
-10.77717895604
 20
962.2000086686
  0
VERTEX
  5
4C8
100
AcDbEntity
  8
レイヤ1
100
AcDbVertex
100
AcDb2dVertex
 10
-3.031081581385
 20
946.0342402346
  0
VERTEX
  5
4C9
100
AcDbEntity
  8
レイヤ1
100
AcDbVertex
100
AcDb2dVertex
 10
4.715015793266
 20
938.2881428599
  0
VERTEX
  5
4CA
100
AcDbEntity
  8
レイヤ1
100
AcDbVertex
100
AcDb2dVertex
 10
7.409310532275
 20
937.9513560175
  0
VERTEX
  5
4CB
100
AcDbEntity
  8
レイヤ1
100
AcDbVertex
100
AcDb2dVertex
 10
11.78753948316
 20
937.9513560175
  0
VERTEX
  5
4CC
100
AcDbEntity
  8
レイヤ1
100
AcDbVertex
100
AcDb2dVertex
 10
14.1450473798
 20
940.3088639142
  0
VERTEX
  5
4CD
100
AcDbEntity
  8
レイヤ1
100
AcDbVertex
100
AcDb2dVertex
 10
15.4921947493
 20
931.8891928548
  0
VERTEX
  5
4CE
100
AcDbEntity
  8
レイヤ1
100
AcDbVertex
100
AcDb2dVertex
 10
17.51291580356
 20
927.1741770615
  0
VERTEX
  5
4CF
100
AcDbEntity
  8
レイヤ1
100
AcDbVertex
100
AcDb2dVertex
 10
22.22793159683
 20
924.4798823225
  0
VERTEX
  5
4D0
100
AcDbEntity
  8
レイヤ1
100
AcDbVertex
100
AcDb2dVertex
 10
27.27973423247
 20
924.8166691649
  0
VERTEX
  5
4D1
100
AcDbEntity
  8
レイヤ1
100
AcDbVertex
100
AcDb2dVertex
 10
31.65796318336
 20
928.1845375886
  0
VERTEX
  5
4D2
100
AcDbEntity
  8
レイヤ1
100
AcDbVertex
100
AcDb2dVertex
 10
32.66832371049
 20
932.2259796971
  0
VERTEX
  5
4D3
100
AcDbEntity
  8
レイヤ1
100
AcDbVertex
100
AcDb2dVertex
 10
32.33153686811
 20
939.9720770718
  0
VERTEX
  5
4D4
100
AcDbEntity
  8
レイヤ1
100
AcDbVertex
100
AcDb2dVertex
 10
34.35225792237
 20
935.2570612785
  0
VERTEX
  5
4D5
100
AcDbEntity
  8
レイヤ1
100
AcDbVertex
100
AcDb2dVertex
 10
37.04655266138
 20
933.2363402243
  0
VERTEX
  5
4D6
100
AcDbEntity
  8
レイヤ1
100
AcDbVertex
100
AcDb2dVertex
 10
42.77192898177
 20
933.5731270667
  0
VERTEX
  5
4D7
100
AcDbEntity
  8
レイヤ1
100
AcDbVertex
100
AcDb2dVertex
 10
45.80301056315
 20
938.6249297023
  0
VERTEX
  5
4D8
100
AcDbEntity
  8
レイヤ1
100
AcDbVertex
100
AcDb2dVertex
 10
49.84445267167
 20
954.1171244516
  0
VERTEX
  5
4D9
100
AcDbEntity
  8
レイヤ1
100
AcDbVertex
100
AcDb2dVertex
 10
51.19160004117
 20
946.3710270769
  0
VERTEX
  5
4DA
100
AcDbEntity
  8
レイヤ1
100
AcDbVertex
100
AcDb2dVertex
 10
54.22268162256
 20
941.9927981261
  0
VERTEX
  5
4DB
100
AcDbEntity
  8
レイヤ1
100
AcDbVertex
100
AcDb2dVertex
 10
56.91697636157
 20
940.6456507566
  0
VERTEX
  5
4DC
100
AcDbEntity
  8
レイヤ1
100
AcDbVertex
100
AcDb2dVertex
 10
62.64235268196
 20
941.6560112837
  0
VERTEX
  5
4DD
100
AcDbEntity
  8
レイヤ1
100
AcDbVertex
100
AcDb2dVertex
 10
65.67343426335
 20
946.0342402346
  0
VERTEX
  5
4DE
100
AcDbEntity
  8
レイヤ1
100
AcDbVertex
100
AcDb2dVertex
 10
66.68379479048
 20
956.8114191906
  0
SEQEND
  5
4DF
100
AcDbEntity
  8
レイヤ1
  0
POLYLINE
  5
4E0
100
AcDbEntity
  8
レイヤ1
  6
CONTINUOUS
 62
     0
100
AcDb2dPolyline
 66
     1
 10
0
 20
0
 70
     0
  0
VERTEX
  5
4E1
100
AcDbEntity
  8
レイヤ1
100
AcDbVertex
100
AcDb2dVertex
 10
18.18648948831
 20
995.2051192215
  0
VERTEX
  5
4E2
100
AcDbEntity
  8
レイヤ1
100
AcDbVertex
100
AcDb2dVertex
 10
23.57507896633
 20
981.7336455264
  0
VERTEX
  5
4E3
100
AcDbEntity
  8
レイヤ1
100
AcDbVertex
100
AcDb2dVertex
 10
30.31081581385
 20
957.148206033
  0
VERTEX
  5
4E4
100
AcDbEntity
  8
レイヤ1
100
AcDbVertex
100
AcDb2dVertex
 10
32.33153686811
 20
939.9720770718
  0
SEQEND
  5
4E5
100
AcDbEntity
  8
レイヤ1
  0
POLYLINE
  5
4E6
100
AcDbEntity
  8
レイヤ1
  6
CONTINUOUS
 62
     0
100
AcDb2dPolyline
 66
     1
 10
0
 20
0
 70
     0
  0
VERTEX
  5
4E7
100
AcDbEntity
  8
レイヤ1
100
AcDbVertex
100
AcDb2dVertex
 10
49.84445267167
 20
954.1171244516
  0
VERTEX
  5
4E8
100
AcDbEntity
  8
レイヤ1
100
AcDbVertex
100
AcDb2dVertex
 10
48.16051845979
 20
971.9668270975
  0
VERTEX
  5
4E9
100
AcDbEntity
  8
レイヤ1
100
AcDbVertex
100
AcDb2dVertex
 10
47.60865168366
 20
985.1691288994
  0
VERTEX
  5
4EA
100
AcDbEntity
  8
レイヤ1
100
AcDbVertex
100
AcDb2dVertex
 10
45.25178773892
 20
992.2397207336
  0
VERTEX
  5
4EB
100
AcDbEntity
  8
レイヤ1
100
AcDbVertex
100
AcDb2dVertex
 10
41.08799476989
 20
999.9201350148
  0
SEQEND
  5
4EC
100
AcDbEntity
  8
レイヤ1
  0
LINE
  5
4ED
100
AcDbEntity
  8
レイヤ1
  6
CONTINUOUS
 62
     0
100
AcDbLine
 10
-11.78431972368
 20
1002.138549302
 11
-8.75645790178
 21
997.5626271181
  0
POLYLINE
  5
4EE
100
AcDbEntity
  8
レイヤ1
  6
CONTINUOUS
 62
     0
100
AcDb2dPolyline
 66
     1
 10
0
 20
0
 70
     0
  0
VERTEX
  5
4EF
100
AcDbEntity
  8
レイヤ1
100
AcDbVertex
100
AcDb2dVertex
 10
14.1450473798
 20
940.3088639142
  0
VERTEX
  5
4F0
100
AcDbEntity
  8
レイヤ1
100
AcDbVertex
100
AcDb2dVertex
 10
8.75645790178
 20
959.5057139296
  0
VERTEX
  5
4F1
100
AcDbEntity
  8
レイヤ1
100
AcDbVertex
100
AcDb2dVertex
 10
1.347147369505
 20
979.3761376298
  0
VERTEX
  5
4F2
100
AcDbEntity
  8
レイヤ1
100
AcDbVertex
100
AcDb2dVertex
 10
-6.77587206708
 20
993.3013138068
  0
SEQEND
  5
4F3
100
AcDbEntity
  8
レイヤ1
  0
POLYLINE
  5
4F4
100
AcDbEntity
  8
レイヤ1
  6
CONTINUOUS
 62
     0
100
AcDb2dPolyline
 66
     1
 10
0
 20
0
 70
     0
  0
VERTEX
  5
4F5
100
AcDbEntity
  8
レイヤ1
100
AcDbVertex
100
AcDb2dVertex
 10
-61.85716162614
 20
983.133540397
  0
VERTEX
  5
4F6
100
AcDbEntity
  8
レイヤ1
100
AcDbVertex
100
AcDb2dVertex
 10
-49.56931806546
 20
977.9112068837
  0
VERTEX
  5
4F7
100
AcDbEntity
  8
レイヤ1
100
AcDbVertex
100
AcDb2dVertex
 10
-27.95330791722
 20
974.6611218365
  0
VERTEX
  5
4F8
100
AcDbEntity
  8
レイヤ1
100
AcDbVertex
100
AcDb2dVertex
 10
-19.87176205267
 20
975.4128935449
  0
SEQEND
  5
4F9
100
AcDbEntity
  8
レイヤ1
  0
POLYLINE
  5
4FA
100
AcDbEntity
  8
レイヤ1
  6
CONTINUOUS
 62
     0
100
AcDb2dPolyline
 66
     1
 10
0
 20
0
 70
     0
  0
VERTEX
  5
4FB
100
AcDbEntity
  8
レイヤ1
100
AcDbVertex
100
AcDb2dVertex
 10
-66.25215769395
 20
905.6737818791
  0
VERTEX
  5
4FC
100
AcDbEntity
  8
レイヤ1
100
AcDbVertex
100
AcDb2dVertex
 10
35.76017757198
 20
891.9413521318
  0
VERTEX
  5
4FD
100
AcDbEntity
  8
レイヤ1
100
AcDbVertex
100
AcDb2dVertex
 10
41.26174335228
 20
903.632179415
  0
VERTEX
  5
4FE
100
AcDbEntity
  8
レイヤ1
100
AcDbVertex
100
AcDb2dVertex
 10
41.26174335228
 20
912.5722238079
  0
VERTEX
  5
4FF
100
AcDbEntity
  8
レイヤ1
100
AcDbVertex
100
AcDb2dVertex
 10
44.70022196497
 20
903.632179415
  0
VERTEX
  5
500
100
AcDbEntity
  8
レイヤ1
100
AcDbVertex
100
AcDb2dVertex
 10
45.38791768751
 20
898.1306136347
  0
VERTEX
  5
501
100
AcDbEntity
  8
レイヤ1
100
AcDbVertex
100
AcDb2dVertex
 10
61.20491930588
 20
894.692135022
  0
VERTEX
  5
502
100
AcDbEntity
  8
レイヤ1
100
AcDbVertex
100
AcDb2dVertex
 10
65.33109364111
 20
899.5060050797
  0
VERTEX
  5
503
100
AcDbEntity
  8
レイヤ1
100
AcDbVertex
100
AcDb2dVertex
 10
66.70648508619
 20
906.3829623051
  0
VERTEX
  5
504
100
AcDbEntity
  8
レイヤ1
100
AcDbVertex
100
AcDb2dVertex
 10
88.02505248487
 20
902.2567879699
  0
VERTEX
  5
505
100
AcDbEntity
  8
レイヤ1
100
AcDbVertex
100
AcDb2dVertex
 10
95.3061985611
 20
902.6035092116
  0
SEQEND
  5
506
100
AcDbEntity
  8
レイヤ1
  0
POLYLINE
  5
507
100
AcDbEntity
  8
レイヤ1
  6
CONTINUOUS
 62
     0
100
AcDb2dPolyline
 66
     1
 10
0
 20
0
 70
     0
  0
VERTEX
  5
508
100
AcDbEntity
  8
レイヤ1
100
AcDbVertex
100
AcDb2dVertex
 10
94.90200971025
 20
947.6447056574
  0
VERTEX
  5
509
100
AcDbEntity
  8
レイヤ1
100
AcDbVertex
100
AcDb2dVertex
 10
70.14496369888
 20
938.7046612644
  0
VERTEX
  5
50A
100
AcDbEntity
  8
レイヤ1
100
AcDbVertex
100
AcDb2dVertex
 10
66.70648508619
 20
933.8907912066
  0
VERTEX
  5
50B
100
AcDbEntity
  8
レイヤ1
100
AcDbVertex
100
AcDb2dVertex
 10
67.39418080873
 20
921.5122682009
  0
VERTEX
  5
50C
100
AcDbEntity
  8
レイヤ1
100
AcDbVertex
100
AcDb2dVertex
 10
66.70648508619
 20
906.3829623051
  0
SEQEND
  5
50D
100
AcDbEntity
  8
レイヤ1
  0
LINE
  5
50E
100
AcDbEntity
  8
レイヤ1
  6
CONTINUOUS
 62
     0
100
AcDbLine
 10
94.62840800188
 20
933.4174168223
 11
66.85923708258
 21
931.1412552715
  0
POLYLINE
  5
50F
100
AcDbEntity
  8
レイヤ1
  6
CONTINUOUS
 62
     0
100
AcDb2dPolyline
 66
     1
 10
0
 20
0
 70
     0
  0
VERTEX
  5
510
100
AcDbEntity
  8
レイヤ1
100
AcDbVertex
100
AcDb2dVertex
 10
38.51096046213
 20
897.7867657734
  0
VERTEX
  5
511
100
AcDbEntity
  8
レイヤ1
100
AcDbVertex
100
AcDb2dVertex
 10
46.18647146368
 20
741.9316160655
  0
VERTEX
  5
512
100
AcDbEntity
  8
レイヤ1
100
AcDbVertex
100
AcDb2dVertex
 10
60.92683469677
 20
531.6357672734
  0
VERTEX
  5
513
100
AcDbEntity
  8
レイヤ1
100
AcDbVertex
100
AcDb2dVertex
 10
79.59796145868
 20
294.8072646618
  0
VERTEX
  5
514
100
AcDbEntity
  8
レイヤ1
100
AcDbVertex
100
AcDb2dVertex
 10
83.52872498751
 20
147.4036323309
  0
VERTEX
  5
515
100
AcDbEntity
  8
レイヤ1
100
AcDbVertex
100
AcDb2dVertex
 10
82.84956322453
 20
84.87028427879
  0
SEQEND
  5
516
100
AcDbEntity
  8
レイヤ1
  0
POLYLINE
  5
517
100
AcDbEntity
  8
レイヤ1
  6
CONTINUOUS
 62
     0
100
AcDb2dPolyline
 66
     1
 10
0
 20
0
 70
     0
  0
VERTEX
  5
518
100
AcDbEntity
  8
レイヤ1
100
AcDbVertex
100
AcDb2dVertex
 10
107.2805327159
 20
549.8127301691
  0
VERTEX
  5
519
100
AcDbEntity
  8
レイヤ1
100
AcDbVertex
100
AcDb2dVertex
 10
123.5720359635
 20
456.3739964562
  0
VERTEX
  5
51A
100
AcDbEntity
  8
レイヤ1
100
AcDbVertex
100
AcDb2dVertex
 10
146.039678866
 20
310.3343175902
  0
VERTEX
  5
51B
100
AcDbEntity
  8
レイヤ1
100
AcDbVertex
100
AcDb2dVertex
 10
170.4141422423
 20
85.20707112116
  0
SEQEND
  5
51C
100
AcDbEntity
  8
レイヤ1
  0
POLYLINE
  5
51D
100
AcDbEntity
  8
レイヤ1
  6
CONTINUOUS
 62
     0
100
AcDb2dPolyline
 66
     1
 10
0
 20
0
 70
     0
  0
VERTEX
  5
51E
100
AcDbEntity
  8
レイヤ1
100
AcDbVertex
100
AcDb2dVertex
 10
-107.9682284385
 20
535.7149678571
  0
VERTEX
  5
51F
100
AcDbEntity
  8
レイヤ1
100
AcDbVertex
100
AcDb2dVertex
 10
-122.1678082821
 20
388.9710677488
  0
VERTEX
  5
520
100
AcDbEntity
  8
レイヤ1
100
AcDbVertex
100
AcDb2dVertex
 10
-150.2523619102
 20
188.1665093081
  0
VERTEX
  5
521
100
AcDbEntity
  8
レイヤ1
100
AcDbVertex
100
AcDb2dVertex
 10
-174.7923711932
 20
76.45061321938
  0
SEQEND
  5
522
100
AcDbEntity
  8
レイヤ1
  0
POLYLINE
  5
523
100
AcDbEntity
  8
レイヤ1
  6
CONTINUOUS
 62
     0
100
AcDb2dPolyline
 66
     1
 10
0
 20
0
 70
     0
  0
VERTEX
  5
524
100
AcDbEntity
  8
レイヤ1
100
AcDbVertex
100
AcDb2dVertex
 10
-77.79776058889
 20
87.22779217542
  0
VERTEX
  5
525
100
AcDbEntity
  8
レイヤ1
100
AcDbVertex
100
AcDb2dVertex
 10
-63.19024566316
 20
192.3791923523
  0
VERTEX
  5
526
100
AcDbEntity
  8
レイヤ1
100
AcDbVertex
100
AcDb2dVertex
 10
-50.55219653053
 20
374.9287909348
  0
VERTEX
  5
527
100
AcDbEntity
  8
レイヤ1
100
AcDbVertex
100
AcDb2dVertex
 10
-39.3183750793
 20
602.4136753221
  0
VERTEX
  5
528
100
AcDbEntity
  8
レイヤ1
100
AcDbVertex
100
AcDb2dVertex
 10
-22.46764290246
 20
898.7057160983
  0
SEQEND
  5
529
100
AcDbEntity
  8
レイヤ1
  0
POLYLINE
  5
52A
100
AcDbEntity
  8
レイヤ1
  6
CONTINUOUS
 62
     0
100
AcDb2dPolyline
 66
     1
 10
0
 20
0
 70
     0
  0
VERTEX
  5
52B
100
AcDbEntity
  8
レイヤ1
100
AcDbVertex
100
AcDb2dVertex
 10
-13.63986711623
 20
89.08011980849
  0
VERTEX
  5
52C
100
AcDbEntity
  8
レイヤ1
100
AcDbVertex
100
AcDb2dVertex
 10
-5.616910725614
 20
360.8865141207
  0
VERTEX
  5
52D
100
AcDbEntity
  8
レイヤ1
100
AcDbVertex
100
AcDb2dVertex
 10
1.404227681404
 20
605.222130685
  0
VERTEX
  5
52E
100
AcDbEntity
  8
レイヤ1
100
AcDbVertex
100
AcDb2dVertex
 10
5.616910725614
 20
843.9408365236
  0
VERTEX
  5
52F
100
AcDbEntity
  8
レイヤ1
100
AcDbVertex
100
AcDb2dVertex
 10
4.529313425673
 20
896.1455069207
  0
SEQEND
  5
530
100
AcDbEntity
  8
レイヤ1
  0
POLYLINE
  5
531
100
AcDbEntity
  8
レイヤ1
  6
CONTINUOUS
 62
     0
100
AcDb2dPolyline
 66
     1
 10
0
 20
0
 70
     0
  0
VERTEX
  5
532
100
AcDbEntity
  8
レイヤ1
100
AcDbVertex
100
AcDb2dVertex
 10
-153.2380132811
 20
98.67854481621
  0
VERTEX
  5
533
100
AcDbEntity
  8
レイヤ1
100
AcDbVertex
100
AcDb2dVertex
 10
-140.9776231203
 20
215.2487611544
  0
VERTEX
  5
534
100
AcDbEntity
  8
レイヤ1
100
AcDbVertex
100
AcDb2dVertex
 10
-137.8191997332
 20
277.0636188737
  0
SEQEND
  5
535
100
AcDbEntity
  8
レイヤ1
  0
LINE
  5
536
100
AcDbEntity
  8
レイヤ1
  6
CONTINUOUS
 62
     0
100
AcDbLine
 10
137.0722448471
 20
109.4557237722
 11
131.0642899563
 21
407.6743455034
  0
POLYLINE
  5
537
100
AcDbEntity
  8
レイヤ1
  6
CONTINUOUS
 62
     0
100
AcDb2dPolyline
 66
     1
 10
0
 20
0
 70
     0
  0
VERTEX
  5
538
100
AcDbEntity
  8
レイヤ1
100
AcDbVertex
100
AcDb2dVertex
 10
198.7440638135
 20
922.1999639235
  0
VERTEX
  5
539
100
AcDbEntity
  8
レイヤ1
100
AcDbVertex
100
AcDb2dVertex
 10
228.3149798826
 20
877.4997419585
  0
VERTEX
  5
53A
100
AcDbEntity
  8
レイヤ1
100
AcDbVertex
100
AcDb2dVertex
 10
263.3874617321
 20
822.4840841555
  0
VERTEX
  5
53B
100
AcDbEntity
  8
レイヤ1
100
AcDbVertex
100
AcDb2dVertex
 10
270.2644189574
 20
816.9825183752
  0
VERTEX
  5
53C
100
AcDbEntity
  8
レイヤ1
100
AcDbVertex
100
AcDb2dVertex
 10
309.4630751421
 20
787.411602306
  0
VERTEX
  5
53D
100
AcDbEntity
  8
レイヤ1
100
AcDbVertex
100
AcDb2dVertex
 10
313.5892494773
 20
773.6576878553
  0
VERTEX
  5
53E
100
AcDbEntity
  8
レイヤ1
100
AcDbVertex
100
AcDb2dVertex
 10
315.652336645
 20
757.8406862369
  0
SEQEND
  5
53F
100
AcDbEntity
  8
レイヤ1
  0
ENDSEC
  0
SECTION
  2
OBJECTS
  0
DICTIONARY
  5
540
100
AcDbDictionary
  3
ACAD_GROUP
350
541
  3
ACAD_MLINESTYLE
350
542
  0
DICTIONARY
  5
541
100
AcDbDictionary
  0
DICTIONARY
  5
542
100
AcDbDictionary
  3
STANDARD
350
543
  0
MLINESTYLE
  5
543
100
AcDbMlineStyle
  2
STANDARD
 70
     0
  3

 62
   256
 51
90
 52
90
 71
     0
  0
ENDSEC
  0
EOF
