  0
SECTION
  2
HEADER
  9
$ACADVER
  1
AC1014
  9
$DWGCODEPAGE
  3
dos932
  9
$EXTMIN
 10
-434.0924747092
 20
0.3367868423761
  9
$EXTMAX
 10
237.7715107176
 20
1406.228615411
  9
$LIMMIN
 10
0
 20
0
  9
$LIMMAX
 10
8410
 20
5940
  9
$LTSCALE
 40
10
  9
$DIMSCALE
 40
10
  9
$DIMSTYLE
  2
M7DIMSTL
  9
$HANDSEED
  5
7FFFFFFF
  0
ENDSEC
  0
SECTION
  2
CLASSES
  0
CLASS
  1
CSOFTARXCLASS
  2
CSoftArxClass
  3
CSRasterApi
 90
     0
280
     0
281
     0
  0
CLASS
  1
IMAGEDEF
  2
AcDbRasterImageDef
  3
ISM
 90
     0
280
     0
281
     0
  0
CLASS
  1
RASTERVARIABLES
  2
AcDbRasterVariables
  3
ISM
 90
     0
280
     0
281
     0
  0
CLASS
  1
IMAGE
  2
AcDbRasterImage
  3
ISM
 90
   127
280
     0
281
     0
  0
CLASS
  1
IMAGEDEF_REACTOR
  2
AcDbRasterImageDefReactor
  3
ISM
 90
     1
280
     0
281
     0
  0
CLASS
  1
HATCH
  2
AcDbHatch
  3
M7
 90
     0
280
     0
281
     1
  0
ENDSEC
  0
SECTION
  2
TABLES
  0
TABLE
  2
VPORT
  5
FF
100
AcDbSymbolTable
 70
     5
  0
VPORT
  5
100
100
AcDbSymbolTableRecord
100
AcDbViewportTableRecord
  2
*ACTIVE
 70
     0
 10
0
 20
0
 11
1
 21
1
 12
4205
 22
2970
 13
0
 23
0
 14
0
 24
0
 15
0
 25
0
 16
0
 26
0
 36
1
 17
0
 27
0
 37
0
 40
2970
 41
1.415824915825
 42
50
 43
0
 44
0
 50
0
 51
0
 71
     0
 72
   100
 73
     1
 74
     3
 75
     0
 76
     0
 77
     0
 78
     0
  0
ENDTAB
  0
TABLE
  2
LTYPE
  5
101
100
AcDbSymbolTable
 70
     1
  0
LTYPE
  5
102
100
AcDbSymbolTableRecord
100
AcDbLinetypeTableRecord
  2
BYBLOCK
 70
     0
  3

 72
    65
 73
     0
 40
0
  0
LTYPE
  5
103
100
AcDbSymbolTableRecord
100
AcDbLinetypeTableRecord
  2
BYLAYER
 70
     0
  3

 72
    65
 73
     0
 40
0
  0
LTYPE
  5
104
100
AcDbSymbolTableRecord
100
AcDbLinetypeTableRecord
  2
CONTINUOUS
 70
     0
  3
Solid line
 72
    65
 73
     0
 40
0
  0
LTYPE
  5
105
100
AcDbSymbolTableRecord
100
AcDbLinetypeTableRecord
  2
DOT
 70
     0
  3
...............................
 72
    65
 73
     2
 40
4
 49
1
 74
     0
 49
-1
 74
     0
  0
LTYPE
  5
106
100
AcDbSymbolTableRecord
100
AcDbLinetypeTableRecord
  2
DASHED
 70
     0
  3
- - - - - - - - - - - - - - - -
 72
    65
 73
     2
 40
8
 49
2
 74
     0
 49
-2
 74
     0
  0
LTYPE
  5
107
100
AcDbSymbolTableRecord
100
AcDbLinetypeTableRecord
  2
DASHED2
 70
     0
  3
-- -- -- -- -- -- -- -- -- -- -
 72
    65
 73
     2
 40
16
 49
5
 74
     0
 49
-3
 74
     0
  0
LTYPE
  5
108
100
AcDbSymbolTableRecord
100
AcDbLinetypeTableRecord
  2
CENTER
 70
     0
  3
--------- - --------- - -------
 72
    65
 73
     4
 40
46
 49
20
 74
     0
 49
-1
 74
     0
 49
1
 74
     0
 49
-1
 74
     0
  0
LTYPE
  5
109
100
AcDbSymbolTableRecord
100
AcDbLinetypeTableRecord
  2
CENTERX2
 70
     0
  3
-------------- - --------------
 72
    65
 73
     4
 40
86
 49
40
 74
     0
 49
-1
 74
     0
 49
1
 74
     0
 49
-1
 74
     0
  0
LTYPE
  5
10A
100
AcDbSymbolTableRecord
100
AcDbLinetypeTableRecord
  2
CENTER2
 70
     0
  3
------ - ----- - ------ - -----
 72
    65
 73
     4
 40
26
 49
10
 74
     0
 49
-1
 74
     0
 49
1
 74
     0
 49
-1
 74
     0
  0
LTYPE
  5
10B
100
AcDbSymbolTableRecord
100
AcDbLinetypeTableRecord
  2
PHANTOM
 70
     0
  3
-------- - - ------- - - ------
 72
    65
 73
     6
 40
50
 49
20
 74
     0
 49
-1
 74
     0
 49
1
 74
     0
 49
-1
 74
     0
 49
1
 74
     0
 49
-1
 74
     0
  0
LTYPE
  5
10C
100
AcDbSymbolTableRecord
100
AcDbLinetypeTableRecord
  2
PHANTOMX2
 70
     0
  3
------------- - - -------------
 72
    65
 73
     6
 40
90
 49
40
 74
     0
 49
-1
 74
     0
 49
1
 74
     0
 49
-1
 74
     0
 49
1
 74
     0
 49
-1
 74
     0
  0
LTYPE
  5
10D
100
AcDbSymbolTableRecord
100
AcDbLinetypeTableRecord
  2
PHANTOM2
 70
     0
  3
---- - - ---- - - ---- - - ----
 72
    65
 73
     6
 40
30
 49
10
 74
     0
 49
-1
 74
     0
 49
1
 74
     0
 49
-1
 74
     0
 49
1
 74
     0
 49
-1
 74
     0
  0
LTYPE
  5
10E
100
AcDbSymbolTableRecord
100
AcDbLinetypeTableRecord
  2
ACAD_ISO06W100
 70
     0
  3
------------ - - - ------------
 72
    65
 73
     8
 40
94
 49
40
 74
     0
 49
-1
 74
     0
 49
1
 74
     0
 49
-1
 74
     0
 49
1
 74
     0
 49
-1
 74
     0
 49
1
 74
     0
 49
-1
 74
     0
  0
LTYPE
  5
10F
100
AcDbSymbolTableRecord
100
AcDbLinetypeTableRecord
  2
ACAD_ISO14W100
 70
     0
  3
---- - - - -------- - - - -----
 72
    65
 73
     8
 40
54
 49
20
 74
     0
 49
-1
 74
     0
 49
1
 74
     0
 49
-1
 74
     0
 49
1
 74
     0
 49
-1
 74
     0
 49
1
 74
     0
 49
-1
 74
     0
  0
LTYPE
  5
110
100
AcDbSymbolTableRecord
100
AcDbLinetypeTableRecord
  2
ACAD_ISO11W100
 70
     0
  3
------- ------ - ------- ------
 72
    65
 73
     6
 40
88
 49
20
 74
     0
 49
-1
 74
     0
 49
20
 74
     0
 49
-1
 74
     0
 49
1
 74
     0
 49
-1
 74
     0
  0
LTYPE
  5
111
100
AcDbSymbolTableRecord
100
AcDbLinetypeTableRecord
  2
ACAD_ISO13W100
 70
     0
  3
------ ------ - - ------ ------
 72
    65
 73
     8
 40
92
 49
20
 74
     0
 49
-1
 74
     0
 49
20
 74
     0
 49
-1
 74
     0
 49
1
 74
     0
 49
-1
 74
     0
 49
1
 74
     0
 49
-1
 74
     0
  0
LTYPE
  5
112
100
AcDbSymbolTableRecord
100
AcDbLinetypeTableRecord
  2
ACAD_ISO15W100
 70
     0
  3
------ ----- - - - ------ -----
 72
    65
 73
    10
 40
96
 49
20
 74
     0
 49
-1
 74
     0
 49
20
 74
     0
 49
-1
 74
     0
 49
1
 74
     0
 49
-1
 74
     0
 49
1
 74
     0
 49
-1
 74
     0
 49
1
 74
     0
 49
-1
 74
     0
  0
LTYPE
  5
113
100
AcDbSymbolTableRecord
100
AcDbLinetypeTableRecord
  2
HIDDEN
 70
     0
  3
. . . . . . . . . . . . . . . .
 72
    65
 73
     2
 40
3
 49
1
 74
     0
 49
-0.5
 74
     0
  0
ENDTAB
  0
TABLE
  2
LAYER
  5
114
100
AcDbSymbolTable
 70
     1
  0
LAYER
  5
115
100
AcDbSymbolTableRecord
100
AcDbLayerTableRecord
  2
0
 70
     0
 62
     7
  6
CONTINUOUS
  0
LAYER
  5
116
100
AcDbSymbolTableRecord
100
AcDbLayerTableRecord
  2
レイヤ1
 70
     0
 62
     7
  6
CONTINUOUS
  0
ENDTAB
  0
TABLE
  2
STYLE
  5
117
100
AcDbSymbolTable
 70
     1
  0
STYLE
  5
118
100
AcDbSymbolTableRecord
100
AcDbTextStyleTableRecord
  2
STANDARD
 70
     0
 40
0
 41
0
 50
0
 71
     0
 42
1
  3
txt
  4
bigfont
  0
STYLE
  5
119
100
AcDbSymbolTableRecord
100
AcDbTextStyleTableRecord
  2
VSTANDARD
 70
     4
 40
0
 41
0
 50
0
 71
     0
 42
1
  3
txt
  4
bigfont
  0
ENDTAB
  0
TABLE
  2
VIEW
  5
11A
100
AcDbSymbolTable
 70
     0
  0
ENDTAB
  0
TABLE
  2
UCS
  5
11B
100
AcDbSymbolTable
 70
     0
  0
ENDTAB
  0
TABLE
  2
APPID
  5
11C
100
AcDbSymbolTable
 70
     1
  0
APPID
  5
11D
100
AcDbSymbolTableRecord
100
AcDbRegAppTableRecord
  2
ACAD
 70
     0
  0
ENDTAB
  0
TABLE
  2
DIMSTYLE
  5
11E
100
AcDbSymbolTable
 70
     1
  0
DIMSTYLE
105
11F
100
AcDbSymbolTableRecord
100
AcDbDimStyleTableRecord
  2
M7DIMSTL
 70
     0
  3

  4

  5

  6

  7

 40
10
 41
2.5
 42
0.625
 43
3.75
 44
1.25
 45
0
 46
0
 47
0
 48
0
140
2.5
141
2.5
142
0
143
0.03937007874016
144
1
145
0
146
1
147
0.625
 71
     0
 72
     0
 73
     0
 74
     0
 75
     0
 76
     0
 77
     1
 78
     8
170
     0
171
     3
172
     1
173
     0
174
     0
175
     0
176
     0
177
     0
178
     0
270
     2
271
     2
272
     2
273
     2
274
     3
340
118
275
     0
280
     0
281
     0
282
     0
283
     0
284
     8
285
     0
286
     0
287
     3
288
     0
  0
ENDTAB
  0
TABLE
  2
BLOCK_RECORD
  5
120
100
AcDbSymbolTable
 70
     2
  0
BLOCK_RECORD
  5
121
100
AcDbSymbolTableRecord
100
AcDbBlockTableRecord
  2
*MODEL_SPACE
  0
BLOCK_RECORD
  5
122
100
AcDbSymbolTableRecord
100
AcDbBlockTableRecord
  2
*PAPER_SPACE
  0
BLOCK_RECORD
  5
123
100
AcDbSymbolTableRecord
100
AcDbBlockTableRecord
  2
_DOT
  0
BLOCK_RECORD
  5
124
100
AcDbSymbolTableRecord
100
AcDbBlockTableRecord
  2
_OPEN30
  0
ENDTAB
  0
ENDSEC
  0
SECTION
  2
BLOCKS
  0
BLOCK
  5
125
100
AcDbEntity
  8
0
100
AcDbBlockBegin
  2
*MODEL_SPACE
 70
     0
 10
0
 20
0
  3
*MODEL_SPACE
  1

  0
ENDBLK
  5
126
100
AcDbEntity
  8
0
100
AcDbBlockEnd
  0
BLOCK
  5
127
100
AcDbEntity
 67
     1
  8
0
100
AcDbBlockBegin
  2
*PAPER_SPACE
 70
     0
 10
0
 20
0
  3
*PAPER_SPACE
  1

  0
ENDBLK
  5
128
100
AcDbEntity
 67
     1
  8
0
100
AcDbBlockEnd
  0
BLOCK
  5
129
100
AcDbEntity
 67
     1
  8
0
100
AcDbBlockBegin
  2
_DOT
 70
     0
 10
0
 20
0
  3
_DOT
  1

  0
LWPOLYLINE
  5
12A
100
AcDbEntity
  8
0
  6
BYBLOCK
 62
     0
100
AcDbPolyline
 90
     2
 70
     1
 43
0.5
 10
-0.25
 20
0
 42
1
 10
0.25
 20
0
 42
1
  0
LINE
  5
12B
100
AcDbEntity
  8
0
  6
BYBLOCK
 62
     0
100
AcDbLine
 10
-0.5
 20
0
 11
-1
 21
0
  0
ENDBLK
  5
12C
100
AcDbEntity
  8
0
100
AcDbBlockEnd
  0
BLOCK
  5
12D
100
AcDbEntity
 67
     1
  8
0
100
AcDbBlockBegin
  2
_OPEN30
 70
     0
 10
0
 20
0
  3
_OPEN30
  1

  0
LINE
  5
12E
100
AcDbEntity
  8
0
  6
BYBLOCK
 62
     0
100
AcDbLine
 10
-1
 20
0.26794919
 11
0
 21
0
  0
LINE
  5
12F
100
AcDbEntity
  8
0
  6
BYBLOCK
 62
     0
100
AcDbLine
 10
-1
 20
-0.26794919
 11
0
 21
0
  0
LINE
  5
130
100
AcDbEntity
  8
0
  6
BYBLOCK
 62
     0
100
AcDbLine
 10
0
 20
0
 11
-1
 21
0
  0
ENDBLK
  5
131
100
AcDbEntity
  8
0
100
AcDbBlockEnd
  0
ENDSEC
  0
SECTION
  2
ENTITIES
  0
POLYLINE
  5
132
100
AcDbEntity
  8
レイヤ1
  6
CONTINUOUS
 62
     0
100
AcDb2dPolyline
 66
     1
 10
0
 20
0
 70
     1
  0
VERTEX
  5
133
100
AcDbEntity
  8
レイヤ1
100
AcDbVertex
100
AcDb2dVertex
 10
-28.2900947596
 20
1295.618982621
  0
VERTEX
  5
134
100
AcDbEntity
  8
レイヤ1
100
AcDbVertex
100
AcDb2dVertex
 10
-24.58543949346
 20
1298.31327736
  0
VERTEX
  5
135
100
AcDbEntity
  8
レイヤ1
100
AcDbVertex
100
AcDb2dVertex
 10
-20.54399738494
 20
1298.31327736
  0
VERTEX
  5
136
100
AcDbEntity
  8
レイヤ1
100
AcDbVertex
100
AcDb2dVertex
 10
-19.19685001544
 20
1296.629343148
  0
VERTEX
  5
137
100
AcDbEntity
  8
レイヤ1
100
AcDbVertex
100
AcDb2dVertex
 10
-19.87042370019
 20
1292.58790104
  0
VERTEX
  5
138
100
AcDbEntity
  8
レイヤ1
100
AcDbVertex
100
AcDb2dVertex
 10
-21.55435791207
 20
1290.230393143
  0
VERTEX
  5
139
100
AcDbEntity
  8
レイヤ1
100
AcDbVertex
100
AcDb2dVertex
 10
-18.52327633069
 20
1289.893606301
  0
VERTEX
  5
13A
100
AcDbEntity
  8
レイヤ1
100
AcDbVertex
100
AcDb2dVertex
 10
-17.17612896118
 20
1288.883245773
  0
VERTEX
  5
13B
100
AcDbEntity
  8
レイヤ1
100
AcDbVertex
100
AcDb2dVertex
 10
-17.17612896118
 20
1287.199311562
  0
VERTEX
  5
13C
100
AcDbEntity
  8
レイヤ1
100
AcDbVertex
100
AcDb2dVertex
 10
-18.18648948831
 20
1285.51537735
  0
VERTEX
  5
13D
100
AcDbEntity
  8
レイヤ1
100
AcDbVertex
100
AcDb2dVertex
 10
-14.1450473798
 20
1285.178590507
  0
VERTEX
  5
13E
100
AcDbEntity
  8
レイヤ1
100
AcDbVertex
100
AcDb2dVertex
 10
-12.79790001029
 20
1283.831443138
  0
VERTEX
  5
13F
100
AcDbEntity
  8
レイヤ1
100
AcDbVertex
100
AcDb2dVertex
 10
-12.46111316792
 20
1281.473935241
  0
VERTEX
  5
140
100
AcDbEntity
  8
レイヤ1
100
AcDbVertex
100
AcDb2dVertex
 10
-14.1450473798
 20
1279.453214187
  0
VERTEX
  5
141
100
AcDbEntity
  8
レイヤ1
100
AcDbVertex
100
AcDb2dVertex
 10
-16.83934211881
 20
1279.453214187
  0
VERTEX
  5
142
100
AcDbEntity
  8
レイヤ1
100
AcDbVertex
100
AcDb2dVertex
 10
-21.55435791207
 20
1280.126787872
  0
VERTEX
  5
143
100
AcDbEntity
  8
レイヤ1
100
AcDbVertex
100
AcDb2dVertex
 10
-16.2746785123
 20
1278.658784109
  0
VERTEX
  5
144
100
AcDbEntity
  8
レイヤ1
100
AcDbVertex
100
AcDb2dVertex
 10
-15.58213900114
 20
1277.389128338
  0
VERTEX
  5
145
100
AcDbEntity
  8
レイヤ1
100
AcDbVertex
100
AcDb2dVertex
 10
-15.697562253
 20
1276.465742323
  0
VERTEX
  5
146
100
AcDbEntity
  8
レイヤ1
100
AcDbVertex
100
AcDb2dVertex
 10
-16.96721802347
 20
1276.234895819
  0
VERTEX
  5
147
100
AcDbEntity
  8
レイヤ1
100
AcDbVertex
100
AcDb2dVertex
 10
-18.23687379393
 20
1276.696588827
  0
VERTEX
  5
148
100
AcDbEntity
  8
レイヤ1
100
AcDbVertex
100
AcDb2dVertex
 10
-21.8149946016
 20
1279.35132362
  0
VERTEX
  5
149
100
AcDbEntity
  8
レイヤ1
100
AcDbVertex
100
AcDb2dVertex
 10
-18.81399005323
 20
1276.119472568
  0
VERTEX
  5
14A
100
AcDbEntity
  8
レイヤ1
100
AcDbVertex
100
AcDb2dVertex
 10
-17.483153652
 20
1274.620862478
  0
VERTEX
  5
14B
100
AcDbEntity
  8
レイヤ1
100
AcDbVertex
100
AcDb2dVertex
 10
-16.49804761315
 20
1272.235157368
  0
VERTEX
  5
14C
100
AcDbEntity
  8
レイヤ1
100
AcDbVertex
100
AcDb2dVertex
 10
-16.49804761315
 20
1270.113979818
  0
VERTEX
  5
14D
100
AcDbEntity
  8
レイヤ1
100
AcDbVertex
100
AcDb2dVertex
 10
-19.5619707413
 20
1269.642607029
  0
VERTEX
  5
14E
100
AcDbEntity
  8
レイヤ1
100
AcDbVertex
100
AcDb2dVertex
 10
-24.27569863078
 20
1270.821039001
  0
VERTEX
  5
14F
100
AcDbEntity
  8
レイヤ1
100
AcDbVertex
100
AcDb2dVertex
 10
-26.63256257551
 20
1274.592021313
  0
VERTEX
  5
150
100
AcDbEntity
  8
レイヤ1
100
AcDbVertex
100
AcDb2dVertex
 10
-26.16118978656
 20
1270.349666212
  0
VERTEX
  5
151
100
AcDbEntity
  8
レイヤ1
100
AcDbVertex
100
AcDb2dVertex
 10
-27.33962175893
 20
1266.578683901
  0
VERTEX
  5
152
100
AcDbEntity
  8
レイヤ1
100
AcDbVertex
100
AcDb2dVertex
 10
-30.63923128156
 20
1262.807701589
  0
VERTEX
  5
153
100
AcDbEntity
  8
レイヤ1
100
AcDbVertex
100
AcDb2dVertex
 10
-32.28903604288
 20
1263.279074378
  0
VERTEX
  5
154
100
AcDbEntity
  8
レイヤ1
100
AcDbVertex
100
AcDb2dVertex
 10
-33.46746801524
 20
1267.992802268
  0
VERTEX
  5
155
100
AcDbEntity
  8
レイヤ1
100
AcDbVertex
100
AcDb2dVertex
 10
-32.52472243735
 20
1272.470843763
  0
VERTEX
  5
156
100
AcDbEntity
  8
レイヤ1
100
AcDbVertex
100
AcDb2dVertex
 10
-35.35295917103
 20
1268.228488662
  0
VERTEX
  5
157
100
AcDbEntity
  8
レイヤ1
100
AcDbVertex
100
AcDb2dVertex
 10
-38.41688229919
 20
1267.05005669
  0
VERTEX
  5
158
100
AcDbEntity
  8
レイヤ1
100
AcDbVertex
100
AcDb2dVertex
 10
-41.95217821629
 20
1267.757115873
  0
VERTEX
  5
159
100
AcDbEntity
  8
レイヤ1
100
AcDbVertex
100
AcDb2dVertex
 10
-42.42355100524
 20
1271.056725396
  0
VERTEX
  5
15A
100
AcDbEntity
  8
レイヤ1
100
AcDbVertex
100
AcDb2dVertex
 10
-40.53805984945
 20
1275.299080496
  0
VERTEX
  5
15B
100
AcDbEntity
  8
レイヤ1
100
AcDbVertex
100
AcDb2dVertex
 10
-37.47413672129
 20
1278.363003625
  0
VERTEX
  5
15C
100
AcDbEntity
  8
レイヤ1
100
AcDbVertex
100
AcDb2dVertex
 10
-42.18786461077
 20
1276.948885258
  0
VERTEX
  5
15D
100
AcDbEntity
  8
レイヤ1
100
AcDbVertex
100
AcDb2dVertex
 10
-47.84433807813
 20
1277.420258047
  0
VERTEX
  5
15E
100
AcDbEntity
  8
レイヤ1
100
AcDbVertex
100
AcDb2dVertex
 10
-49.0227700505
 20
1281.426926753
  0
VERTEX
  5
15F
100
AcDbEntity
  8
レイヤ1
100
AcDbVertex
100
AcDb2dVertex
 10
-46.19453331682
 20
1285.904968248
  0
VERTEX
  5
160
100
AcDbEntity
  8
レイヤ1
100
AcDbVertex
100
AcDb2dVertex
 10
-43.36629658313
 20
1286.140654642
  0
VERTEX
  5
161
100
AcDbEntity
  8
レイヤ1
100
AcDbVertex
100
AcDb2dVertex
 10
-40.0666870605
 20
1285.669281853
  0
VERTEX
  5
162
100
AcDbEntity
  8
レイヤ1
100
AcDbVertex
100
AcDb2dVertex
 10
-39.12394148261
 20
1288.497518587
  0
VERTEX
  5
163
100
AcDbEntity
  8
レイヤ1
100
AcDbVertex
100
AcDb2dVertex
 10
-44.07335576655
 20
1291.090068926
  0
VERTEX
  5
164
100
AcDbEntity
  8
レイヤ1
100
AcDbVertex
100
AcDb2dVertex
 10
-46.66590610576
 20
1295.568110421
  0
VERTEX
  5
165
100
AcDbEntity
  8
レイヤ1
100
AcDbVertex
100
AcDb2dVertex
 10
-45.72316052787
 20
1296.275169605
  0
VERTEX
  5
166
100
AcDbEntity
  8
レイヤ1
100
AcDbVertex
100
AcDb2dVertex
 10
-41.48080542734
 20
1296.510855999
  0
VERTEX
  5
167
100
AcDbEntity
  8
レイヤ1
100
AcDbVertex
100
AcDb2dVertex
 10
-37.00276393235
 20
1293.682619265
  0
VERTEX
  5
168
100
AcDbEntity
  8
レイヤ1
100
AcDbVertex
100
AcDb2dVertex
 10
-35.11727277656
 20
1290.854382532
  0
VERTEX
  5
169
100
AcDbEntity
  8
レイヤ1
100
AcDbVertex
100
AcDb2dVertex
 10
-33.70315440972
 20
1291.79712811
  0
VERTEX
  5
16A
100
AcDbEntity
  8
レイヤ1
100
AcDbVertex
100
AcDb2dVertex
 10
-34.17452719866
 20
1295.332424027
  0
VERTEX
  5
16B
100
AcDbEntity
  8
レイヤ1
100
AcDbVertex
100
AcDb2dVertex
 10
-36.29570474893
 20
1297.924974366
  0
VERTEX
  5
16C
100
AcDbEntity
  8
レイヤ1
100
AcDbVertex
100
AcDb2dVertex
 10
-36.06001835445
 20
1303.110075044
  0
VERTEX
  5
16D
100
AcDbEntity
  8
レイヤ1
100
AcDbVertex
100
AcDb2dVertex
 10
-33.93884080419
 20
1304.524193411
  0
VERTEX
  5
16E
100
AcDbEntity
  8
レイヤ1
100
AcDbVertex
100
AcDb2dVertex
 10
-29.69648570367
 20
1301.460270283
  0
VERTEX
  5
16F
100
AcDbEntity
  8
レイヤ1
100
AcDbVertex
100
AcDb2dVertex
 10
-28.5180537313
 20
1298.16066076
  0
SEQEND
  5
170
100
AcDbEntity
  8
レイヤ1
  0
CIRCLE
  5
171
100
AcDbEntity
  8
レイヤ1
  6
CONTINUOUS
 62
     0
100
AcDbCircle
 10
-30.87491767603
 20
1282.605358725
 40
6.114233845003
  0
POLYLINE
  5
172
100
AcDbEntity
  8
レイヤ1
  6
CONTINUOUS
 62
     0
100
AcDb2dPolyline
 66
     1
 10
0
 20
0
 70
     1
  0
VERTEX
  5
173
100
AcDbEntity
  8
レイヤ1
100
AcDbVertex
100
AcDb2dVertex
 10
50.8548131988
 20
1308.753669474
  0
VERTEX
  5
174
100
AcDbEntity
  8
レイヤ1
100
AcDbVertex
100
AcDb2dVertex
 10
46.47658424791
 20
1307.743308947
  0
VERTEX
  5
175
100
AcDbEntity
  8
レイヤ1
100
AcDbVertex
100
AcDb2dVertex
 10
44.45586319365
 20
1304.375440523
  0
VERTEX
  5
176
100
AcDbEntity
  8
レイヤ1
100
AcDbVertex
100
AcDb2dVertex
 10
43.7822895089
 20
1297.976490518
  0
VERTEX
  5
177
100
AcDbEntity
  8
レイヤ1
100
AcDbVertex
100
AcDb2dVertex
 10
50.18123951404
 20
1282.821082611
  0
VERTEX
  5
178
100
AcDbEntity
  8
レイヤ1
100
AcDbVertex
100
AcDb2dVertex
 10
54.55946846493
 20
1278.44285366
  0
VERTEX
  5
179
100
AcDbEntity
  8
レイヤ1
100
AcDbVertex
100
AcDb2dVertex
 10
62.97913952434
 20
1276.422132606
  0
VERTEX
  5
17A
100
AcDbEntity
  8
レイヤ1
100
AcDbVertex
100
AcDb2dVertex
 10
67.6941553176
 20
1276.422132606
  0
VERTEX
  5
17B
100
AcDbEntity
  8
レイヤ1
100
AcDbVertex
100
AcDb2dVertex
 10
79.81848164314
 20
1265.308166807
  0
VERTEX
  5
17C
100
AcDbEntity
  8
レイヤ1
100
AcDbVertex
100
AcDb2dVertex
 10
83.18635006691
 20
1257.898856275
  0
VERTEX
  5
17D
100
AcDbEntity
  8
レイヤ1
100
AcDbVertex
100
AcDb2dVertex
 10
86.89100533304
 20
1253.183840482
  0
VERTEX
  5
17E
100
AcDbEntity
  8
レイヤ1
100
AcDbVertex
100
AcDb2dVertex
 10
90.59566059918
 20
1251.836693112
  0
VERTEX
  5
17F
100
AcDbEntity
  8
レイヤ1
100
AcDbVertex
100
AcDb2dVertex
 10
94.30031586532
 20
1253.183840482
  0
VERTEX
  5
180
100
AcDbEntity
  8
レイヤ1
100
AcDbVertex
100
AcDb2dVertex
 10
95.9842500772
 20
1257.22528259
  0
VERTEX
  5
181
100
AcDbEntity
  8
レイヤ1
100
AcDbVertex
100
AcDb2dVertex
 10
94.63710270769
 20
1265.64495365
  0
VERTEX
  5
182
100
AcDbEntity
  8
レイヤ1
100
AcDbVertex
100
AcDb2dVertex
 10
87.90136586017
 20
1275.074985236
  0
VERTEX
  5
183
100
AcDbEntity
  8
レイヤ1
100
AcDbVertex
100
AcDb2dVertex
 10
85.20707112116
 20
1284.16822998
  0
VERTEX
  5
184
100
AcDbEntity
  8
レイヤ1
100
AcDbVertex
100
AcDb2dVertex
 10
78.47133427364
 20
1291.24075367
  0
VERTEX
  5
185
100
AcDbEntity
  8
レイヤ1
100
AcDbVertex
100
AcDb2dVertex
 10
76.45061321938
 20
1297.302916833
  0
VERTEX
  5
186
100
AcDbEntity
  8
レイヤ1
100
AcDbVertex
100
AcDb2dVertex
 10
70.72523689899
 20
1303.701866838
  0
VERTEX
  5
187
100
AcDbEntity
  8
レイヤ1
100
AcDbVertex
100
AcDb2dVertex
 10
72.40917111087
 20
1308.080095789
  0
VERTEX
  5
188
100
AcDbEntity
  8
レイヤ1
100
AcDbVertex
100
AcDb2dVertex
 10
69.04130268711
 20
1313.805472109
  0
VERTEX
  5
189
100
AcDbEntity
  8
レイヤ1
100
AcDbVertex
100
AcDb2dVertex
 10
59.61127110058
 20
1318.18370106
  0
VERTEX
  5
18A
100
AcDbEntity
  8
レイヤ1
100
AcDbVertex
100
AcDb2dVertex
 10
55.56982899206
 20
1317.173340533
  0
SEQEND
  5
18B
100
AcDbEntity
  8
レイヤ1
  0
POLYLINE
  5
18C
100
AcDbEntity
  8
レイヤ1
  6
CONTINUOUS
 62
     0
100
AcDb2dPolyline
 66
     1
 10
0
 20
0
 70
     0
  0
VERTEX
  5
18D
100
AcDbEntity
  8
レイヤ1
100
AcDbVertex
100
AcDb2dVertex
 10
48.66569872335
 20
1308.24848921
  0
VERTEX
  5
18E
100
AcDbEntity
  8
レイヤ1
100
AcDbVertex
100
AcDb2dVertex
 10
36.37297897662
 20
1317.173340533
  0
VERTEX
  5
18F
100
AcDbEntity
  8
レイヤ1
100
AcDbVertex
100
AcDb2dVertex
 10
24.58543949346
 20
1322.898716853
  0
VERTEX
  5
190
100
AcDbEntity
  8
レイヤ1
100
AcDbVertex
100
AcDb2dVertex
 10
18.18648948831
 20
1323.235503696
  0
VERTEX
  5
191
100
AcDbEntity
  8
レイヤ1
100
AcDbVertex
100
AcDb2dVertex
 10
16.16576843405
 20
1326.60337212
  0
VERTEX
  5
192
100
AcDbEntity
  8
レイヤ1
100
AcDbVertex
100
AcDb2dVertex
 10
9.430031586532
 20
1327.950519489
  0
VERTEX
  5
193
100
AcDbEntity
  8
レイヤ1
100
AcDbVertex
100
AcDb2dVertex
 10
3.031081581385
 20
1326.266585277
  0
VERTEX
  5
194
100
AcDbEntity
  8
レイヤ1
100
AcDbVertex
100
AcDb2dVertex
 10
1.010360527128
 20
1324.919437908
  0
VERTEX
  5
195
100
AcDbEntity
  8
レイヤ1
100
AcDbVertex
100
AcDb2dVertex
 10
-6.398950005147
 20
1323.909077381
  0
VERTEX
  5
196
100
AcDbEntity
  8
レイヤ1
100
AcDbVertex
100
AcDb2dVertex
 10
-11.45075264079
 20
1322.225143169
  0
VERTEX
  5
197
100
AcDbEntity
  8
レイヤ1
100
AcDbVertex
100
AcDb2dVertex
 10
-16.50255527643
 20
1319.867635272
  0
VERTEX
  5
198
100
AcDbEntity
  8
レイヤ1
100
AcDbVertex
100
AcDb2dVertex
 10
-11.11396579841
 20
1320.204422114
  0
VERTEX
  5
199
100
AcDbEntity
  8
レイヤ1
100
AcDbVertex
100
AcDb2dVertex
 10
-11.11396579841
 20
1319.194061587
  0
VERTEX
  5
19A
100
AcDbEntity
  8
レイヤ1
100
AcDbVertex
100
AcDb2dVertex
 10
-15.82898159168
 20
1317.846914218
  0
VERTEX
  5
19B
100
AcDbEntity
  8
レイヤ1
100
AcDbVertex
100
AcDb2dVertex
 10
-11.78753948316
 20
1316.836553691
  0
VERTEX
  5
19C
100
AcDbEntity
  8
レイヤ1
100
AcDbVertex
100
AcDb2dVertex
 10
-8.75645790178
 20
1318.18370106
  0
VERTEX
  5
19D
100
AcDbEntity
  8
レイヤ1
100
AcDbVertex
100
AcDb2dVertex
 10
4.715015793266
 20
1318.18370106
  0
VERTEX
  5
19E
100
AcDbEntity
  8
レイヤ1
100
AcDbVertex
100
AcDb2dVertex
 10
8.75645790178
 20
1314.479045794
  0
VERTEX
  5
19F
100
AcDbEntity
  8
レイヤ1
100
AcDbVertex
100
AcDb2dVertex
 10
14.1450473798
 20
1313.805472109
  0
VERTEX
  5
1A0
100
AcDbEntity
  8
レイヤ1
100
AcDbVertex
100
AcDb2dVertex
 10
17.84970264594
 20
1315.489406321
  0
VERTEX
  5
1A1
100
AcDbEntity
  8
レイヤ1
100
AcDbVertex
100
AcDb2dVertex
 10
24.58543949346
 20
1312.795111582
  0
VERTEX
  5
1A2
100
AcDbEntity
  8
レイヤ1
100
AcDbVertex
100
AcDb2dVertex
 10
27.61652107484
 20
1313.805472109
  0
VERTEX
  5
1A3
100
AcDbEntity
  8
レイヤ1
100
AcDbVertex
100
AcDb2dVertex
 10
36.37297897662
 20
1310.774390528
  0
VERTEX
  5
1A4
100
AcDbEntity
  8
レイヤ1
100
AcDbVertex
100
AcDb2dVertex
 10
39.74084740038
 20
1306.732948419
  0
VERTEX
  5
1A5
100
AcDbEntity
  8
レイヤ1
100
AcDbVertex
100
AcDb2dVertex
 10
43.7822895089
 20
1297.976490518
  0
SEQEND
  5
1A6
100
AcDbEntity
  8
レイヤ1
  0
POLYLINE
  5
1A7
100
AcDbEntity
  8
レイヤ1
  6
CONTINUOUS
 62
     0
100
AcDb2dPolyline
 66
     1
 10
0
 20
0
 70
     0
  0
VERTEX
  5
1A8
100
AcDbEntity
  8
レイヤ1
100
AcDbVertex
100
AcDb2dVertex
 10
1.010360527128
 20
1324.919437908
  0
VERTEX
  5
1A9
100
AcDbEntity
  8
レイヤ1
100
AcDbVertex
100
AcDb2dVertex
 10
4.715015793266
 20
1321.214782642
  0
VERTEX
  5
1AA
100
AcDbEntity
  8
レイヤ1
100
AcDbVertex
100
AcDb2dVertex
 10
9.766818428908
 20
1319.867635272
  0
VERTEX
  5
1AB
100
AcDbEntity
  8
レイヤ1
100
AcDbVertex
100
AcDb2dVertex
 10
15.15540790693
 20
1319.867635272
  0
VERTEX
  5
1AC
100
AcDbEntity
  8
レイヤ1
100
AcDbVertex
100
AcDb2dVertex
 10
18.18648948831
 20
1323.235503696
  0
SEQEND
  5
1AD
100
AcDbEntity
  8
レイヤ1
  0
POLYLINE
  5
1AE
100
AcDbEntity
  8
レイヤ1
  6
CONTINUOUS
 62
     0
100
AcDb2dPolyline
 66
     1
 10
0
 20
0
 70
     0
  0
VERTEX
  5
1AF
100
AcDbEntity
  8
レイヤ1
100
AcDbVertex
100
AcDb2dVertex
 10
-11.78753948316
 20
1316.836553691
  0
VERTEX
  5
1B0
100
AcDbEntity
  8
レイヤ1
100
AcDbVertex
100
AcDb2dVertex
 10
-6.127846256312
 20
1312.773217218
  0
VERTEX
  5
1B1
100
AcDbEntity
  8
レイヤ1
100
AcDbVertex
100
AcDb2dVertex
 10
-15.08392924631
 20
1308.530862117
  0
VERTEX
  5
1B2
100
AcDbEntity
  8
レイヤ1
100
AcDbVertex
100
AcDb2dVertex
 10
-12.4913789071
 20
1301.460270283
  0
VERTEX
  5
1B3
100
AcDbEntity
  8
レイヤ1
100
AcDbVertex
100
AcDb2dVertex
 10
-20.97608910815
 20
1304.759879806
  0
VERTEX
  5
1B4
100
AcDbEntity
  8
レイヤ1
100
AcDbVertex
100
AcDb2dVertex
 10
-28.04668094235
 20
1301.695956677
  0
VERTEX
  5
1B5
100
AcDbEntity
  8
レイヤ1
100
AcDbVertex
100
AcDb2dVertex
 10
-25.45413060314
 20
1309.473607695
  0
VERTEX
  5
1B6
100
AcDbEntity
  8
レイヤ1
100
AcDbVertex
100
AcDb2dVertex
 10
-29.69648570367
 20
1314.187335585
  0
VERTEX
  5
1B7
100
AcDbEntity
  8
レイヤ1
100
AcDbVertex
100
AcDb2dVertex
 10
-22.15452108051
 20
1315.130081162
  0
VERTEX
  5
1B8
100
AcDbEntity
  8
レイヤ1
100
AcDbVertex
100
AcDb2dVertex
 10
-19.09059795236
 20
1323.850477758
  0
VERTEX
  5
1B9
100
AcDbEntity
  8
レイヤ1
100
AcDbVertex
100
AcDb2dVertex
 10
-15.82898159168
 20
1317.846914218
  0
SEQEND
  5
1BA
100
AcDbEntity
  8
レイヤ1
  0
POLYLINE
  5
1BB
100
AcDbEntity
  8
レイヤ1
  6
CONTINUOUS
 62
     0
100
AcDb2dPolyline
 66
     1
 10
0
 20
0
 70
     0
  0
VERTEX
  5
1BC
100
AcDbEntity
  8
レイヤ1
100
AcDbVertex
100
AcDb2dVertex
 10
-19.19685001544
 20
1296.629343148
  0
VERTEX
  5
1BD
100
AcDbEntity
  8
レイヤ1
100
AcDbVertex
100
AcDb2dVertex
 10
-19.5619707413
 20
1302.87438865
  0
VERTEX
  5
1BE
100
AcDbEntity
  8
レイヤ1
100
AcDbVertex
100
AcDb2dVertex
 10
-16.73373400762
 20
1303.110075044
  0
SEQEND
  5
1BF
100
AcDbEntity
  8
レイヤ1
  0
POLYLINE
  5
1C0
100
AcDbEntity
  8
レイヤ1
  6
CONTINUOUS
 62
     0
100
AcDb2dPolyline
 66
     1
 10
0
 20
0
 70
     0
  0
VERTEX
  5
1C1
100
AcDbEntity
  8
レイヤ1
100
AcDbVertex
100
AcDb2dVertex
 10
-8.924851322968
 20
1323.067110275
  0
VERTEX
  5
1C2
100
AcDbEntity
  8
レイヤ1
100
AcDbVertex
100
AcDb2dVertex
 10
-16.32860576932
 20
1326.245646375
  0
VERTEX
  5
1C3
100
AcDbEntity
  8
レイヤ1
100
AcDbVertex
100
AcDb2dVertex
 10
-20.4519910646
 20
1330.533967082
  0
VERTEX
  5
1C4
100
AcDbEntity
  8
レイヤ1
100
AcDbVertex
100
AcDb2dVertex
 10
-22.59615141815
 20
1324.101486021
  0
VERTEX
  5
1C5
100
AcDbEntity
  8
レイヤ1
100
AcDbVertex
100
AcDb2dVertex
 10
-29.68837412604
 20
1332.843062847
  0
VERTEX
  5
1C6
100
AcDbEntity
  8
レイヤ1
100
AcDbVertex
100
AcDb2dVertex
 10
-30.40354488709
 20
1330.685383198
  0
VERTEX
  5
1C7
100
AcDbEntity
  8
レイヤ1
100
AcDbVertex
100
AcDb2dVertex
 10
-31.34629046498
 20
1330.449696803
  0
VERTEX
  5
1C8
100
AcDbEntity
  8
レイヤ1
100
AcDbVertex
100
AcDb2dVertex
 10
-22.15452108051
 20
1318.66537708
  0
VERTEX
  5
1C9
100
AcDbEntity
  8
レイヤ1
100
AcDbVertex
100
AcDb2dVertex
 10
-22.15452108051
 20
1317.015572318
  0
VERTEX
  5
1CA
100
AcDbEntity
  8
レイヤ1
100
AcDbVertex
100
AcDb2dVertex
 10
-28.28236733683
 20
1321.493613813
  0
VERTEX
  5
1CB
100
AcDbEntity
  8
レイヤ1
100
AcDbVertex
100
AcDb2dVertex
 10
-31.34629046498
 20
1321.964986602
  0
VERTEX
  5
1CC
100
AcDbEntity
  8
レイヤ1
100
AcDbVertex
100
AcDb2dVertex
 10
-38.18119590471
 20
1319.843809052
  0
VERTEX
  5
1CD
100
AcDbEntity
  8
レイヤ1
100
AcDbVertex
100
AcDb2dVertex
 10
-39.12394148261
 20
1317.015572318
  0
VERTEX
  5
1CE
100
AcDbEntity
  8
レイヤ1
100
AcDbVertex
100
AcDb2dVertex
 10
-39.83100066603
 20
1315.837140346
  0
SEQEND
  5
1CF
100
AcDbEntity
  8
レイヤ1
  0
POLYLINE
  5
1D0
100
AcDbEntity
  8
レイヤ1
  6
CONTINUOUS
 62
     0
100
AcDb2dPolyline
 66
     1
 10
0
 20
0
 70
     0
  0
VERTEX
  5
1D1
100
AcDbEntity
  8
レイヤ1
100
AcDbVertex
100
AcDb2dVertex
 10
-31.34629046498
 20
1330.449696803
  0
VERTEX
  5
1D2
100
AcDbEntity
  8
レイヤ1
100
AcDbVertex
100
AcDb2dVertex
 10
-34.16528255065
 20
1330.25297769
  0
VERTEX
  5
1D3
100
AcDbEntity
  8
レイヤ1
100
AcDbVertex
100
AcDb2dVertex
 10
-34.16528255065
 20
1331.868903216
  0
VERTEX
  5
1D4
100
AcDbEntity
  8
レイヤ1
100
AcDbVertex
100
AcDb2dVertex
 10
-35.89663132856
 20
1332.215172972
  0
VERTEX
  5
1D5
100
AcDbEntity
  8
レイヤ1
100
AcDbVertex
100
AcDb2dVertex
 10
-36.58917083972
 20
1334.639061261
  0
VERTEX
  5
1D6
100
AcDbEntity
  8
レイヤ1
100
AcDbVertex
100
AcDb2dVertex
 10
-35.7812080767
 20
1336.485833291
  0
VERTEX
  5
1D7
100
AcDbEntity
  8
レイヤ1
100
AcDbVertex
100
AcDb2dVertex
 10
-32.89562678019
 20
1336.601256542
  0
VERTEX
  5
1D8
100
AcDbEntity
  8
レイヤ1
100
AcDbVertex
100
AcDb2dVertex
 10
-32.31851052089
 20
1334.754484513
  0
VERTEX
  5
1D9
100
AcDbEntity
  8
レイヤ1
100
AcDbVertex
100
AcDb2dVertex
 10
-30.01004548368
 20
1334.985331016
  0
VERTEX
  5
1DA
100
AcDbEntity
  8
レイヤ1
100
AcDbVertex
100
AcDb2dVertex
 10
-29.31750597252
 20
1334.177368253
  0
VERTEX
  5
1DB
100
AcDbEntity
  8
レイヤ1
100
AcDbVertex
100
AcDb2dVertex
 10
-29.68837412604
 20
1332.843062847
  0
SEQEND
  5
1DC
100
AcDbEntity
  8
レイヤ1
  0
LINE
  5
1DD
100
AcDbEntity
  8
レイヤ1
  6
CONTINUOUS
 62
     0
100
AcDbLine
 10
-32.31851052089
 20
1334.754484513
 11
-34.16528255065
 21
1331.868903216
  0
POLYLINE
  5
1DE
100
AcDbEntity
  8
レイヤ1
  6
CONTINUOUS
 62
     0
100
AcDb2dPolyline
 66
     1
 10
0
 20
0
 70
     1
  0
VERTEX
  5
1DF
100
AcDbEntity
  8
レイヤ1
100
AcDbVertex
100
AcDb2dVertex
 10
-39.08969259928
 20
1343.728800027
  0
VERTEX
  5
1E0
100
AcDbEntity
  8
レイヤ1
100
AcDbVertex
100
AcDb2dVertex
 10
-39.4195634229
 20
1346.367766616
  0
VERTEX
  5
1E1
100
AcDbEntity
  8
レイヤ1
100
AcDbVertex
100
AcDb2dVertex
 10
-38.10008012841
 20
1347.68724991
  0
VERTEX
  5
1E2
100
AcDbEntity
  8
レイヤ1
100
AcDbVertex
100
AcDb2dVertex
 10
-35.13124271581
 20
1347.357379087
  0
VERTEX
  5
1E3
100
AcDbEntity
  8
レイヤ1
100
AcDbVertex
100
AcDb2dVertex
 10
-34.63643648038
 20
1345.378154145
  0
VERTEX
  5
1E4
100
AcDbEntity
  8
レイヤ1
100
AcDbVertex
100
AcDb2dVertex
 10
-32.65721153864
 20
1344.883347909
  0
VERTEX
  5
1E5
100
AcDbEntity
  8
レイヤ1
100
AcDbVertex
100
AcDb2dVertex
 10
-31.50266365596
 20
1344.05867085
  0
VERTEX
  5
1E6
100
AcDbEntity
  8
レイヤ1
100
AcDbVertex
100
AcDb2dVertex
 10
-31.50266365596
 20
1342.079445909
  0
VERTEX
  5
1E7
100
AcDbEntity
  8
レイヤ1
100
AcDbVertex
100
AcDb2dVertex
 10
-32.32734071502
 20
1340.265156379
  0
VERTEX
  5
1E8
100
AcDbEntity
  8
レイヤ1
100
AcDbVertex
100
AcDb2dVertex
 10
-33.81175942132
 20
1339.935285555
  0
VERTEX
  5
1E9
100
AcDbEntity
  8
レイヤ1
100
AcDbVertex
100
AcDb2dVertex
 10
-36.28579059849
 20
1340.430091791
  0
VERTEX
  5
1EA
100
AcDbEntity
  8
レイヤ1
100
AcDbVertex
100
AcDb2dVertex
 10
-36.28579059849
 20
1340.924898026
  0
VERTEX
  5
1EB
100
AcDbEntity
  8
レイヤ1
100
AcDbVertex
100
AcDb2dVertex
 10
-36.28579059849
 20
1342.739187556
  0
VERTEX
  5
1EC
100
AcDbEntity
  8
レイヤ1
100
AcDbVertex
100
AcDb2dVertex
 10
-37.44033848117
 20
1342.904122968
  0
SEQEND
  5
1ED
100
AcDbEntity
  8
レイヤ1
  0
LINE
  5
1EE
100
AcDbEntity
  8
レイヤ1
  6
CONTINUOUS
 62
     0
100
AcDbLine
 10
-36.28579059849
 20
1342.739187556
 11
-34.63643648038
 21
1345.378154145
  0
POLYLINE
  5
1EF
100
AcDbEntity
  8
レイヤ1
  6
CONTINUOUS
 62
     0
100
AcDb2dPolyline
 66
     1
 10
0
 20
0
 70
     0
  0
VERTEX
  5
1F0
100
AcDbEntity
  8
レイヤ1
100
AcDbVertex
100
AcDb2dVertex
 10
-39.47747107432
 20
1316.426356332
  0
VERTEX
  5
1F1
100
AcDbEntity
  8
レイヤ1
100
AcDbVertex
100
AcDb2dVertex
 10
-41.95217821629
 20
1319.136749868
  0
VERTEX
  5
1F2
100
AcDbEntity
  8
レイヤ1
100
AcDbVertex
100
AcDb2dVertex
 10
-49.96551562839
 20
1320.079495446
  0
VERTEX
  5
1F3
100
AcDbEntity
  8
レイヤ1
100
AcDbVertex
100
AcDb2dVertex
 10
-50.43688841734
 20
1316.308513135
  0
VERTEX
  5
1F4
100
AcDbEntity
  8
レイヤ1
100
AcDbVertex
100
AcDb2dVertex
 10
-49.0227700505
 20
1313.008903612
  0
VERTEX
  5
1F5
100
AcDbEntity
  8
レイヤ1
100
AcDbVertex
100
AcDb2dVertex
 10
-52.32237957313
 20
1313.008903612
  0
VERTEX
  5
1F6
100
AcDbEntity
  8
レイヤ1
100
AcDbVertex
100
AcDb2dVertex
 10
-55.15061630681
 20
1318.66537708
  0
VERTEX
  5
1F7
100
AcDbEntity
  8
レイヤ1
100
AcDbVertex
100
AcDb2dVertex
 10
-59.39297140733
 20
1319.608122657
  0
VERTEX
  5
1F8
100
AcDbEntity
  8
レイヤ1
100
AcDbVertex
100
AcDb2dVertex
 10
-63.16395371891
 20
1317.958317896
  0
VERTEX
  5
1F9
100
AcDbEntity
  8
レイヤ1
100
AcDbVertex
100
AcDb2dVertex
 10
-61.98552174654
 20
1315.601453951
  0
VERTEX
  5
1FA
100
AcDbEntity
  8
レイヤ1
100
AcDbVertex
100
AcDb2dVertex
 10
-58.45022582944
 20
1313.244590007
  0
VERTEX
  5
1FB
100
AcDbEntity
  8
レイヤ1
100
AcDbVertex
100
AcDb2dVertex
 10
-56.80042106813
 20
1313.244590007
  0
VERTEX
  5
1FC
100
AcDbEntity
  8
レイヤ1
100
AcDbVertex
100
AcDb2dVertex
 10
-56.80042106813
 20
1311.594785245
  0
VERTEX
  5
1FD
100
AcDbEntity
  8
レイヤ1
100
AcDbVertex
100
AcDb2dVertex
 10
-59.15728501286
 20
1309.70929409
  0
VERTEX
  5
1FE
100
AcDbEntity
  8
レイヤ1
100
AcDbVertex
100
AcDb2dVertex
 10
-59.15728501286
 20
1307.823802934
  0
VERTEX
  5
1FF
100
AcDbEntity
  8
レイヤ1
100
AcDbVertex
100
AcDb2dVertex
 10
-62.22120814102
 20
1306.881057356
  0
VERTEX
  5
200
100
AcDbEntity
  8
レイヤ1
100
AcDbVertex
100
AcDb2dVertex
 10
-61.27846256312
 20
1304.9955662
  0
VERTEX
  5
201
100
AcDbEntity
  8
レイヤ1
100
AcDbVertex
100
AcDb2dVertex
 10
-63.16395371891
 20
1306.173998172
  0
VERTEX
  5
202
100
AcDbEntity
  8
レイヤ1
100
AcDbVertex
100
AcDb2dVertex
 10
-69.5274863697
 20
1305.938311778
  0
VERTEX
  5
203
100
AcDbEntity
  8
レイヤ1
100
AcDbVertex
100
AcDb2dVertex
 10
-68.82042718628
 20
1301.695956677
  0
VERTEX
  5
204
100
AcDbEntity
  8
レイヤ1
100
AcDbVertex
100
AcDb2dVertex
 10
-66.93493603049
 20
1298.396347155
  0
VERTEX
  5
205
100
AcDbEntity
  8
レイヤ1
100
AcDbVertex
100
AcDb2dVertex
 10
-61.5141489576
 20
1296.746542393
  0
VERTEX
  5
206
100
AcDbEntity
  8
レイヤ1
100
AcDbVertex
100
AcDb2dVertex
 10
-60.33571698523
 20
1286.612027431
  0
VERTEX
  5
207
100
AcDbEntity
  8
レイヤ1
100
AcDbVertex
100
AcDb2dVertex
 10
-63.39964011338
 20
1287.319086615
  0
VERTEX
  5
208
100
AcDbEntity
  8
レイヤ1
100
AcDbVertex
100
AcDb2dVertex
 10
-65.52081766365
 20
1290.854382532
  0
VERTEX
  5
209
100
AcDbEntity
  8
レイヤ1
100
AcDbVertex
100
AcDb2dVertex
 10
-77.06945099285
 20
1284.490849881
  0
VERTEX
  5
20A
100
AcDbEntity
  8
レイヤ1
100
AcDbVertex
100
AcDb2dVertex
 10
-72.12003670891
 20
1278.834376413
  0
VERTEX
  5
20B
100
AcDbEntity
  8
レイヤ1
100
AcDbVertex
100
AcDb2dVertex
 10
-66.93493603049
 20
1277.420258047
  0
VERTEX
  5
20C
100
AcDbEntity
  8
レイヤ1
100
AcDbVertex
100
AcDb2dVertex
 10
-66.93493603049
 20
1274.356334918
  0
VERTEX
  5
20D
100
AcDbEntity
  8
レイヤ1
100
AcDbVertex
100
AcDb2dVertex
 10
-63.39964011338
 20
1271.528098185
  0
VERTEX
  5
20E
100
AcDbEntity
  8
レイヤ1
100
AcDbVertex
100
AcDb2dVertex
 10
-60.10003059075
 20
1271.528098185
  0
VERTEX
  5
20F
100
AcDbEntity
  8
レイヤ1
100
AcDbVertex
100
AcDb2dVertex
 10
-61.27846256312
 20
1268.464175057
  0
VERTEX
  5
210
100
AcDbEntity
  8
レイヤ1
100
AcDbVertex
100
AcDb2dVertex
 10
-65.99219045259
 20
1268.464175057
  0
VERTEX
  5
211
100
AcDbEntity
  8
レイヤ1
100
AcDbVertex
100
AcDb2dVertex
 10
-67.64199521391
 20
1271.528098185
  0
VERTEX
  5
212
100
AcDbEntity
  8
レイヤ1
100
AcDbVertex
100
AcDb2dVertex
 10
-71.88435031443
 20
1271.999470974
  0
VERTEX
  5
213
100
AcDbEntity
  8
レイヤ1
100
AcDbVertex
100
AcDb2dVertex
 10
-79.66200133206
 20
1265.164565534
  0
VERTEX
  5
214
100
AcDbEntity
  8
レイヤ1
100
AcDbVertex
100
AcDb2dVertex
 10
-80.36906051548
 20
1261.393583222
  0
VERTEX
  5
215
100
AcDbEntity
  8
レイヤ1
100
AcDbVertex
100
AcDb2dVertex
 10
-72.12003670891
 20
1259.743778461
  0
VERTEX
  5
216
100
AcDbEntity
  8
レイヤ1
100
AcDbVertex
100
AcDb2dVertex
 10
-74.94827344259
 20
1252.201813838
  0
VERTEX
  5
217
100
AcDbEntity
  8
レイヤ1
100
AcDbVertex
100
AcDb2dVertex
 10
-78.01219657074
 20
1252.437500232
  0
VERTEX
  5
218
100
AcDbEntity
  8
レイヤ1
100
AcDbVertex
100
AcDb2dVertex
 10
-85.5541611939
 20
1243.481417242
  0
VERTEX
  5
219
100
AcDbEntity
  8
レイヤ1
100
AcDbVertex
100
AcDb2dVertex
 10
-87.43965234969
 20
1238.532002958
  0
VERTEX
  5
21A
100
AcDbEntity
  8
レイヤ1
100
AcDbVertex
100
AcDb2dVertex
 10
-78.48356935969
 20
1238.296316564
  0
VERTEX
  5
21B
100
AcDbEntity
  8
レイヤ1
100
AcDbVertex
100
AcDb2dVertex
 10
-80.36906051548
 20
1234.525334252
  0
VERTEX
  5
21C
100
AcDbEntity
  8
レイヤ1
100
AcDbVertex
100
AcDb2dVertex
 10
-86.26122037732
 20
1234.289647858
  0
VERTEX
  5
21D
100
AcDbEntity
  8
レイヤ1
100
AcDbVertex
100
AcDb2dVertex
 10
-92.6247530281
 20
1225.097878474
  0
VERTEX
  5
21E
100
AcDbEntity
  8
レイヤ1
100
AcDbVertex
100
AcDb2dVertex
 10
-84.37572922153
 20
1222.033955345
  0
VERTEX
  5
21F
100
AcDbEntity
  8
レイヤ1
100
AcDbVertex
100
AcDb2dVertex
 10
-82.49023806574
 20
1223.212387318
  0
VERTEX
  5
220
100
AcDbEntity
  8
レイヤ1
100
AcDbVertex
100
AcDb2dVertex
 10
-83.90435643258
 20
1215.670422695
  0
VERTEX
  5
221
100
AcDbEntity
  8
レイヤ1
100
AcDbVertex
100
AcDb2dVertex
 10
-87.20396595521
 20
1213.784931539
  0
VERTEX
  5
222
100
AcDbEntity
  8
レイヤ1
100
AcDbVertex
100
AcDb2dVertex
 10
-87.20396595521
 20
1210.721008411
  0
VERTEX
  5
223
100
AcDbEntity
  8
レイヤ1
100
AcDbVertex
100
AcDb2dVertex
 10
-84.84710201048
 20
1207.421398888
  0
VERTEX
  5
224
100
AcDbEntity
  8
レイヤ1
100
AcDbVertex
100
AcDb2dVertex
 10
-80.84043330443
 20
1206.714339705
  0
VERTEX
  5
225
100
AcDbEntity
  8
レイヤ1
100
AcDbVertex
100
AcDb2dVertex
 10
-79.19062854311
 20
1208.364144466
  0
VERTEX
  5
226
100
AcDbEntity
  8
レイヤ1
100
AcDbVertex
100
AcDb2dVertex
 10
-78.71925575417
 20
1212.842185961
  0
VERTEX
  5
227
100
AcDbEntity
  8
レイヤ1
100
AcDbVertex
100
AcDb2dVertex
 10
-79.19062854311
 20
1214.256304328
  0
VERTEX
  5
228
100
AcDbEntity
  8
レイヤ1
100
AcDbVertex
100
AcDb2dVertex
 10
-80.36906051548
 20
1215.199049906
  0
VERTEX
  5
229
100
AcDbEntity
  8
レイヤ1
100
AcDbVertex
100
AcDb2dVertex
 10
-79.66200133206
 20
1217.084541061
  0
VERTEX
  5
22A
100
AcDbEntity
  8
レイヤ1
100
AcDbVertex
100
AcDb2dVertex
 10
-78.01219657074
 20
1217.55591385
  0
VERTEX
  5
22B
100
AcDbEntity
  8
レイヤ1
100
AcDbVertex
100
AcDb2dVertex
 10
-78.01219657074
 20
1224.39081929
  0
VERTEX
  5
22C
100
AcDbEntity
  8
レイヤ1
100
AcDbVertex
100
AcDb2dVertex
 10
-72.82709589233
 20
1235.46807983
  0
VERTEX
  5
22D
100
AcDbEntity
  8
レイヤ1
100
AcDbVertex
100
AcDb2dVertex
 10
-71.17729113101
 20
1235.232393436
  0
VERTEX
  5
22E
100
AcDbEntity
  8
レイヤ1
100
AcDbVertex
100
AcDb2dVertex
 10
-68.82042718628
 20
1237.353570986
  0
VERTEX
  5
22F
100
AcDbEntity
  8
レイヤ1
100
AcDbVertex
100
AcDb2dVertex
 10
-67.87768160838
 20
1240.653180509
  0
VERTEX
  5
230
100
AcDbEntity
  8
レイヤ1
100
AcDbVertex
100
AcDb2dVertex
 10
-68.34905439733
 20
1249.13789071
  0
VERTEX
  5
231
100
AcDbEntity
  8
レイヤ1
100
AcDbVertex
100
AcDb2dVertex
 10
-69.76317276417
 20
1250.787695471
  0
VERTEX
  5
232
100
AcDbEntity
  8
レイヤ1
100
AcDbVertex
100
AcDb2dVertex
 10
-67.40630881943
 20
1256.679855333
  0
VERTEX
  5
233
100
AcDbEntity
  8
レイヤ1
100
AcDbVertex
100
AcDb2dVertex
 10
-65.52081766365
 20
1255.501423361
  0
VERTEX
  5
234
100
AcDbEntity
  8
レイヤ1
100
AcDbVertex
100
AcDb2dVertex
 10
-62.45689453549
 20
1256.208482544
  0
VERTEX
  5
235
100
AcDbEntity
  8
レイヤ1
100
AcDbVertex
100
AcDb2dVertex
 10
-62.92826732444
 20
1246.545340371
  0
VERTEX
  5
236
100
AcDbEntity
  8
レイヤ1
100
AcDbVertex
100
AcDb2dVertex
 10
-66.22787684707
 20
1240.888866903
  0
VERTEX
  5
237
100
AcDbEntity
  8
レイヤ1
100
AcDbVertex
100
AcDb2dVertex
 10
-67.17062242496
 20
1235.939452619
  0
VERTEX
  5
238
100
AcDbEntity
  8
レイヤ1
100
AcDbVertex
100
AcDb2dVertex
 10
-65.75650405812
 20
1232.875529491
  0
VERTEX
  5
239
100
AcDbEntity
  8
レイヤ1
100
AcDbVertex
100
AcDb2dVertex
 10
-64.34238569128
 20
1232.639843097
  0
VERTEX
  5
23A
100
AcDbEntity
  8
レイヤ1
100
AcDbVertex
100
AcDb2dVertex
 10
-61.98552174654
 20
1234.053961464
  0
VERTEX
  5
23B
100
AcDbEntity
  8
レイヤ1
100
AcDbVertex
100
AcDb2dVertex
 10
-61.74983535207
 20
1225.804937657
  0
VERTEX
  5
23C
100
AcDbEntity
  8
レイヤ1
100
AcDbVertex
100
AcDb2dVertex
 10
-64.10669929681
 20
1226.040624051
  0
VERTEX
  5
23D
100
AcDbEntity
  8
レイヤ1
100
AcDbVertex
100
AcDb2dVertex
 10
-69.05611358075
 20
1217.791600245
  0
VERTEX
  5
23E
100
AcDbEntity
  8
レイヤ1
100
AcDbVertex
100
AcDb2dVertex
 10
-67.87768160838
 20
1214.256304328
  0
VERTEX
  5
23F
100
AcDbEntity
  8
レイヤ1
100
AcDbVertex
100
AcDb2dVertex
 10
-61.04277616865
 20
1210.721008411
  0
VERTEX
  5
240
100
AcDbEntity
  8
レイヤ1
100
AcDbVertex
100
AcDb2dVertex
 10
-58.92159861839
 20
1211.663753989
  0
VERTEX
  5
241
100
AcDbEntity
  8
レイヤ1
100
AcDbVertex
100
AcDb2dVertex
 10
-57.0361074626
 20
1213.784931539
  0
VERTEX
  5
242
100
AcDbEntity
  8
レイヤ1
100
AcDbVertex
100
AcDb2dVertex
 10
-54.91492991234
 20
1221.798268951
  0
VERTEX
  5
243
100
AcDbEntity
  8
レイヤ1
100
AcDbVertex
100
AcDb2dVertex
 10
-55.85767549023
 20
1223.919446501
  0
VERTEX
  5
244
100
AcDbEntity
  8
レイヤ1
100
AcDbVertex
100
AcDb2dVertex
 10
-55.85767549023
 20
1233.582588675
  0
VERTEX
  5
245
100
AcDbEntity
  8
レイヤ1
100
AcDbVertex
100
AcDb2dVertex
 10
-53.97218433444
 20
1232.639843097
  0
VERTEX
  5
246
100
AcDbEntity
  8
レイヤ1
100
AcDbVertex
100
AcDb2dVertex
 10
-51.85100678418
 20
1232.639843097
  0
VERTEX
  5
247
100
AcDbEntity
  8
レイヤ1
100
AcDbVertex
100
AcDb2dVertex
 10
-50.67257481181
 20
1234.525334252
  0
VERTEX
  5
248
100
AcDbEntity
  8
レイヤ1
100
AcDbVertex
100
AcDb2dVertex
 10
-50.90826120629
 20
1239.003375747
  0
VERTEX
  5
249
100
AcDbEntity
  8
レイヤ1
100
AcDbVertex
100
AcDb2dVertex
 10
-56.56473467365
 20
1245.602594793
  0
VERTEX
  5
24A
100
AcDbEntity
  8
レイヤ1
100
AcDbVertex
100
AcDb2dVertex
 10
-57.97885304049
 20
1246.545340371
  0
VERTEX
  5
24B
100
AcDbEntity
  8
レイヤ1
100
AcDbVertex
100
AcDb2dVertex
 10
-57.74316664602
 20
1255.97279615
  0
VERTEX
  5
24C
100
AcDbEntity
  8
レイヤ1
100
AcDbVertex
100
AcDb2dVertex
 10
-53.97218433444
 20
1255.501423361
  0
VERTEX
  5
24D
100
AcDbEntity
  8
レイヤ1
100
AcDbVertex
100
AcDb2dVertex
 10
-50.43688841734
 20
1257.151228122
  0
VERTEX
  5
24E
100
AcDbEntity
  8
レイヤ1
100
AcDbVertex
100
AcDb2dVertex
 10
-49.49414283945
 20
1261.629269617
  0
VERTEX
  5
24F
100
AcDbEntity
  8
レイヤ1
100
AcDbVertex
100
AcDb2dVertex
 10
-51.85100678418
 20
1265.871624717
  0
VERTEX
  5
250
100
AcDbEntity
  8
レイヤ1
100
AcDbVertex
100
AcDb2dVertex
 10
-55.15061630681
 20
1267.05005669
  0
VERTEX
  5
251
100
AcDbEntity
  8
レイヤ1
100
AcDbVertex
100
AcDb2dVertex
 10
-53.73649793997
 20
1273.88496213
  0
VERTEX
  5
252
100
AcDbEntity
  8
レイヤ1
100
AcDbVertex
100
AcDb2dVertex
 10
-48.31571086708
 20
1271.999470974
  0
VERTEX
  5
253
100
AcDbEntity
  8
レイヤ1
100
AcDbVertex
100
AcDb2dVertex
 10
-45.25178773892
 20
1273.413589341
  0
VERTEX
  5
254
100
AcDbEntity
  8
レイヤ1
100
AcDbVertex
100
AcDb2dVertex
 10
-45.01610134445
 20
1277.184571652
  0
SEQEND
  5
255
100
AcDbEntity
  8
レイヤ1
  0
LINE
  5
256
100
AcDbEntity
  8
レイヤ1
  6
CONTINUOUS
 62
     0
100
AcDbLine
 10
-83.90435643258
 20
1215.670422695
 11
-80.36906051548
 21
1215.199049906
  0
POLYLINE
  5
257
100
AcDbEntity
  8
レイヤ1
  6
CONTINUOUS
 62
     0
100
AcDb2dPolyline
 66
     1
 10
0
 20
0
 70
     0
  0
VERTEX
  5
258
100
AcDbEntity
  8
レイヤ1
100
AcDbVertex
100
AcDb2dVertex
 10
-82.84376765745
 20
1207.067869296
  0
VERTEX
  5
259
100
AcDbEntity
  8
レイヤ1
100
AcDbVertex
100
AcDb2dVertex
 10
-82.84956322453
 20
1197.61401149
  0
VERTEX
  5
25A
100
AcDbEntity
  8
レイヤ1
100
AcDbVertex
100
AcDb2dVertex
 10
-79.48169480077
 20
1187.847193061
  0
VERTEX
  5
25B
100
AcDbEntity
  8
レイヤ1
100
AcDbVertex
100
AcDb2dVertex
 10
-75.44025269225
 20
1185.489685164
  0
VERTEX
  5
25C
100
AcDbEntity
  8
レイヤ1
100
AcDbVertex
100
AcDb2dVertex
 10
-71.73559742612
 20
1178.417161474
  0
VERTEX
  5
25D
100
AcDbEntity
  8
レイヤ1
100
AcDbVertex
100
AcDb2dVertex
 10
-66.68379479047
 20
1173.702145681
  0
VERTEX
  5
25E
100
AcDbEntity
  8
レイヤ1
100
AcDbVertex
100
AcDb2dVertex
 10
-61.29520531246
 20
1173.028571996
  0
VERTEX
  5
25F
100
AcDbEntity
  8
レイヤ1
100
AcDbVertex
100
AcDb2dVertex
 10
-59.94805794295
 20
1160.904245671
  0
VERTEX
  5
260
100
AcDbEntity
  8
レイヤ1
100
AcDbVertex
100
AcDb2dVertex
 10
-49.50766582929
 20
1134.971658808
  0
VERTEX
  5
261
100
AcDbEntity
  8
レイヤ1
100
AcDbVertex
100
AcDb2dVertex
 10
-52.87553425305
 20
1152.147787769
  0
VERTEX
  5
262
100
AcDbEntity
  8
レイヤ1
100
AcDbVertex
100
AcDb2dVertex
 10
-53.21232109543
 20
1165.619261464
  0
VERTEX
  5
263
100
AcDbEntity
  8
レイヤ1
100
AcDbVertex
100
AcDb2dVertex
 10
-50.18123951404
 20
1160.230671986
  0
VERTEX
  5
264
100
AcDbEntity
  8
レイヤ1
100
AcDbVertex
100
AcDb2dVertex
 10
-44.79265003603
 20
1157.199590404
  0
VERTEX
  5
265
100
AcDbEntity
  8
レイヤ1
100
AcDbVertex
100
AcDb2dVertex
 10
-50.18123951404
 20
1167.303195676
  0
VERTEX
  5
266
100
AcDbEntity
  8
レイヤ1
100
AcDbVertex
100
AcDb2dVertex
 10
-52.2019605683
 20
1178.080374632
  0
VERTEX
  5
267
100
AcDbEntity
  8
レイヤ1
100
AcDbVertex
100
AcDb2dVertex
 10
-45.1294368784
 20
1166.292835149
  0
VERTEX
  5
268
100
AcDbEntity
  8
レイヤ1
100
AcDbVertex
100
AcDb2dVertex
 10
-40.41442108514
 20
1163.59854041
  0
VERTEX
  5
269
100
AcDbEntity
  8
レイヤ1
100
AcDbVertex
100
AcDb2dVertex
 10
-40.07763424276
 20
1182.12181674
  0
VERTEX
  5
26A
100
AcDbEntity
  8
レイヤ1
100
AcDbVertex
100
AcDb2dVertex
 10
-36.37297897662
 20
1199.971519386
  0
VERTEX
  5
26B
100
AcDbEntity
  8
レイヤ1
100
AcDbVertex
100
AcDb2dVertex
 10
-36.03619213425
 20
1193.235782539
  0
VERTEX
  5
26C
100
AcDbEntity
  8
レイヤ1
100
AcDbVertex
100
AcDb2dVertex
 10
-32.33153686811
 20
1182.458603583
  0
VERTEX
  5
26D
100
AcDbEntity
  8
レイヤ1
100
AcDbVertex
100
AcDb2dVertex
 10
-28.96366844435
 20
1179.427522001
  0
VERTEX
  5
26E
100
AcDbEntity
  8
レイヤ1
100
AcDbVertex
100
AcDb2dVertex
 10
-20.54399738494
 20
1194.919716751
  0
VERTEX
  5
26F
100
AcDbEntity
  8
レイヤ1
100
AcDbVertex
100
AcDb2dVertex
 10
-18.86006317306
 20
1208.391190446
  0
VERTEX
  5
270
100
AcDbEntity
  8
レイヤ1
100
AcDbVertex
100
AcDb2dVertex
 10
-11.45075264079
 20
1228.935187831
  0
VERTEX
  5
271
100
AcDbEntity
  8
レイヤ1
100
AcDbVertex
100
AcDb2dVertex
 10
-10.77717895604
 20
1218.158008874
  0
VERTEX
  5
272
100
AcDbEntity
  8
レイヤ1
100
AcDbVertex
100
AcDb2dVertex
 10
-14.1450473798
 20
1195.930077278
  0
VERTEX
  5
273
100
AcDbEntity
  8
レイヤ1
100
AcDbVertex
100
AcDb2dVertex
 10
-13.47147369505
 20
1184.816111479
  0
VERTEX
  5
274
100
AcDbEntity
  8
レイヤ1
100
AcDbVertex
100
AcDb2dVertex
 10
-6.735736847523
 20
1180.774669371
  0
VERTEX
  5
275
100
AcDbEntity
  8
レイヤ1
100
AcDbVertex
100
AcDb2dVertex
 10
-9.093244744156
 20
1190.204700957
  0
VERTEX
  5
276
100
AcDbEntity
  8
レイヤ1
100
AcDbVertex
100
AcDb2dVertex
 10
-6.735736847523
 20
1206.033682549
  0
VERTEX
  5
277
100
AcDbEntity
  8
レイヤ1
100
AcDbVertex
100
AcDb2dVertex
 10
1.347147369505
 20
1223.883385195
  0
VERTEX
  5
278
100
AcDbEntity
  8
レイヤ1
100
AcDbVertex
100
AcDb2dVertex
 10
0.6735736847523
 20
1208.391190446
  0
VERTEX
  5
279
100
AcDbEntity
  8
レイヤ1
100
AcDbVertex
100
AcDb2dVertex
 10
-1.683934211881
 20
1195.930077278
  0
VERTEX
  5
27A
100
AcDbEntity
  8
レイヤ1
100
AcDbVertex
100
AcDb2dVertex
 10
-2.020721054257
 20
1175.722866735
  0
VERTEX
  5
27B
100
AcDbEntity
  8
レイヤ1
100
AcDbVertex
100
AcDb2dVertex
 10
21.2175710697
 20
1185.826472006
  0
VERTEX
  5
27C
100
AcDbEntity
  8
レイヤ1
100
AcDbVertex
100
AcDb2dVertex
 10
43.10871582415
 20
1198.961158859
  0
VERTEX
  5
27D
100
AcDbEntity
  8
レイヤ1
100
AcDbVertex
100
AcDb2dVertex
 10
52.53874741068
 20
1212.432632554
  0
VERTEX
  5
27E
100
AcDbEntity
  8
レイヤ1
100
AcDbVertex
100
AcDb2dVertex
 10
65.67343426335
 20
1234.660564151
  0
VERTEX
  5
27F
100
AcDbEntity
  8
レイヤ1
100
AcDbVertex
100
AcDb2dVertex
 10
68.36772900236
 20
1203.676174652
  0
VERTEX
  5
280
100
AcDbEntity
  8
レイヤ1
100
AcDbVertex
100
AcDb2dVertex
 10
74.09310532275
 20
1191.888635169
  0
VERTEX
  5
281
100
AcDbEntity
  8
レイヤ1
100
AcDbVertex
100
AcDb2dVertex
 10
74.7666790075
 20
1168.313556203
  0
VERTEX
  5
282
100
AcDbEntity
  8
レイヤ1
100
AcDbVertex
100
AcDb2dVertex
 10
73.75631848037
 20
1145.412050921
  0
VERTEX
  5
283
100
AcDbEntity
  8
レイヤ1
100
AcDbVertex
100
AcDb2dVertex
 10
79.14490795839
 20
1166.966408833
  0
VERTEX
  5
284
100
AcDbEntity
  8
レイヤ1
100
AcDbVertex
100
AcDb2dVertex
 10
80.82884217027
 20
1179.090735159
  0
VERTEX
  5
285
100
AcDbEntity
  8
レイヤ1
100
AcDbVertex
100
AcDb2dVertex
 10
87.90136586017
 20
1182.795390425
  0
VERTEX
  5
286
100
AcDbEntity
  8
レイヤ1
100
AcDbVertex
100
AcDb2dVertex
 10
93.62674218057
 20
1189.867914115
  0
VERTEX
  5
287
100
AcDbEntity
  8
レイヤ1
100
AcDbVertex
100
AcDb2dVertex
 10
96.99461060433
 20
1202.329027283
  0
VERTEX
  5
288
100
AcDbEntity
  8
レイヤ1
100
AcDbVertex
100
AcDb2dVertex
 10
96.99461060433
 20
1229.608761515
  0
VERTEX
  5
289
100
AcDbEntity
  8
レイヤ1
100
AcDbVertex
100
AcDb2dVertex
 10
93.62674218057
 20
1241.059514156
  0
VERTEX
  5
28A
100
AcDbEntity
  8
レイヤ1
100
AcDbVertex
100
AcDb2dVertex
 10
93.28995533819
 20
1249.479185215
  0
VERTEX
  5
28B
100
AcDbEntity
  8
レイヤ1
100
AcDbVertex
100
AcDb2dVertex
 10
92.44798823225
 20
1252.510266797
  0
SEQEND
  5
28C
100
AcDbEntity
  8
レイヤ1
  0
POLYLINE
  5
28D
100
AcDbEntity
  8
レイヤ1
  6
CONTINUOUS
 62
     0
100
AcDb2dPolyline
 66
     1
 10
0
 20
0
 70
     0
  0
VERTEX
  5
28E
100
AcDbEntity
  8
レイヤ1
100
AcDbVertex
100
AcDb2dVertex
 10
-66.68379479047
 20
1173.702145681
  0
VERTEX
  5
28F
100
AcDbEntity
  8
レイヤ1
100
AcDbVertex
100
AcDb2dVertex
 10
-66.01022110572
 20
1160.230671986
  0
VERTEX
  5
290
100
AcDbEntity
  8
レイヤ1
100
AcDbVertex
100
AcDb2dVertex
 10
-66.3470079481
 20
1151.811000926
  0
VERTEX
  5
291
100
AcDbEntity
  8
レイヤ1
100
AcDbVertex
100
AcDb2dVertex
 10
-64.99986057859
 20
1148.443132503
  0
VERTEX
  5
292
100
AcDbEntity
  8
レイヤ1
100
AcDbVertex
100
AcDb2dVertex
 10
-60.6216316277
 20
1145.075264079
  0
VERTEX
  5
293
100
AcDbEntity
  8
レイヤ1
100
AcDbVertex
100
AcDb2dVertex
 10
-58.26412373107
 20
1135.645232492
  0
VERTEX
  5
294
100
AcDbEntity
  8
レイヤ1
100
AcDbVertex
100
AcDb2dVertex
 10
-52.87553425305
 20
1128.909495645
  0
VERTEX
  5
295
100
AcDbEntity
  8
レイヤ1
100
AcDbVertex
100
AcDb2dVertex
 10
-49.84445267167
 20
1127.225561433
  0
VERTEX
  5
296
100
AcDbEntity
  8
レイヤ1
100
AcDbVertex
100
AcDb2dVertex
 10
-41.08799476989
 20
1109.375858787
  0
VERTEX
  5
297
100
AcDbEntity
  8
レイヤ1
100
AcDbVertex
100
AcDb2dVertex
 10
-27.27973423247
 20
1090.852582456
  0
VERTEX
  5
298
100
AcDbEntity
  8
レイヤ1
100
AcDbVertex
100
AcDb2dVertex
 10
-15.15540790693
 20
1083.780058766
  0
VERTEX
  5
299
100
AcDbEntity
  8
レイヤ1
100
AcDbVertex
100
AcDb2dVertex
 10
-3.367868423761
 20
1079.738616658
  0
VERTEX
  5
29A
100
AcDbEntity
  8
レイヤ1
100
AcDbVertex
100
AcDb2dVertex
 10
10.10360527128
 20
1077.717895604
  0
VERTEX
  5
29B
100
AcDbEntity
  8
レイヤ1
100
AcDbVertex
100
AcDb2dVertex
 10
25.93258686296
 20
1078.054682446
  0
VERTEX
  5
29C
100
AcDbEntity
  8
レイヤ1
100
AcDbVertex
100
AcDb2dVertex
 10
34.35225792237
 20
1080.748977185
  0
VERTEX
  5
29D
100
AcDbEntity
  8
レイヤ1
100
AcDbVertex
100
AcDb2dVertex
 10
42.77192898177
 20
1084.790419294
  0
VERTEX
  5
29E
100
AcDbEntity
  8
レイヤ1
100
AcDbVertex
100
AcDb2dVertex
 10
56.24340267681
 20
1097.251532461
  0
VERTEX
  5
29F
100
AcDbEntity
  8
レイヤ1
100
AcDbVertex
100
AcDb2dVertex
 10
64.66307373622
 20
1107.691924575
  0
VERTEX
  5
2A0
100
AcDbEntity
  8
レイヤ1
100
AcDbVertex
100
AcDb2dVertex
 10
69.71487637186
 20
1118.805890374
  0
VERTEX
  5
2A1
100
AcDbEntity
  8
レイヤ1
100
AcDbVertex
100
AcDb2dVertex
 10
74.7666790075
 20
1137.665953547
  0
VERTEX
  5
2A2
100
AcDbEntity
  8
レイヤ1
100
AcDbVertex
100
AcDb2dVertex
 10
79.14490795839
 20
1136.655593019
  0
VERTEX
  5
2A3
100
AcDbEntity
  8
レイヤ1
100
AcDbVertex
100
AcDb2dVertex
 10
82.17598953978
 20
1136.992379862
  0
VERTEX
  5
2A4
100
AcDbEntity
  8
レイヤ1
100
AcDbVertex
100
AcDb2dVertex
 10
84.87028427879
 20
1141.370608813
  0
VERTEX
  5
2A5
100
AcDbEntity
  8
レイヤ1
100
AcDbVertex
100
AcDb2dVertex
 10
85.54385796354
 20
1154.505295665
  0
VERTEX
  5
2A6
100
AcDbEntity
  8
レイヤ1
100
AcDbVertex
100
AcDb2dVertex
 10
89.58530007205
 20
1165.619261464
  0
VERTEX
  5
2A7
100
AcDbEntity
  8
レイヤ1
100
AcDbVertex
100
AcDb2dVertex
 10
94.63710270769
 20
1171.681424627
  0
VERTEX
  5
2A8
100
AcDbEntity
  8
レイヤ1
100
AcDbVertex
100
AcDb2dVertex
 10
94.97388955007
 20
1180.774669371
  0
VERTEX
  5
2A9
100
AcDbEntity
  8
レイヤ1
100
AcDbVertex
100
AcDb2dVertex
 10
93.28995533819
 20
1185.489685164
  0
VERTEX
  5
2AA
100
AcDbEntity
  8
レイヤ1
100
AcDbVertex
100
AcDb2dVertex
 10
90.76405402037
 20
1186.33165227
  0
SEQEND
  5
2AB
100
AcDbEntity
  8
レイヤ1
  0
POLYLINE
  5
2AC
100
AcDbEntity
  8
レイヤ1
  6
CONTINUOUS
 62
     0
100
AcDb2dPolyline
 66
     1
 10
0
 20
0
 70
     0
  0
VERTEX
  5
2AD
100
AcDbEntity
  8
レイヤ1
100
AcDbVertex
100
AcDb2dVertex
 10
-27.27973423247
 20
1090.852582456
  0
VERTEX
  5
2AE
100
AcDbEntity
  8
レイヤ1
100
AcDbVertex
100
AcDb2dVertex
 10
-22.90150528158
 20
1084.453632451
  0
VERTEX
  5
2AF
100
AcDbEntity
  8
レイヤ1
100
AcDbVertex
100
AcDb2dVertex
 10
-3.79351447166
 20
1071.420435126
  0
VERTEX
  5
2B0
100
AcDbEntity
  8
レイヤ1
100
AcDbVertex
100
AcDb2dVertex
 10
16.65847659294
 20
1055.586635592
  0
VERTEX
  5
2B1
100
AcDbEntity
  8
レイヤ1
100
AcDbVertex
100
AcDb2dVertex
 10
37.44033848117
 20
1076.038626657
  0
VERTEX
  5
2B2
100
AcDbEntity
  8
レイヤ1
100
AcDbVertex
100
AcDb2dVertex
 10
55.25336295679
 20
1095.006199015
  0
VERTEX
  5
2B3
100
AcDbEntity
  8
レイヤ1
100
AcDbVertex
100
AcDb2dVertex
 10
56.9027170749
 20
1093.026974074
  0
SEQEND
  5
2B4
100
AcDbEntity
  8
レイヤ1
  0
LINE
  5
2B5
100
AcDbEntity
  8
レイヤ1
  6
CONTINUOUS
 62
     0
100
AcDbLine
 10
55.25336295679
 20
1095.006199015
 11
56.24340267681
 21
1097.251532461
  0
POLYLINE
  5
2B6
100
AcDbEntity
  8
レイヤ1
  6
CONTINUOUS
 62
     0
100
AcDb2dPolyline
 66
     1
 10
0
 20
0
 70
     0
  0
VERTEX
  5
2B7
100
AcDbEntity
  8
レイヤ1
100
AcDbVertex
100
AcDb2dVertex
 10
16.16367035751
 20
1027.052809349
  0
VERTEX
  5
2B8
100
AcDbEntity
  8
レイヤ1
100
AcDbVertex
100
AcDb2dVertex
 10
1.347147369505
 20
998.9097744876
  0
VERTEX
  5
2B9
100
AcDbEntity
  8
レイヤ1
100
AcDbVertex
100
AcDb2dVertex
 10
-22.22793159682
 20
949.065321816
  0
SEQEND
  5
2BA
100
AcDbEntity
  8
レイヤ1
  0
POLYLINE
  5
2BB
100
AcDbEntity
  8
レイヤ1
  6
CONTINUOUS
 62
     0
100
AcDb2dPolyline
 66
     1
 10
0
 20
0
 70
     0
  0
VERTEX
  5
2BC
100
AcDbEntity
  8
レイヤ1
100
AcDbVertex
100
AcDb2dVertex
 10
59.95714687236
 20
1091.407155814
  0
VERTEX
  5
2BD
100
AcDbEntity
  8
レイヤ1
100
AcDbVertex
100
AcDb2dVertex
 10
42.09835529702
 20
1065.256782436
  0
VERTEX
  5
2BE
100
AcDbEntity
  8
レイヤ1
100
AcDbVertex
100
AcDb2dVertex
 10
17.84970264594
 20
1023.158427139
  0
VERTEX
  5
2BF
100
AcDbEntity
  8
レイヤ1
100
AcDbVertex
100
AcDb2dVertex
 10
1.010360527128
 20
993.857971852
  0
VERTEX
  5
2C0
100
AcDbEntity
  8
レイヤ1
100
AcDbVertex
100
AcDb2dVertex
 10
-18.18648948831
 20
949.7388955007
  0
SEQEND
  5
2C1
100
AcDbEntity
  8
レイヤ1
  0
POLYLINE
  5
2C2
100
AcDbEntity
  8
レイヤ1
  6
CONTINUOUS
 62
     0
100
AcDb2dPolyline
 66
     1
 10
0
 20
0
 70
     0
  0
VERTEX
  5
2C3
100
AcDbEntity
  8
レイヤ1
100
AcDbVertex
100
AcDb2dVertex
 10
-54.20787072892
 20
1055.167988058
  0
VERTEX
  5
2C4
100
AcDbEntity
  8
レイヤ1
100
AcDbVertex
100
AcDb2dVertex
 10
-47.64429600467
 20
1034.699357677
  0
VERTEX
  5
2C5
100
AcDbEntity
  8
レイヤ1
100
AcDbVertex
100
AcDb2dVertex
 10
-23.58152024474
 20
985.6112951269
  0
SEQEND
  5
2C6
100
AcDbEntity
  8
レイヤ1
  0
POLYLINE
  5
2C7
100
AcDbEntity
  8
レイヤ1
  6
CONTINUOUS
 62
     0
100
AcDb2dPolyline
 66
     1
 10
0
 20
0
 70
     0
  0
VERTEX
  5
2C8
100
AcDbEntity
  8
レイヤ1
100
AcDbVertex
100
AcDb2dVertex
 10
79.42631493759
 20
1058.93897037
  0
VERTEX
  5
2C9
100
AcDbEntity
  8
レイヤ1
100
AcDbVertex
100
AcDb2dVertex
 10
81.81343758378
 20
1037.586890768
  0
VERTEX
  5
2CA
100
AcDbEntity
  8
レイヤ1
100
AcDbVertex
100
AcDb2dVertex
 10
66.89451661262
 20
991.8676168245
  0
VERTEX
  5
2CB
100
AcDbEntity
  8
レイヤ1
100
AcDbVertex
100
AcDb2dVertex
 10
61.60070594543
 20
961.0672638518
  0
SEQEND
  5
2CC
100
AcDbEntity
  8
レイヤ1
  0
POLYLINE
  5
2CD
100
AcDbEntity
  8
レイヤ1
  6
CONTINUOUS
 62
     0
100
AcDb2dPolyline
 66
     1
 10
0
 20
0
 70
     0
  0
VERTEX
  5
2CE
100
AcDbEntity
  8
レイヤ1
100
AcDbVertex
100
AcDb2dVertex
 10
150.6329762572
 20
1005.34277125
  0
VERTEX
  5
2CF
100
AcDbEntity
  8
レイヤ1
100
AcDbVertex
100
AcDb2dVertex
 10
138.120332862
 20
953.3671756086
  0
VERTEX
  5
2D0
100
AcDbEntity
  8
レイヤ1
100
AcDbVertex
100
AcDb2dVertex
 10
123.6826674061
 20
936.5232325766
  0
VERTEX
  5
2D1
100
AcDbEntity
  8
レイヤ1
100
AcDbVertex
100
AcDb2dVertex
 10
124.6451784365
 20
917.2730119687
  0
VERTEX
  5
2D2
100
AcDbEntity
  8
レイヤ1
100
AcDbVertex
100
AcDb2dVertex
 10
127.0514560125
 20
886.9539145112
  0
VERTEX
  5
2D3
100
AcDbEntity
  8
レイヤ1
100
AcDbVertex
100
AcDb2dVertex
 10
120.3138787997
 20
868.1849494184
  0
VERTEX
  5
2D4
100
AcDbEntity
  8
レイヤ1
100
AcDbVertex
100
AcDb2dVertex
 10
117.9076012237
 20
850.3784953561
  0
SEQEND
  5
2D5
100
AcDbEntity
  8
レイヤ1
  0
POLYLINE
  5
2D6
100
AcDbEntity
  8
レイヤ1
  6
CONTINUOUS
 62
     0
100
AcDb2dPolyline
 66
     1
 10
0
 20
0
 70
     0
  0
VERTEX
  5
2D7
100
AcDbEntity
  8
レイヤ1
100
AcDbVertex
100
AcDb2dVertex
 10
152.0767428028
 20
903.7978575431
  0
VERTEX
  5
2D8
100
AcDbEntity
  8
レイヤ1
100
AcDbVertex
100
AcDb2dVertex
 10
143.4141435292
 20
883.5851259048
  0
VERTEX
  5
2D9
100
AcDbEntity
  8
レイヤ1
100
AcDbVertex
100
AcDb2dVertex
 10
130.4202446188
 20
866.2599273576
  0
VERTEX
  5
2DA
100
AcDbEntity
  8
レイヤ1
100
AcDbVertex
100
AcDb2dVertex
 10
124.6451784365
 20
854.7097949929
  0
VERTEX
  5
2DB
100
AcDbEntity
  8
レイヤ1
100
AcDbVertex
100
AcDb2dVertex
 10
117.9076012237
 20
850.3784953561
  0
VERTEX
  5
2DC
100
AcDbEntity
  8
レイヤ1
100
AcDbVertex
100
AcDb2dVertex
 10
103.4699357677
 20
839.3096185065
  0
VERTEX
  5
2DD
100
AcDbEntity
  8
レイヤ1
100
AcDbVertex
100
AcDb2dVertex
 10
94.32608097894
 20
830.6470192329
  0
VERTEX
  5
2DE
100
AcDbEntity
  8
レイヤ1
100
AcDbVertex
100
AcDb2dVertex
 10
60.15693939984
 20
821.5031644442
  0
VERTEX
  5
2DF
100
AcDbEntity
  8
レイヤ1
100
AcDbVertex
100
AcDb2dVertex
 10
52.93810667186
 20
816.209353777
  0
VERTEX
  5
2E0
100
AcDbEntity
  8
レイヤ1
100
AcDbVertex
100
AcDb2dVertex
 10
52.93810667186
 20
813.803076201
  0
VERTEX
  5
2E1
100
AcDbEntity
  8
レイヤ1
100
AcDbVertex
100
AcDb2dVertex
 10
59.61127110058
 20
814.6873717079
  0
VERTEX
  5
2E2
100
AcDbEntity
  8
レイヤ1
100
AcDbVertex
100
AcDb2dVertex
 10
67.35736847523
 20
806.6044874908
  0
VERTEX
  5
2E3
100
AcDbEntity
  8
レイヤ1
100
AcDbVertex
100
AcDb2dVertex
 10
77.12418690414
 20
790.7755058992
  0
VERTEX
  5
2E4
100
AcDbEntity
  8
レイヤ1
100
AcDbVertex
100
AcDb2dVertex
 10
84.19671059403
 20
776.9672453617
  0
VERTEX
  5
2E5
100
AcDbEntity
  8
レイヤ1
100
AcDbVertex
100
AcDb2dVertex
 10
90.2588737568
 20
763.8325585091
  0
VERTEX
  5
2E6
100
AcDbEntity
  8
レイヤ1
100
AcDbVertex
100
AcDb2dVertex
 10
109.1189369299
 20
748.6771506022
  0
VERTEX
  5
2E7
100
AcDbEntity
  8
レイヤ1
100
AcDbVertex
100
AcDb2dVertex
 10
119.5593290435
 20
739.583905858
  0
VERTEX
  5
2E8
100
AcDbEntity
  8
レイヤ1
100
AcDbVertex
100
AcDb2dVertex
 10
133.0308027386
 20
723.4181374239
  0
VERTEX
  5
2E9
100
AcDbEntity
  8
レイヤ1
100
AcDbVertex
100
AcDb2dVertex
 10
132.6940158962
 20
718.7031216307
  0
SEQEND
  5
2EA
100
AcDbEntity
  8
レイヤ1
  0
POLYLINE
  5
2EB
100
AcDbEntity
  8
レイヤ1
  6
CONTINUOUS
 62
     0
100
AcDb2dPolyline
 66
     1
 10
0
 20
0
 70
     0
  0
VERTEX
  5
2EC
100
AcDbEntity
  8
レイヤ1
100
AcDbVertex
100
AcDb2dVertex
 10
93.28995533819
 20
716.345613734
  0
VERTEX
  5
2ED
100
AcDbEntity
  8
レイヤ1
100
AcDbVertex
100
AcDb2dVertex
 10
96.73235855494
 20
704.0768187357
  0
VERTEX
  5
2EE
100
AcDbEntity
  8
レイヤ1
100
AcDbVertex
100
AcDb2dVertex
 10
96.73235855494
 20
640.5510907295
  0
VERTEX
  5
2EF
100
AcDbEntity
  8
レイヤ1
100
AcDbVertex
100
AcDb2dVertex
 10
95.76984752454
 20
600.1256274528
  0
VERTEX
  5
2F0
100
AcDbEntity
  8
レイヤ1
100
AcDbVertex
100
AcDb2dVertex
 10
92.88231443335
 20
538.0436659921
  0
VERTEX
  5
2F1
100
AcDbEntity
  8
レイヤ1
100
AcDbVertex
100
AcDb2dVertex
 10
94.32608097894
 20
520.718467445
  0
VERTEX
  5
2F2
100
AcDbEntity
  8
レイヤ1
100
AcDbVertex
100
AcDb2dVertex
 10
96.73235855494
 20
513.9808902322
  0
VERTEX
  5
2F3
100
AcDbEntity
  8
レイヤ1
100
AcDbVertex
100
AcDb2dVertex
 10
78.92590449258
 20
420.6173202837
  0
VERTEX
  5
2F4
100
AcDbEntity
  8
レイヤ1
100
AcDbVertex
100
AcDb2dVertex
 10
76.03837140139
 20
368.6417246422
  0
VERTEX
  5
2F5
100
AcDbEntity
  8
レイヤ1
100
AcDbVertex
100
AcDb2dVertex
 10
65.93200558222
 20
337.8413716695
  0
VERTEX
  5
2F6
100
AcDbEntity
  8
レイヤ1
100
AcDbVertex
100
AcDb2dVertex
 10
53.41936218705
 20
320.5161731223
  0
VERTEX
  5
2F7
100
AcDbEntity
  8
レイヤ1
100
AcDbVertex
100
AcDb2dVertex
 10
47.64429600467
 20
315.2223624551
  0
VERTEX
  5
2F8
100
AcDbEntity
  8
レイヤ1
100
AcDbVertex
100
AcDb2dVertex
 10
47.64429600467
 20
313.2973403943
  0
VERTEX
  5
2F9
100
AcDbEntity
  8
レイヤ1
100
AcDbVertex
100
AcDb2dVertex
 10
51.01308461106
 20
310.4098073032
  0
VERTEX
  5
2FA
100
AcDbEntity
  8
レイヤ1
100
AcDbVertex
100
AcDb2dVertex
 10
82.29469309898
 20
296.9346528776
  0
VERTEX
  5
2FB
100
AcDbEntity
  8
レイヤ1
100
AcDbVertex
100
AcDb2dVertex
 10
116.5282474621
 20
282.5641607536
  0
SEQEND
  5
2FC
100
AcDbEntity
  8
レイヤ1
  0
POLYLINE
  5
2FD
100
AcDbEntity
  8
レイヤ1
  6
CONTINUOUS
 62
     0
100
AcDb2dPolyline
 66
     1
 10
0
 20
0
 70
     0
  0
VERTEX
  5
2FE
100
AcDbEntity
  8
レイヤ1
100
AcDbVertex
100
AcDb2dVertex
 10
94.32608097894
 20
569.0846467224
  0
VERTEX
  5
2FF
100
AcDbEntity
  8
レイヤ1
100
AcDbVertex
100
AcDb2dVertex
 10
81.81343758378
 20
497.1369472002
  0
VERTEX
  5
300
100
AcDbEntity
  8
レイヤ1
100
AcDbVertex
100
AcDb2dVertex
 10
69.78204970381
 20
445.1613515588
  0
VERTEX
  5
301
100
AcDbEntity
  8
レイヤ1
100
AcDbVertex
100
AcDb2dVertex
 10
51.97559564146
 20
362.3854029446
  0
VERTEX
  5
302
100
AcDbEntity
  8
レイヤ1
100
AcDbVertex
100
AcDb2dVertex
 10
47.16304048947
 20
331.5850499719
  0
VERTEX
  5
303
100
AcDbEntity
  8
レイヤ1
100
AcDbVertex
100
AcDb2dVertex
 10
47.64429600467
 20
313.2973403943
  0
SEQEND
  5
304
100
AcDbEntity
  8
レイヤ1
  0
POLYLINE
  5
305
100
AcDbEntity
  8
レイヤ1
  6
CONTINUOUS
 62
     0
100
AcDb2dPolyline
 66
     1
 10
0
 20
0
 70
     0
  0
VERTEX
  5
306
100
AcDbEntity
  8
レイヤ1
100
AcDbVertex
100
AcDb2dVertex
 10
96.73235855494
 20
513.9808902322
  0
VERTEX
  5
307
100
AcDbEntity
  8
レイヤ1
100
AcDbVertex
100
AcDb2dVertex
 10
100.5824026765
 20
509.1683350802
  0
VERTEX
  5
308
100
AcDbEntity
  8
レイヤ1
100
AcDbVertex
100
AcDb2dVertex
 10
107.8012354045
 20
468.2616162883
  0
VERTEX
  5
309
100
AcDbEntity
  8
レイヤ1
100
AcDbVertex
100
AcDb2dVertex
 10
111.1700240109
 20
459.5990170147
  0
VERTEX
  5
30A
100
AcDbEntity
  8
レイヤ1
100
AcDbVertex
100
AcDb2dVertex
 10
141.4891214684
 20
404.2546327669
  0
VERTEX
  5
30B
100
AcDbEntity
  8
レイヤ1
100
AcDbVertex
100
AcDb2dVertex
 10
184.8021178363
 20
334.9538385783
  0
VERTEX
  5
30C
100
AcDbEntity
  8
レイヤ1
100
AcDbVertex
100
AcDb2dVertex
 10
221.3775369914
 20
270.9468550569
  0
SEQEND
  5
30D
100
AcDbEntity
  8
レイヤ1
  0
POLYLINE
  5
30E
100
AcDbEntity
  8
レイヤ1
  6
CONTINUOUS
 62
     0
100
AcDb2dPolyline
 66
     1
 10
0
 20
0
 70
     0
  0
VERTEX
  5
30F
100
AcDbEntity
  8
レイヤ1
100
AcDbVertex
100
AcDb2dVertex
 10
111.1396579841
 20
699.5062716152
  0
VERTEX
  5
310
100
AcDbEntity
  8
レイヤ1
100
AcDbVertex
100
AcDb2dVertex
 10
143.4711948522
 20
641.9157215689
  0
VERTEX
  5
311
100
AcDbEntity
  8
レイヤ1
100
AcDbVertex
100
AcDb2dVertex
 10
159.6369632863
 20
620.0245768145
  0
VERTEX
  5
312
100
AcDbEntity
  8
レイヤ1
100
AcDbVertex
100
AcDb2dVertex
 10
163.3416185524
 20
609.5841847008
  0
VERTEX
  5
313
100
AcDbEntity
  8
レイヤ1
100
AcDbVertex
100
AcDb2dVertex
 10
163.6784053948
 20
603.8588083804
  0
SEQEND
  5
314
100
AcDbEntity
  8
レイヤ1
  0
POLYLINE
  5
315
100
AcDbEntity
  8
レイヤ1
  6
CONTINUOUS
 62
     0
100
AcDb2dPolyline
 66
     1
 10
0
 20
0
 70
     0
  0
VERTEX
  5
316
100
AcDbEntity
  8
レイヤ1
100
AcDbVertex
100
AcDb2dVertex
 10
179.0270516539
 20
682.4203205517
  0
VERTEX
  5
317
100
AcDbEntity
  8
レイヤ1
100
AcDbVertex
100
AcDb2dVertex
 10
172.7707299563
 20
633.3322580015
  0
VERTEX
  5
318
100
AcDbEntity
  8
レイヤ1
100
AcDbVertex
100
AcDb2dVertex
 10
167.9581748043
 20
604.4569270895
  0
VERTEX
  5
319
100
AcDbEntity
  8
レイヤ1
100
AcDbVertex
100
AcDb2dVertex
 10
161.2205975916
 20
587.6129840576
  0
VERTEX
  5
31A
100
AcDbEntity
  8
レイヤ1
100
AcDbVertex
100
AcDb2dVertex
 10
130.4202446188
 20
536.5998994465
  0
VERTEX
  5
31B
100
AcDbEntity
  8
レイヤ1
100
AcDbVertex
100
AcDb2dVertex
 10
109.2450019501
 20
510.6121016258
  0
SEQEND
  5
31C
100
AcDbEntity
  8
レイヤ1
  0
POLYLINE
  5
31D
100
AcDbEntity
  8
レイヤ1
  6
CONTINUOUS
 62
     0
100
AcDb2dPolyline
 66
     1
 10
0
 20
0
 70
     0
  0
VERTEX
  5
31E
100
AcDbEntity
  8
レイヤ1
100
AcDbVertex
100
AcDb2dVertex
 10
186.9482034223
 20
747.583883854
  0
VERTEX
  5
31F
100
AcDbEntity
  8
レイヤ1
100
AcDbVertex
100
AcDb2dVertex
 10
200.6835498379
 20
727.1770834652
  0
VERTEX
  5
320
100
AcDbEntity
  8
レイヤ1
100
AcDbVertex
100
AcDb2dVertex
 10
206.9398715354
 20
713.7019290397
  0
VERTEX
  5
321
100
AcDbEntity
  8
レイヤ1
100
AcDbVertex
100
AcDb2dVertex
 10
215.1212152938
 20
671.8326992174
  0
VERTEX
  5
322
100
AcDbEntity
  8
レイヤ1
100
AcDbVertex
100
AcDb2dVertex
 10
222.3400480218
 20
655.9512672158
  0
VERTEX
  5
323
100
AcDbEntity
  8
レイヤ1
100
AcDbVertex
100
AcDb2dVertex
 10
221.8587925066
 20
652.1012230942
  0
VERTEX
  5
324
100
AcDbEntity
  8
レイヤ1
100
AcDbVertex
100
AcDb2dVertex
 10
215.8803659631
 20
635.1799847214
  0
VERTEX
  5
325
100
AcDbEntity
  8
レイヤ1
100
AcDbVertex
100
AcDb2dVertex
 10
212.5124975393
 20
633.8328373519
  0
VERTEX
  5
326
100
AcDbEntity
  8
レイヤ1
100
AcDbVertex
100
AcDb2dVertex
 10
192.6250867271
 20
629.1371986879
  0
SEQEND
  5
327
100
AcDbEntity
  8
レイヤ1
  0
POLYLINE
  5
328
100
AcDbEntity
  8
レイヤ1
  6
CONTINUOUS
 62
     0
100
AcDb2dPolyline
 66
     1
 10
0
 20
0
 70
     0
  0
VERTEX
  5
329
100
AcDbEntity
  8
レイヤ1
100
AcDbVertex
100
AcDb2dVertex
 10
-142.4516324988
 20
978.3924623989
  0
VERTEX
  5
32A
100
AcDbEntity
  8
レイヤ1
100
AcDbVertex
100
AcDb2dVertex
 10
-134.2702887404
 20
968.767352095
  0
VERTEX
  5
32B
100
AcDbEntity
  8
レイヤ1
100
AcDbVertex
100
AcDb2dVertex
 10
-113.5763015869
 20
955.7734531846
  0
VERTEX
  5
32C
100
AcDbEntity
  8
レイヤ1
100
AcDbVertex
100
AcDb2dVertex
 10
-101.0636581917
 20
948.5546204566
  0
VERTEX
  5
32D
100
AcDbEntity
  8
レイヤ1
100
AcDbVertex
100
AcDb2dVertex
 10
-89.03227031176
 20
935.079466031
  0
SEQEND
  5
32E
100
AcDbEntity
  8
レイヤ1
  0
POLYLINE
  5
32F
100
AcDbEntity
  8
レイヤ1
  6
CONTINUOUS
 62
     0
100
AcDb2dPolyline
 66
     1
 10
0
 20
0
 70
     0
  0
VERTEX
  5
330
100
AcDbEntity
  8
レイヤ1
100
AcDbVertex
100
AcDb2dVertex
 10
-128.0139670429
 20
950.4796425174
  0
VERTEX
  5
331
100
AcDbEntity
  8
レイヤ1
100
AcDbVertex
100
AcDb2dVertex
 10
-110.2075129805
 20
942.7795542742
  0
VERTEX
  5
332
100
AcDbEntity
  8
レイヤ1
100
AcDbVertex
100
AcDb2dVertex
 10
-99.61989164613
 20
935.5607215462
  0
VERTEX
  5
333
100
AcDbEntity
  8
レイヤ1
100
AcDbVertex
100
AcDb2dVertex
 10
-96.73235855494
 20
931.7106774247
  0
SEQEND
  5
334
100
AcDbEntity
  8
レイヤ1
  0
POLYLINE
  5
335
100
AcDbEntity
  8
レイヤ1
  6
CONTINUOUS
 62
     0
100
AcDb2dPolyline
 66
     1
 10
0
 20
0
 70
     0
  0
VERTEX
  5
336
100
AcDbEntity
  8
レイヤ1
100
AcDbVertex
100
AcDb2dVertex
 10
-115.9825791629
 20
901.3915799671
  0
VERTEX
  5
337
100
AcDbEntity
  8
レイヤ1
100
AcDbVertex
100
AcDb2dVertex
 10
-132.3452666796
 20
906.2041351191
  0
VERTEX
  5
338
100
AcDbEntity
  8
レイヤ1
100
AcDbVertex
100
AcDb2dVertex
 10
-154.4830203788
 20
898.5040468759
  0
VERTEX
  5
339
100
AcDbEntity
  8
レイヤ1
100
AcDbVertex
100
AcDb2dVertex
 10
-182.8770957755
 20
884.5476369352
  0
SEQEND
  5
33A
100
AcDbEntity
  8
レイヤ1
  0
POLYLINE
  5
33B
100
AcDbEntity
  8
レイヤ1
  6
CONTINUOUS
 62
     0
100
AcDb2dPolyline
 66
     1
 10
0
 20
0
 70
     0
  0
VERTEX
  5
33C
100
AcDbEntity
  8
レイヤ1
100
AcDbVertex
100
AcDb2dVertex
 10
-107.8012354045
 20
921.1230560903
  0
VERTEX
  5
33D
100
AcDbEntity
  8
レイヤ1
100
AcDbVertex
100
AcDb2dVertex
 10
-116.9450901933
 20
916.7917564535
  0
VERTEX
  5
33E
100
AcDbEntity
  8
レイヤ1
100
AcDbVertex
100
AcDb2dVertex
 10
-119.3513677693
 20
912.9417123319
  0
VERTEX
  5
33F
100
AcDbEntity
  8
レイヤ1
100
AcDbVertex
100
AcDb2dVertex
 10
-118.8701122541
 20
908.6104126951
  0
VERTEX
  5
340
100
AcDbEntity
  8
レイヤ1
100
AcDbVertex
100
AcDb2dVertex
 10
-115.9825791629
 20
901.3915799671
  0
VERTEX
  5
341
100
AcDbEntity
  8
レイヤ1
100
AcDbVertex
100
AcDb2dVertex
 10
-122.7201563757
 20
895.6165137848
  0
VERTEX
  5
342
100
AcDbEntity
  8
レイヤ1
100
AcDbVertex
100
AcDb2dVertex
 10
-136.1953108012
 20
891.285214148
  0
VERTEX
  5
343
100
AcDbEntity
  8
レイヤ1
100
AcDbVertex
100
AcDb2dVertex
 10
-151.5954872876
 20
882.6226148744
  0
VERTEX
  5
344
100
AcDbEntity
  8
レイヤ1
100
AcDbVertex
100
AcDb2dVertex
 10
-165.0706417131
 20
872.5162490552
  0
SEQEND
  5
345
100
AcDbEntity
  8
レイヤ1
  0
POLYLINE
  5
346
100
AcDbEntity
  8
レイヤ1
  6
CONTINUOUS
 62
     0
100
AcDb2dPolyline
 66
     1
 10
0
 20
0
 70
     0
  0
VERTEX
  5
347
100
AcDbEntity
  8
レイヤ1
100
AcDbVertex
100
AcDb2dVertex
 10
-134.0411632657
 20
882.0447401831
  0
VERTEX
  5
348
100
AcDbEntity
  8
レイヤ1
100
AcDbVertex
100
AcDb2dVertex
 10
-126.9686395758
 20
890.4644112425
  0
VERTEX
  5
349
100
AcDbEntity
  8
レイヤ1
100
AcDbVertex
100
AcDb2dVertex
 10
-111.8132316689
 20
902.588737568
  0
VERTEX
  5
34A
100
AcDbEntity
  8
レイヤ1
100
AcDbVertex
100
AcDb2dVertex
 10
-105.3518183297
 20
906.9212459342
  0
VERTEX
  5
34B
100
AcDbEntity
  8
レイヤ1
100
AcDbVertex
100
AcDb2dVertex
 10
-89.92208691443
 20
911.0084086274
  0
VERTEX
  5
34C
100
AcDbEntity
  8
レイヤ1
100
AcDbVertex
100
AcDb2dVertex
 10
-65.67343426335
 20
912.355555997
  0
VERTEX
  5
34D
100
AcDbEntity
  8
レイヤ1
100
AcDbVertex
100
AcDb2dVertex
 10
-53.21232109543
 20
914.3762770512
  0
VERTEX
  5
34E
100
AcDbEntity
  8
レイヤ1
100
AcDbVertex
100
AcDb2dVertex
 10
-49.50766582929
 20
913.3659165241
  0
VERTEX
  5
34F
100
AcDbEntity
  8
レイヤ1
100
AcDbVertex
100
AcDb2dVertex
 10
-46.81337109028
 20
911.3451954698
  0
VERTEX
  5
350
100
AcDbEntity
  8
レイヤ1
100
AcDbVertex
100
AcDb2dVertex
 10
-45.46622372078
 20
906.9669665189
  0
SEQEND
  5
351
100
AcDbEntity
  8
レイヤ1
  0
POLYLINE
  5
352
100
AcDbEntity
  8
レイヤ1
  6
CONTINUOUS
 62
     0
100
AcDb2dPolyline
 66
     1
 10
0
 20
0
 70
     0
  0
VERTEX
  5
353
100
AcDbEntity
  8
レイヤ1
100
AcDbVertex
100
AcDb2dVertex
 10
-55.90661583444
 20
906.2933928342
  0
VERTEX
  5
354
100
AcDbEntity
  8
レイヤ1
100
AcDbVertex
100
AcDb2dVertex
 10
-45.46622372078
 20
906.9669665189
  0
VERTEX
  5
355
100
AcDbEntity
  8
レイヤ1
100
AcDbVertex
100
AcDb2dVertex
 10
-39.40406055801
 20
905.2830323071
  0
VERTEX
  5
356
100
AcDbEntity
  8
レイヤ1
100
AcDbVertex
100
AcDb2dVertex
 10
-30.9843894986
 20
900.2312296714
  0
VERTEX
  5
357
100
AcDbEntity
  8
レイヤ1
100
AcDbVertex
100
AcDb2dVertex
 10
-10.44039211366
 20
889.4540507154
  0
VERTEX
  5
358
100
AcDbEntity
  8
レイヤ1
100
AcDbVertex
100
AcDb2dVertex
 10
15.15540790693
 20
869.5836270152
  0
VERTEX
  5
359
100
AcDbEntity
  8
レイヤ1
100
AcDbVertex
100
AcDb2dVertex
 10
20.20721054257
 20
862.5111033253
  0
VERTEX
  5
35A
100
AcDbEntity
  8
レイヤ1
100
AcDbVertex
100
AcDb2dVertex
 10
20.54399738494
 20
859.4800217439
  0
VERTEX
  5
35B
100
AcDbEntity
  8
レイヤ1
100
AcDbVertex
100
AcDb2dVertex
 10
19.53363685782
 20
857.796087532
  0
VERTEX
  5
35C
100
AcDbEntity
  8
レイヤ1
100
AcDbVertex
100
AcDb2dVertex
 10
16.50255527643
 20
857.796087532
  0
VERTEX
  5
35D
100
AcDbEntity
  8
レイヤ1
100
AcDbVertex
100
AcDb2dVertex
 10
19.19685001544
 20
853.4178585811
  0
VERTEX
  5
35E
100
AcDbEntity
  8
レイヤ1
100
AcDbVertex
100
AcDb2dVertex
 10
20.54399738494
 20
850.7235638421
  0
VERTEX
  5
35F
100
AcDbEntity
  8
レイヤ1
100
AcDbVertex
100
AcDb2dVertex
 10
19.53363685782
 20
847.018908576
  0
VERTEX
  5
360
100
AcDbEntity
  8
レイヤ1
100
AcDbVertex
100
AcDb2dVertex
 10
17.51291580356
 20
845.6717612065
  0
VERTEX
  5
361
100
AcDbEntity
  8
レイヤ1
100
AcDbVertex
100
AcDb2dVertex
 10
14.48183422217
 20
844.9981875217
  0
VERTEX
  5
362
100
AcDbEntity
  8
レイヤ1
100
AcDbVertex
100
AcDb2dVertex
 10
6.735736847523
 20
848.3660559455
  0
VERTEX
  5
363
100
AcDbEntity
  8
レイヤ1
100
AcDbVertex
100
AcDb2dVertex
 10
2.694294739009
 20
849.713203315
  0
VERTEX
  5
364
100
AcDbEntity
  8
レイヤ1
100
AcDbVertex
100
AcDb2dVertex
 10
5.388589478018
 20
847.6924822607
  0
VERTEX
  5
365
100
AcDbEntity
  8
レイヤ1
100
AcDbVertex
100
AcDb2dVertex
 10
5.388589478018
 20
844.324613837
  0
VERTEX
  5
366
100
AcDbEntity
  8
レイヤ1
100
AcDbVertex
100
AcDb2dVertex
 10
1.683934211881
 20
838.5992375166
  0
VERTEX
  5
367
100
AcDbEntity
  8
レイヤ1
100
AcDbVertex
100
AcDb2dVertex
 10
-1.347147369505
 20
838.2624506742
  0
VERTEX
  5
368
100
AcDbEntity
  8
レイヤ1
100
AcDbVertex
100
AcDb2dVertex
 10
-5.725376320394
 20
838.5992375166
  0
VERTEX
  5
369
100
AcDbEntity
  8
レイヤ1
100
AcDbVertex
100
AcDb2dVertex
 10
-42.77192898177
 20
854.0914322659
  0
VERTEX
  5
36A
100
AcDbEntity
  8
レイヤ1
100
AcDbVertex
100
AcDb2dVertex
 10
-54.55946846493
 20
861.1639559558
  0
VERTEX
  5
36B
100
AcDbEntity
  8
レイヤ1
100
AcDbVertex
100
AcDb2dVertex
 10
-42.77192898177
 20
852.7442848964
  0
VERTEX
  5
36C
100
AcDbEntity
  8
レイヤ1
100
AcDbVertex
100
AcDb2dVertex
 10
-31.32117634098
 20
843.3142533098
  0
VERTEX
  5
36D
100
AcDbEntity
  8
レイヤ1
100
AcDbVertex
100
AcDb2dVertex
 10
-18.18648948831
 20
836.9153033047
  0
VERTEX
  5
36E
100
AcDbEntity
  8
レイヤ1
100
AcDbVertex
100
AcDb2dVertex
 10
-15.4921947493
 20
832.5370743538
  0
VERTEX
  5
36F
100
AcDbEntity
  8
レイヤ1
100
AcDbVertex
100
AcDb2dVertex
 10
-16.16576843405
 20
828.1588454029
  0
VERTEX
  5
370
100
AcDbEntity
  8
レイヤ1
100
AcDbVertex
100
AcDb2dVertex
 10
-19.19685001544
 20
827.4852717182
  0
VERTEX
  5
371
100
AcDbEntity
  8
レイヤ1
100
AcDbVertex
100
AcDb2dVertex
 10
-25.59580002059
 20
828.1588454029
  0
VERTEX
  5
372
100
AcDbEntity
  8
レイヤ1
100
AcDbVertex
100
AcDb2dVertex
 10
-34.68904476474
 20
831.5267138267
  0
VERTEX
  5
373
100
AcDbEntity
  8
レイヤ1
100
AcDbVertex
100
AcDb2dVertex
 10
-54.22268162256
 20
842.6406796251
  0
VERTEX
  5
374
100
AcDbEntity
  8
レイヤ1
100
AcDbVertex
100
AcDb2dVertex
 10
-71.39881058374
 20
847.3556954184
  0
VERTEX
  5
375
100
AcDbEntity
  8
レイヤ1
100
AcDbVertex
100
AcDb2dVertex
 10
-80.82884217027
 20
851.7339243692
  0
VERTEX
  5
376
100
AcDbEntity
  8
レイヤ1
100
AcDbVertex
100
AcDb2dVertex
 10
-93.28995533819
 20
859.1432349015
  0
VERTEX
  5
377
100
AcDbEntity
  8
レイヤ1
100
AcDbVertex
100
AcDb2dVertex
 10
-98.00497113146
 20
860.490382271
  0
VERTEX
  5
378
100
AcDbEntity
  8
レイヤ1
100
AcDbVertex
100
AcDb2dVertex
 10
-100.3624790281
 20
859.1432349015
  0
VERTEX
  5
379
100
AcDbEntity
  8
レイヤ1
100
AcDbVertex
100
AcDb2dVertex
 10
-106.4246421909
 20
852.407498054
  0
VERTEX
  5
37A
100
AcDbEntity
  8
レイヤ1
100
AcDbVertex
100
AcDb2dVertex
 10
-121.5800500978
 20
835.2313690928
  0
VERTEX
  5
37B
100
AcDbEntity
  8
レイヤ1
100
AcDbVertex
100
AcDb2dVertex
 10
-130.6732948419
 20
817.0448796045
  0
VERTEX
  5
37C
100
AcDbEntity
  8
レイヤ1
100
AcDbVertex
100
AcDb2dVertex
 10
-139.4297527437
 20
810.9827164417
  0
VERTEX
  5
37D
100
AcDbEntity
  8
レイヤ1
100
AcDbVertex
100
AcDb2dVertex
 10
-146.1654895912
 20
805.9309138061
  0
VERTEX
  5
37E
100
AcDbEntity
  8
レイヤ1
100
AcDbVertex
100
AcDb2dVertex
 10
-153.2380132811
 20
804.2469795942
  0
SEQEND
  5
37F
100
AcDbEntity
  8
レイヤ1
  0
POLYLINE
  5
380
100
AcDbEntity
  8
レイヤ1
  6
CONTINUOUS
 62
     0
100
AcDb2dPolyline
 66
     1
 10
0
 20
0
 70
     0
  0
VERTEX
  5
381
100
AcDbEntity
  8
レイヤ1
100
AcDbVertex
100
AcDb2dVertex
 10
2.694294739009
 20
849.713203315
  0
VERTEX
  5
382
100
AcDbEntity
  8
レイヤ1
100
AcDbVertex
100
AcDb2dVertex
 10
-17.17612896118
 20
858.8064480591
  0
VERTEX
  5
383
100
AcDbEntity
  8
レイヤ1
100
AcDbVertex
100
AcDb2dVertex
 10
-31.99475002573
 20
866.5525454338
  0
VERTEX
  5
384
100
AcDbEntity
  8
レイヤ1
100
AcDbVertex
100
AcDb2dVertex
 10
-42.77192898177
 20
871.9411349118
  0
SEQEND
  5
385
100
AcDbEntity
  8
レイヤ1
  0
POLYLINE
  5
386
100
AcDbEntity
  8
レイヤ1
  6
CONTINUOUS
 62
     0
100
AcDb2dPolyline
 66
     1
 10
0
 20
0
 70
     0
  0
VERTEX
  5
387
100
AcDbEntity
  8
レイヤ1
100
AcDbVertex
100
AcDb2dVertex
 10
16.50255527643
 20
857.796087532
  0
VERTEX
  5
388
100
AcDbEntity
  8
レイヤ1
100
AcDbVertex
100
AcDb2dVertex
 10
6.735736847523
 20
863.8582506948
  0
VERTEX
  5
389
100
AcDbEntity
  8
レイヤ1
100
AcDbVertex
100
AcDb2dVertex
 10
-8.419671059403
 20
873.9618559661
  0
VERTEX
  5
38A
100
AcDbEntity
  8
レイヤ1
100
AcDbVertex
100
AcDb2dVertex
 10
-30.64760265623
 20
883.728674395
  0
VERTEX
  5
38B
100
AcDbEntity
  8
レイヤ1
100
AcDbVertex
100
AcDb2dVertex
 10
-37.38333950375
 20
888.7804770306
  0
SEQEND
  5
38C
100
AcDbEntity
  8
レイヤ1
  0
POLYLINE
  5
38D
100
AcDbEntity
  8
レイヤ1
  6
CONTINUOUS
 62
     0
100
AcDb2dPolyline
 66
     1
 10
0
 20
0
 70
     0
  0
VERTEX
  5
38E
100
AcDbEntity
  8
レイヤ1
100
AcDbVertex
100
AcDb2dVertex
 10
-126.9686395758
 20
890.4644112425
  0
VERTEX
  5
38F
100
AcDbEntity
  8
レイヤ1
100
AcDbVertex
100
AcDb2dVertex
 10
-133.0308027386
 20
889.117263873
  0
VERTEX
  5
390
100
AcDbEntity
  8
レイヤ1
100
AcDbVertex
100
AcDb2dVertex
 10
-138.0826053742
 20
887.4333296611
  0
VERTEX
  5
391
100
AcDbEntity
  8
レイヤ1
100
AcDbVertex
100
AcDb2dVertex
 10
-134.7147369505
 20
885.7493954492
  0
VERTEX
  5
392
100
AcDbEntity
  8
レイヤ1
100
AcDbVertex
100
AcDb2dVertex
 10
-134.0411632657
 20
882.0447401831
  0
VERTEX
  5
393
100
AcDbEntity
  8
レイヤ1
100
AcDbVertex
100
AcDb2dVertex
 10
-135.7250974776
 20
856.4489401625
  0
VERTEX
  5
394
100
AcDbEntity
  8
レイヤ1
100
AcDbVertex
100
AcDb2dVertex
 10
-141.7872606404
 20
833.2106480386
  0
VERTEX
  5
395
100
AcDbEntity
  8
レイヤ1
100
AcDbVertex
100
AcDb2dVertex
 10
-153.2380132811
 20
804.2469795942
  0
VERTEX
  5
396
100
AcDbEntity
  8
レイヤ1
100
AcDbVertex
100
AcDb2dVertex
 10
-161.6576843405
 20
777.6408190465
  0
VERTEX
  5
397
100
AcDbEntity
  8
レイヤ1
100
AcDbVertex
100
AcDb2dVertex
 10
-161.3208974982
 20
772.9258032532
  0
VERTEX
  5
398
100
AcDbEntity
  8
レイヤ1
100
AcDbVertex
100
AcDb2dVertex
 10
-158.6266027592
 20
769.2211479871
  0
VERTEX
  5
399
100
AcDbEntity
  8
レイヤ1
100
AcDbVertex
100
AcDb2dVertex
 10
-156.6058817049
 20
764.5061321938
  0
VERTEX
  5
39A
100
AcDbEntity
  8
レイヤ1
100
AcDbVertex
100
AcDb2dVertex
 10
-151.8908659116
 20
764.8429190362
  0
SEQEND
  5
39B
100
AcDbEntity
  8
レイヤ1
  0
POLYLINE
  5
39C
100
AcDbEntity
  8
レイヤ1
  6
CONTINUOUS
 62
     0
100
AcDb2dPolyline
 66
     1
 10
0
 20
0
 70
     0
  0
VERTEX
  5
39D
100
AcDbEntity
  8
レイヤ1
100
AcDbVertex
100
AcDb2dVertex
 10
-134.0411632657
 20
882.0447401831
  0
VERTEX
  5
39E
100
AcDbEntity
  8
レイヤ1
100
AcDbVertex
100
AcDb2dVertex
 10
-136.2267360057
 20
881.4671153311
  0
VERTEX
  5
39F
100
AcDbEntity
  8
レイヤ1
100
AcDbVertex
100
AcDb2dVertex
 10
-137.1694815836
 20
878.8745649919
  0
VERTEX
  5
3A0
100
AcDbEntity
  8
レイヤ1
100
AcDbVertex
100
AcDb2dVertex
 10
-137.876540767
 20
859.7839670395
  0
VERTEX
  5
3A1
100
AcDbEntity
  8
レイヤ1
100
AcDbVertex
100
AcDb2dVertex
 10
-154.921947493
 20
806.9412743332
  0
VERTEX
  5
3A2
100
AcDbEntity
  8
レイヤ1
100
AcDbVertex
100
AcDb2dVertex
 10
-163.6784053948
 20
781.682261155
  0
VERTEX
  5
3A3
100
AcDbEntity
  8
レイヤ1
100
AcDbVertex
100
AcDb2dVertex
 10
-164.0151922372
 20
774.9465243075
  0
VERTEX
  5
3A4
100
AcDbEntity
  8
レイヤ1
100
AcDbVertex
100
AcDb2dVertex
 10
-158.3812570862
 20
762.6811725164
  0
VERTEX
  5
3A5
100
AcDbEntity
  8
レイヤ1
100
AcDbVertex
100
AcDb2dVertex
 10
-157.2028251139
 20
761.502740544
  0
VERTEX
  5
3A6
100
AcDbEntity
  8
レイヤ1
100
AcDbVertex
100
AcDb2dVertex
 10
-154.3745883802
 20
762.2097997275
  0
SEQEND
  5
3A7
100
AcDbEntity
  8
レイヤ1
  0
POLYLINE
  5
3A8
100
AcDbEntity
  8
レイヤ1
  6
CONTINUOUS
 62
     0
100
AcDb2dPolyline
 66
     1
 10
0
 20
0
 70
     0
  0
VERTEX
  5
3A9
100
AcDbEntity
  8
レイヤ1
100
AcDbVertex
100
AcDb2dVertex
 10
-130.6732948419
 20
817.0448796045
  0
VERTEX
  5
3AA
100
AcDbEntity
  8
レイヤ1
100
AcDbVertex
100
AcDb2dVertex
 10
-140.4401132708
 20
792.459440111
  0
VERTEX
  5
3AB
100
AcDbEntity
  8
レイヤ1
100
AcDbVertex
100
AcDb2dVertex
 10
-151.8908659116
 20
764.8429190362
  0
VERTEX
  5
3AC
100
AcDbEntity
  8
レイヤ1
100
AcDbVertex
100
AcDb2dVertex
 10
-154.3745883802
 20
762.2097997275
  0
VERTEX
  5
3AD
100
AcDbEntity
  8
レイヤ1
100
AcDbVertex
100
AcDb2dVertex
 10
-161.2205975916
 20
747.3898151036
  0
VERTEX
  5
3AE
100
AcDbEntity
  8
レイヤ1
100
AcDbVertex
100
AcDb2dVertex
 10
-165.6991264491
 20
730.1538742715
  0
SEQEND
  5
3AF
100
AcDbEntity
  8
レイヤ1
  0
POLYLINE
  5
3B0
100
AcDbEntity
  8
レイヤ1
  6
CONTINUOUS
 62
     0
100
AcDb2dPolyline
 66
     1
 10
0
 20
0
 70
     0
  0
VERTEX
  5
3B1
100
AcDbEntity
  8
レイヤ1
100
AcDbVertex
100
AcDb2dVertex
 10
-99.18372507977
 20
859.8168085863
  0
VERTEX
  5
3B2
100
AcDbEntity
  8
レイヤ1
100
AcDbVertex
100
AcDb2dVertex
 10
-97.69486958533
 20
854.2285394777
  0
VERTEX
  5
3B3
100
AcDbEntity
  8
レイヤ1
100
AcDbVertex
100
AcDb2dVertex
 10
-105.0774948214
 20
833.2106480386
  0
VERTEX
  5
3B4
100
AcDbEntity
  8
レイヤ1
100
AcDbVertex
100
AcDb2dVertex
 10
-105.4142816637
 20
824.7909769792
  0
VERTEX
  5
3B5
100
AcDbEntity
  8
レイヤ1
100
AcDbVertex
100
AcDb2dVertex
 10
-117.8753948316
 20
792.7962269534
  0
SEQEND
  5
3B6
100
AcDbEntity
  8
レイヤ1
  0
POLYLINE
  5
3B7
100
AcDbEntity
  8
レイヤ1
  6
CONTINUOUS
 62
     0
100
AcDb2dPolyline
 66
     1
 10
0
 20
0
 70
     0
  0
VERTEX
  5
3B8
100
AcDbEntity
  8
レイヤ1
100
AcDbVertex
100
AcDb2dVertex
 10
-154.3745883802
 20
762.2097997275
  0
VERTEX
  5
3B9
100
AcDbEntity
  8
レイヤ1
100
AcDbVertex
100
AcDb2dVertex
 10
-157.0185120444
 20
760.3522484502
  0
VERTEX
  5
3BA
100
AcDbEntity
  8
レイヤ1
100
AcDbVertex
100
AcDb2dVertex
 10
-160.6470911042
 20
759.8574422147
  0
VERTEX
  5
3BB
100
AcDbEntity
  8
レイヤ1
100
AcDbVertex
100
AcDb2dVertex
 10
-173.6769886373
 20
760.3522484502
  0
VERTEX
  5
3BC
100
AcDbEntity
  8
レイヤ1
100
AcDbVertex
100
AcDb2dVertex
 10
-178.7899864035
 20
759.5275713911
  0
SEQEND
  5
3BD
100
AcDbEntity
  8
レイヤ1
  0
POLYLINE
  5
3BE
100
AcDbEntity
  8
レイヤ1
  6
CONTINUOUS
 62
     0
100
AcDb2dPolyline
 66
     1
 10
0
 20
0
 70
     0
  0
VERTEX
  5
3BF
100
AcDbEntity
  8
レイヤ1
100
AcDbVertex
100
AcDb2dVertex
 10
-87.05939875423
 20
855.4385796354
  0
VERTEX
  5
3C0
100
AcDbEntity
  8
レイヤ1
100
AcDbVertex
100
AcDb2dVertex
 10
-89.089457111
 20
844.9357241877
  0
VERTEX
  5
3C1
100
AcDbEntity
  8
レイヤ1
100
AcDbVertex
100
AcDb2dVertex
 10
-92.6247530281
 20
841.636114665
  0
VERTEX
  5
3C2
100
AcDbEntity
  8
レイヤ1
100
AcDbVertex
100
AcDb2dVertex
 10
-90.73926187232
 20
815.710611273
  0
VERTEX
  5
3C3
100
AcDbEntity
  8
レイヤ1
100
AcDbVertex
100
AcDb2dVertex
 10
-90.73926187232
 20
790.9635398532
  0
VERTEX
  5
3C4
100
AcDbEntity
  8
レイヤ1
100
AcDbVertex
100
AcDb2dVertex
 10
-91.44632105574
 20
774.2298058456
  0
VERTEX
  5
3C5
100
AcDbEntity
  8
レイヤ1
100
AcDbVertex
100
AcDb2dVertex
 10
-93.80318500047
 20
771.6372555064
  0
VERTEX
  5
3C6
100
AcDbEntity
  8
レイヤ1
100
AcDbVertex
100
AcDb2dVertex
 10
-93.80318500047
 20
741.9407698027
  0
VERTEX
  5
3C7
100
AcDbEntity
  8
レイヤ1
100
AcDbVertex
100
AcDb2dVertex
 10
-96.63142173415
 20
728.5066453177
  0
VERTEX
  5
3C8
100
AcDbEntity
  8
レイヤ1
100
AcDbVertex
100
AcDb2dVertex
 10
-102.3832000823
 20
700.1798453
  0
VERTEX
  5
3C9
100
AcDbEntity
  8
レイヤ1
100
AcDbVertex
100
AcDb2dVertex
 10
-103.0567737671
 20
687.7187321321
  0
VERTEX
  5
3CA
100
AcDbEntity
  8
レイヤ1
100
AcDbVertex
100
AcDb2dVertex
 10
-110.8028711417
 20
663.1332926386
  0
VERTEX
  5
3CB
100
AcDbEntity
  8
レイヤ1
100
AcDbVertex
100
AcDb2dVertex
 10
-111.4764448265
 20
657.7447031606
  0
VERTEX
  5
3CC
100
AcDbEntity
  8
レイヤ1
100
AcDbVertex
100
AcDb2dVertex
 10
-110.4660842994
 20
650.3353926283
  0
VERTEX
  5
3CD
100
AcDbEntity
  8
レイヤ1
100
AcDbVertex
100
AcDb2dVertex
 10
-109.1189369299
 20
649.3250321012
  0
VERTEX
  5
3CE
100
AcDbEntity
  8
レイヤ1
100
AcDbVertex
100
AcDb2dVertex
 10
-109.1189369299
 20
587.356253104
  0
VERTEX
  5
3CF
100
AcDbEntity
  8
レイヤ1
100
AcDbVertex
100
AcDb2dVertex
 10
-112.823592196
 20
557.3822241325
  0
VERTEX
  5
3D0
100
AcDbEntity
  8
レイヤ1
100
AcDbVertex
100
AcDb2dVertex
 10
-112.1500185113
 20
552.6672083392
  0
VERTEX
  5
3D1
100
AcDbEntity
  8
レイヤ1
100
AcDbVertex
100
AcDb2dVertex
 10
-109.1189369299
 20
546.9418320188
  0
VERTEX
  5
3D2
100
AcDbEntity
  8
レイヤ1
100
AcDbVertex
100
AcDb2dVertex
 10
-117.8753948316
 20
492.7191503963
  0
VERTEX
  5
3D3
100
AcDbEntity
  8
レイヤ1
100
AcDbVertex
100
AcDb2dVertex
 10
-129.9997211572
 20
430.0767977143
  0
VERTEX
  5
3D4
100
AcDbEntity
  8
レイヤ1
100
AcDbVertex
100
AcDb2dVertex
 10
-131.0100816843
 20
397.4084740038
  0
VERTEX
  5
3D5
100
AcDbEntity
  8
レイヤ1
100
AcDbVertex
100
AcDb2dVertex
 10
-140.1033264285
 20
333.4189739524
  0
VERTEX
  5
3D6
100
AcDbEntity
  8
レイヤ1
100
AcDbVertex
100
AcDb2dVertex
 10
-140.4401132708
 20
325.6728765777
  0
VERTEX
  5
3D7
100
AcDbEntity
  8
レイヤ1
100
AcDbVertex
100
AcDb2dVertex
 10
-136.3986711623
 20
291.3206186554
  0
SEQEND
  5
3D8
100
AcDbEntity
  8
レイヤ1
  0
LINE
  5
3D9
100
AcDbEntity
  8
レイヤ1
  6
CONTINUOUS
 62
     0
100
AcDbLine
 10
-129.9997211572
 20
430.0767977143
 11
-150.3517049775
 21
353.7687175941
  0
POLYLINE
  5
3DA
100
AcDbEntity
  8
レイヤ1
  6
CONTINUOUS
 62
     0
100
AcDb2dPolyline
 66
     1
 10
0
 20
0
 70
     0
  0
VERTEX
  5
3DB
100
AcDbEntity
  8
レイヤ1
100
AcDbVertex
100
AcDb2dVertex
 10
-109.1189369299
 20
649.3250321012
  0
VERTEX
  5
3DC
100
AcDbEntity
  8
レイヤ1
100
AcDbVertex
100
AcDb2dVertex
 10
-103.7303474518
 20
652.3561136826
  0
VERTEX
  5
3DD
100
AcDbEntity
  8
レイヤ1
100
AcDbVertex
100
AcDb2dVertex
 10
-96.99461060433
 20
653.0296873673
  0
VERTEX
  5
3DE
100
AcDbEntity
  8
レイヤ1
100
AcDbVertex
100
AcDb2dVertex
 10
-71.73559742612
 20
650.6721794707
  0
VERTEX
  5
3DF
100
AcDbEntity
  8
レイヤ1
100
AcDbVertex
100
AcDb2dVertex
 10
-37.04655266137
 20
641.5789347265
  0
VERTEX
  5
3E0
100
AcDbEntity
  8
レイヤ1
100
AcDbVertex
100
AcDb2dVertex
 10
-20.54399738494
 20
635.1799847214
  0
VERTEX
  5
3E1
100
AcDbEntity
  8
レイヤ1
100
AcDbVertex
100
AcDb2dVertex
 10
69.71487637186
 20
605.5427425923
  0
VERTEX
  5
3E2
100
AcDbEntity
  8
レイヤ1
100
AcDbVertex
100
AcDb2dVertex
 10
95.76984752454
 20
600.1256274528
  0
SEQEND
  5
3E3
100
AcDbEntity
  8
レイヤ1
  0
POLYLINE
  5
3E4
100
AcDbEntity
  8
レイヤ1
  6
CONTINUOUS
 62
     0
100
AcDb2dPolyline
 66
     1
 10
0
 20
0
 70
     0
  0
VERTEX
  5
3E5
100
AcDbEntity
  8
レイヤ1
100
AcDbVertex
100
AcDb2dVertex
 10
-124.1123354735
 20
115.0343953263
  0
VERTEX
  5
3E6
100
AcDbEntity
  8
レイヤ1
100
AcDbVertex
100
AcDb2dVertex
 10
-121.2432632554
 20
93.28995533819
  0
VERTEX
  5
3E7
100
AcDbEntity
  8
レイヤ1
100
AcDbVertex
100
AcDb2dVertex
 10
-122.5904106249
 20
89.92208691443
  0
VERTEX
  5
3E8
100
AcDbEntity
  8
レイヤ1
100
AcDbVertex
100
AcDb2dVertex
 10
-124.9479185215
 20
88.23815270255
  0
VERTEX
  5
3E9
100
AcDbEntity
  8
レイヤ1
100
AcDbVertex
100
AcDb2dVertex
 10
-125.2847053639
 20
86.21743164829
  0
VERTEX
  5
3EA
100
AcDbEntity
  8
レイヤ1
100
AcDbVertex
100
AcDb2dVertex
 10
-134.0411632657
 20
79.14490795839
  0
VERTEX
  5
3EB
100
AcDbEntity
  8
レイヤ1
100
AcDbVertex
100
AcDb2dVertex
 10
-135.7250974776
 20
74.09310532275
  0
VERTEX
  5
3EC
100
AcDbEntity
  8
レイヤ1
100
AcDbVertex
100
AcDb2dVertex
 10
-135.0515237928
 20
39.74084740038
  0
VERTEX
  5
3ED
100
AcDbEntity
  8
レイヤ1
100
AcDbVertex
100
AcDb2dVertex
 10
-132.6940158962
 20
36.03619213425
  0
VERTEX
  5
3EE
100
AcDbEntity
  8
レイヤ1
100
AcDbVertex
100
AcDb2dVertex
 10
-103.3935606095
 20
19.87042370019
  0
VERTEX
  5
3EF
100
AcDbEntity
  8
レイヤ1
100
AcDbVertex
100
AcDb2dVertex
 10
-65.67343426335
 20
5.388589478018
  0
VERTEX
  5
3F0
100
AcDbEntity
  8
レイヤ1
100
AcDbVertex
100
AcDb2dVertex
 10
-41.42478161226
 20
0.6735736847523
  0
VERTEX
  5
3F1
100
AcDbEntity
  8
レイヤ1
100
AcDbVertex
100
AcDb2dVertex
 10
-15.4921947493
 20
0.3367868423761
  0
VERTEX
  5
3F2
100
AcDbEntity
  8
レイヤ1
100
AcDbVertex
100
AcDb2dVertex
 10
9.093244744156
 20
4.37822895089
  0
VERTEX
  5
3F3
100
AcDbEntity
  8
レイヤ1
100
AcDbVertex
100
AcDb2dVertex
 10
22.90150528158
 20
8.75645790178
  0
VERTEX
  5
3F4
100
AcDbEntity
  8
レイヤ1
100
AcDbVertex
100
AcDb2dVertex
 10
24.92222633583
 20
11.11396579841
  0
VERTEX
  5
3F5
100
AcDbEntity
  8
レイヤ1
100
AcDbVertex
100
AcDb2dVertex
 10
25.25901317821
 20
25.59580002059
  0
VERTEX
  5
3F6
100
AcDbEntity
  8
レイヤ1
100
AcDbVertex
100
AcDb2dVertex
 10
24.24865265108
 20
28.2900947596
  0
VERTEX
  5
3F7
100
AcDbEntity
  8
レイヤ1
100
AcDbVertex
100
AcDb2dVertex
 10
21.89114475445
 20
29.6372421291
  0
VERTEX
  5
3F8
100
AcDbEntity
  8
レイヤ1
100
AcDbVertex
100
AcDb2dVertex
 10
21.55435791207
 20
37.04655266137
  0
VERTEX
  5
3F9
100
AcDbEntity
  8
レイヤ1
100
AcDbVertex
100
AcDb2dVertex
 10
18.86006317306
 20
42.43514213939
  0
VERTEX
  5
3FA
100
AcDbEntity
  8
レイヤ1
100
AcDbVertex
100
AcDb2dVertex
 10
-9.430031586532
 20
62.97913952434
  0
SEQEND
  5
3FB
100
AcDbEntity
  8
レイヤ1
  0
POLYLINE
  5
3FC
100
AcDbEntity
  8
レイヤ1
  6
CONTINUOUS
 62
     0
100
AcDb2dPolyline
 66
     1
 10
0
 20
0
 70
     0
  0
VERTEX
  5
3FD
100
AcDbEntity
  8
レイヤ1
100
AcDbVertex
100
AcDb2dVertex
 10
-38.88113659609
 20
97.48799989414
  0
VERTEX
  5
3FE
100
AcDbEntity
  8
レイヤ1
100
AcDbVertex
100
AcDb2dVertex
 10
-22.90150528158
 20
73.08274479562
  0
VERTEX
  5
3FF
100
AcDbEntity
  8
レイヤ1
100
AcDbVertex
100
AcDb2dVertex
 10
-19.19685001544
 20
70.72523689899
  0
SEQEND
  5
400
100
AcDbEntity
  8
レイヤ1
  0
POLYLINE
  5
401
100
AcDbEntity
  8
レイヤ1
  6
CONTINUOUS
 62
     0
100
AcDb2dPolyline
 66
     1
 10
0
 20
0
 70
     0
  0
VERTEX
  5
402
100
AcDbEntity
  8
レイヤ1
100
AcDbVertex
100
AcDb2dVertex
 10
-25.40005341894
 20
76.36509566864
  0
VERTEX
  5
403
100
AcDbEntity
  8
レイヤ1
100
AcDbVertex
100
AcDb2dVertex
 10
-19.46237859374
 20
76.03522484502
  0
VERTEX
  5
404
100
AcDbEntity
  8
レイヤ1
100
AcDbVertex
100
AcDb2dVertex
 10
-10.77717895604
 20
68.36772900236
  0
VERTEX
  5
405
100
AcDbEntity
  8
レイヤ1
100
AcDbVertex
100
AcDb2dVertex
 10
-9.430031586532
 20
62.97913952434
  0
VERTEX
  5
406
100
AcDbEntity
  8
レイヤ1
100
AcDbVertex
100
AcDb2dVertex
 10
-11.45075264079
 20
53.21232109543
  0
VERTEX
  5
407
100
AcDbEntity
  8
レイヤ1
100
AcDbVertex
100
AcDb2dVertex
 10
-13.80826053742
 20
48.16051845979
  0
VERTEX
  5
408
100
AcDbEntity
  8
レイヤ1
100
AcDbVertex
100
AcDb2dVertex
 10
-13.47147369505
 20
43.44550266652
  0
VERTEX
  5
409
100
AcDbEntity
  8
レイヤ1
100
AcDbVertex
100
AcDb2dVertex
 10
-14.1450473798
 20
41.76156845464
  0
VERTEX
  5
40A
100
AcDbEntity
  8
レイヤ1
100
AcDbVertex
100
AcDb2dVertex
 10
-17.51291580356
 20
42.77192898177
  0
VERTEX
  5
40B
100
AcDbEntity
  8
レイヤ1
100
AcDbVertex
100
AcDb2dVertex
 10
-17.51291580356
 20
45.1294368784
  0
VERTEX
  5
40C
100
AcDbEntity
  8
レイヤ1
100
AcDbVertex
100
AcDb2dVertex
 10
-26.26937370534
 20
45.80301056315
  0
VERTEX
  5
40D
100
AcDbEntity
  8
レイヤ1
100
AcDbVertex
100
AcDb2dVertex
 10
-38.39370003088
 20
49.17087898692
  0
VERTEX
  5
40E
100
AcDbEntity
  8
レイヤ1
100
AcDbVertex
100
AcDb2dVertex
 10
-56.58018951919
 20
55.56982899206
  0
VERTEX
  5
40F
100
AcDbEntity
  8
レイヤ1
100
AcDbVertex
100
AcDb2dVertex
 10
-82.51277638215
 20
60.95841847008
  0
VERTEX
  5
410
100
AcDbEntity
  8
レイヤ1
100
AcDbVertex
100
AcDb2dVertex
 10
-101.0360527128
 20
61.29520531246
  0
VERTEX
  5
411
100
AcDbEntity
  8
レイヤ1
100
AcDbVertex
100
AcDb2dVertex
 10
-103.0567737671
 20
60.28484478533
  0
VERTEX
  5
412
100
AcDbEntity
  8
レイヤ1
100
AcDbVertex
100
AcDb2dVertex
 10
-81.16562901265
 20
26.60616054771
  0
VERTEX
  5
413
100
AcDbEntity
  8
レイヤ1
100
AcDbVertex
100
AcDb2dVertex
 10
-62.97913952434
 20
16.16576843405
  0
VERTEX
  5
414
100
AcDbEntity
  8
レイヤ1
100
AcDbVertex
100
AcDb2dVertex
 10
-46.81337109028
 20
13.13468685267
  0
VERTEX
  5
415
100
AcDbEntity
  8
レイヤ1
100
AcDbVertex
100
AcDb2dVertex
 10
-34.01547107999
 20
13.47147369505
  0
VERTEX
  5
416
100
AcDbEntity
  8
レイヤ1
100
AcDbVertex
100
AcDb2dVertex
 10
-3.704655266137
 20
22.22793159682
  0
VERTEX
  5
417
100
AcDbEntity
  8
レイヤ1
100
AcDbVertex
100
AcDb2dVertex
 10
-0.6735736847523
 20
26.60616054771
  0
VERTEX
  5
418
100
AcDbEntity
  8
レイヤ1
100
AcDbVertex
100
AcDb2dVertex
 10
-0.6735736847523
 20
31.65796318336
  0
VERTEX
  5
419
100
AcDbEntity
  8
レイヤ1
100
AcDbVertex
100
AcDb2dVertex
 10
1.683934211881
 20
28.62688160197
  0
VERTEX
  5
41A
100
AcDbEntity
  8
レイヤ1
100
AcDbVertex
100
AcDb2dVertex
 10
6.398950005147
 20
26.60616054771
  0
VERTEX
  5
41B
100
AcDbEntity
  8
レイヤ1
100
AcDbVertex
100
AcDb2dVertex
 10
14.1450473798
 20
26.94294739009
  0
VERTEX
  5
41C
100
AcDbEntity
  8
レイヤ1
100
AcDbVertex
100
AcDb2dVertex
 10
21.89114475445
 20
29.6372421291
  0
SEQEND
  5
41D
100
AcDbEntity
  8
レイヤ1
  0
POLYLINE
  5
41E
100
AcDbEntity
  8
レイヤ1
  6
CONTINUOUS
 62
     0
100
AcDb2dPolyline
 66
     1
 10
0
 20
0
 70
     0
  0
VERTEX
  5
41F
100
AcDbEntity
  8
レイヤ1
100
AcDbVertex
100
AcDb2dVertex
 10
-125.2847053639
 20
86.21743164829
  0
VERTEX
  5
420
100
AcDbEntity
  8
レイヤ1
100
AcDbVertex
100
AcDb2dVertex
 10
-111.008291797
 20
70.23454555312
  0
VERTEX
  5
421
100
AcDbEntity
  8
レイヤ1
100
AcDbVertex
100
AcDb2dVertex
 10
-73.76984147022
 20
70.70591834206
  0
VERTEX
  5
422
100
AcDbEntity
  8
レイヤ1
100
AcDbVertex
100
AcDb2dVertex
 10
-57.50748025155
 20
66.93493603049
  0
VERTEX
  5
423
100
AcDbEntity
  8
レイヤ1
100
AcDbVertex
100
AcDb2dVertex
 10
-30.40354488709
 20
60.33571698523
  0
VERTEX
  5
424
100
AcDbEntity
  8
レイヤ1
100
AcDbVertex
100
AcDb2dVertex
 10
-23.80432584183
 20
55.62198909576
  0
VERTEX
  5
425
100
AcDbEntity
  8
レイヤ1
100
AcDbVertex
100
AcDb2dVertex
 10
-18.38353876894
 20
57.27179385707
  0
VERTEX
  5
426
100
AcDbEntity
  8
レイヤ1
100
AcDbVertex
100
AcDb2dVertex
 10
-19.09059795236
 20
63.16395371891
  0
VERTEX
  5
427
100
AcDbEntity
  8
レイヤ1
100
AcDbVertex
100
AcDb2dVertex
 10
-19.19685001544
 20
70.72523689899
  0
SEQEND
  5
428
100
AcDbEntity
  8
レイヤ1
  0
POLYLINE
  5
429
100
AcDbEntity
  8
レイヤ1
  6
CONTINUOUS
 62
     0
100
AcDb2dPolyline
 66
     1
 10
0
 20
0
 70
     0
  0
VERTEX
  5
42A
100
AcDbEntity
  8
レイヤ1
100
AcDbVertex
100
AcDb2dVertex
 10
-134.0411632657
 20
79.14490795839
  0
VERTEX
  5
42B
100
AcDbEntity
  8
レイヤ1
100
AcDbVertex
100
AcDb2dVertex
 10
-133.1628128776
 20
72.59140949785
  0
VERTEX
  5
42C
100
AcDbEntity
  8
レイヤ1
100
AcDbVertex
100
AcDb2dVertex
 10
-128.6847713826
 20
65.52081766365
  0
VERTEX
  5
42D
100
AcDbEntity
  8
レイヤ1
100
AcDbVertex
100
AcDb2dVertex
 10
-114.0722149252
 20
53.02943875655
  0
VERTEX
  5
42E
100
AcDbEntity
  8
レイヤ1
100
AcDbVertex
100
AcDb2dVertex
 10
-90.16040320845
 20
40.4442746951
  0
SEQEND
  5
42F
100
AcDbEntity
  8
レイヤ1
  0
POLYLINE
  5
430
100
AcDbEntity
  8
レイヤ1
  6
CONTINUOUS
 62
     0
100
AcDb2dPolyline
 66
     1
 10
0
 20
0
 70
     0
  0
VERTEX
  5
431
100
AcDbEntity
  8
レイヤ1
100
AcDbVertex
100
AcDb2dVertex
 10
-18.86006317306
 20
17.84970264594
  0
VERTEX
  5
432
100
AcDbEntity
  8
レイヤ1
100
AcDbVertex
100
AcDb2dVertex
 10
-1.885491155788
 20
16.0266748242
  0
VERTEX
  5
433
100
AcDbEntity
  8
レイヤ1
100
AcDbVertex
100
AcDb2dVertex
 10
9.898828567889
 20
17.44079319104
  0
VERTEX
  5
434
100
AcDbEntity
  8
レイヤ1
100
AcDbVertex
100
AcDb2dVertex
 10
21.44746189709
 20
22.86158026393
  0
VERTEX
  5
435
100
AcDbEntity
  8
レイヤ1
100
AcDbVertex
100
AcDb2dVertex
 10
23.56863944735
 20
25.92550339209
  0
VERTEX
  5
436
100
AcDbEntity
  8
レイヤ1
100
AcDbVertex
100
AcDb2dVertex
 10
21.89114475445
 20
29.6372421291
  0
SEQEND
  5
437
100
AcDbEntity
  8
レイヤ1
  0
POLYLINE
  5
438
100
AcDbEntity
  8
レイヤ1
  6
CONTINUOUS
 62
     0
100
AcDb2dPolyline
 66
     1
 10
0
 20
0
 70
     0
  0
VERTEX
  5
439
100
AcDbEntity
  8
レイヤ1
100
AcDbVertex
100
AcDb2dVertex
 10
39.40406055801
 20
95.9842500772
  0
VERTEX
  5
43A
100
AcDbEntity
  8
レイヤ1
100
AcDbVertex
100
AcDb2dVertex
 10
44.75676291348
 20
63.04447249103
  0
VERTEX
  5
43B
100
AcDbEntity
  8
レイヤ1
100
AcDbVertex
100
AcDb2dVertex
 10
60.63819491503
 20
34.16914157911
  0
VERTEX
  5
43C
100
AcDbEntity
  8
レイヤ1
100
AcDbVertex
100
AcDb2dVertex
 10
71.7070717646
 20
27.43156436633
  0
VERTEX
  5
43D
100
AcDbEntity
  8
レイヤ1
100
AcDbVertex
100
AcDb2dVertex
 10
79.40716000778
 20
25.50654230553
  0
VERTEX
  5
43E
100
AcDbEntity
  8
レイヤ1
100
AcDbVertex
100
AcDb2dVertex
 10
99.61989164613
 20
25.02528679033
  0
VERTEX
  5
43F
100
AcDbEntity
  8
レイヤ1
100
AcDbVertex
100
AcDb2dVertex
 10
128.9764780732
 20
27.43156436633
  0
VERTEX
  5
440
100
AcDbEntity
  8
レイヤ1
100
AcDbVertex
100
AcDb2dVertex
 10
132.8265221948
 20
29.35658642712
  0
VERTEX
  5
441
100
AcDbEntity
  8
レイヤ1
100
AcDbVertex
100
AcDb2dVertex
 10
134.7515442556
 20
34.65039709431
  0
VERTEX
  5
442
100
AcDbEntity
  8
レイヤ1
100
AcDbVertex
100
AcDb2dVertex
 10
133.7890332252
 20
45.71927394388
  0
VERTEX
  5
443
100
AcDbEntity
  8
レイヤ1
100
AcDbVertex
100
AcDb2dVertex
 10
137.1578218316
 20
44.75676291348
  0
VERTEX
  5
444
100
AcDbEntity
  8
レイヤ1
100
AcDbVertex
100
AcDb2dVertex
 10
140.0453549228
 20
46.20052945907
  0
VERTEX
  5
445
100
AcDbEntity
  8
レイヤ1
100
AcDbVertex
100
AcDb2dVertex
 10
146.7829321356
 20
58.23191733904
  0
VERTEX
  5
446
100
AcDbEntity
  8
レイヤ1
100
AcDbVertex
100
AcDb2dVertex
 10
146.7829321356
 20
65.45075006702
  0
VERTEX
  5
447
100
AcDbEntity
  8
レイヤ1
100
AcDbVertex
100
AcDb2dVertex
 10
141.4891214684
 20
76.51962691659
  0
VERTEX
  5
448
100
AcDbEntity
  8
レイヤ1
100
AcDbVertex
100
AcDb2dVertex
 10
125.6076894669
 20
94.80733649414
  0
VERTEX
  5
449
100
AcDbEntity
  8
レイヤ1
100
AcDbVertex
100
AcDb2dVertex
 10
125.6076894669
 20
101.5449137069
  0
VERTEX
  5
44A
100
AcDbEntity
  8
レイヤ1
100
AcDbVertex
100
AcDb2dVertex
 10
122.7201563757
 20
104.9137023133
  0
VERTEX
  5
44B
100
AcDbEntity
  8
レイヤ1
100
AcDbVertex
100
AcDb2dVertex
 10
115.9825791629
 20
106.3574688589
  0
VERTEX
  5
44C
100
AcDbEntity
  8
レイヤ1
100
AcDbVertex
100
AcDb2dVertex
 10
114.1707395655
 20
110.129297457
  0
SEQEND
  5
44D
100
AcDbEntity
  8
レイヤ1
  0
POLYLINE
  5
44E
100
AcDbEntity
  8
レイヤ1
  6
CONTINUOUS
 62
     0
100
AcDb2dPolyline
 66
     1
 10
0
 20
0
 70
     0
  0
VERTEX
  5
44F
100
AcDbEntity
  8
レイヤ1
100
AcDbVertex
100
AcDb2dVertex
 10
40.12701636355
 20
91.53528171364
  0
VERTEX
  5
450
100
AcDbEntity
  8
レイヤ1
100
AcDbVertex
100
AcDb2dVertex
 10
56.30689527825
 20
83.25720412937
  0
VERTEX
  5
451
100
AcDbEntity
  8
レイヤ1
100
AcDbVertex
100
AcDb2dVertex
 10
64.00698352143
 20
80.85092655338
  0
VERTEX
  5
452
100
AcDbEntity
  8
レイヤ1
100
AcDbVertex
100
AcDb2dVertex
 10
95.28859200934
 20
73.1508383102
  0
VERTEX
  5
453
100
AcDbEntity
  8
レイヤ1
100
AcDbVertex
100
AcDb2dVertex
 10
102.5074247373
 20
66.41326109742
  0
VERTEX
  5
454
100
AcDbEntity
  8
レイヤ1
100
AcDbVertex
100
AcDb2dVertex
 10
105.3949578285
 20
66.41326109742
  0
VERTEX
  5
455
100
AcDbEntity
  8
レイヤ1
100
AcDbVertex
100
AcDb2dVertex
 10
107.8012354045
 20
71.7070717646
  0
VERTEX
  5
456
100
AcDbEntity
  8
レイヤ1
100
AcDbVertex
100
AcDb2dVertex
 10
125.6076894669
 20
94.80733649414
  0
SEQEND
  5
457
100
AcDbEntity
  8
レイヤ1
  0
POLYLINE
  5
458
100
AcDbEntity
  8
レイヤ1
  6
CONTINUOUS
 62
     0
100
AcDb2dPolyline
 66
     1
 10
0
 20
0
 70
     0
  0
VERTEX
  5
459
100
AcDbEntity
  8
レイヤ1
100
AcDbVertex
100
AcDb2dVertex
 10
52.87553425305
 20
98.67854481621
  0
VERTEX
  5
45A
100
AcDbEntity
  8
レイヤ1
100
AcDbVertex
100
AcDb2dVertex
 10
59.19442836944
 20
92.88231443335
  0
VERTEX
  5
45B
100
AcDbEntity
  8
レイヤ1
100
AcDbVertex
100
AcDb2dVertex
 10
84.21971515977
 20
87.58850376616
  0
VERTEX
  5
45C
100
AcDbEntity
  8
レイヤ1
100
AcDbVertex
100
AcDb2dVertex
 10
97.21361407013
 20
78.44464897739
  0
VERTEX
  5
45D
100
AcDbEntity
  8
レイヤ1
100
AcDbVertex
100
AcDb2dVertex
 10
102.9886802525
 20
79.40716000778
  0
VERTEX
  5
45E
100
AcDbEntity
  8
レイヤ1
100
AcDbVertex
100
AcDb2dVertex
 10
116.4638346781
 20
96.25110303974
  0
VERTEX
  5
45F
100
AcDbEntity
  8
レイヤ1
100
AcDbVertex
100
AcDb2dVertex
 10
115.9825791629
 20
106.3574688589
  0
SEQEND
  5
460
100
AcDbEntity
  8
レイヤ1
  0
POLYLINE
  5
461
100
AcDbEntity
  8
レイヤ1
  6
CONTINUOUS
 62
     0
100
AcDb2dPolyline
 66
     1
 10
0
 20
0
 70
     0
  0
VERTEX
  5
462
100
AcDbEntity
  8
レイヤ1
100
AcDbVertex
100
AcDb2dVertex
 10
64.00698352143
 20
80.85092655338
  0
VERTEX
  5
463
100
AcDbEntity
  8
レイヤ1
100
AcDbVertex
100
AcDb2dVertex
 10
69.30079418861
 20
59.67568388464
  0
VERTEX
  5
464
100
AcDbEntity
  8
レイヤ1
100
AcDbVertex
100
AcDb2dVertex
 10
74.5946048558
 20
55.82563976305
  0
VERTEX
  5
465
100
AcDbEntity
  8
レイヤ1
100
AcDbVertex
100
AcDb2dVertex
 10
80.36967103818
 20
49.08806255027
  0
VERTEX
  5
466
100
AcDbEntity
  8
レイヤ1
100
AcDbVertex
100
AcDb2dVertex
 10
84.21971515977
 20
47.64429600467
  0
VERTEX
  5
467
100
AcDbEntity
  8
レイヤ1
100
AcDbVertex
100
AcDb2dVertex
 10
101.5449137069
 20
46.20052945907
  0
VERTEX
  5
468
100
AcDbEntity
  8
レイヤ1
100
AcDbVertex
100
AcDb2dVertex
 10
108.2824909197
 20
49.08806255027
  0
VERTEX
  5
469
100
AcDbEntity
  8
レイヤ1
100
AcDbVertex
100
AcDb2dVertex
 10
109.7262574653
 20
51.97559564146
  0
VERTEX
  5
46A
100
AcDbEntity
  8
レイヤ1
100
AcDbVertex
100
AcDb2dVertex
 10
115.517886935
 20
47.48694477504
  0
VERTEX
  5
46B
100
AcDbEntity
  8
レイヤ1
100
AcDbVertex
100
AcDb2dVertex
 10
129.9997211572
 20
47.15015793266
  0
VERTEX
  5
46C
100
AcDbEntity
  8
レイヤ1
100
AcDbVertex
100
AcDb2dVertex
 10
133.7890332252
 20
45.71927394388
  0
SEQEND
  5
46D
100
AcDbEntity
  8
レイヤ1
  0
POLYLINE
  5
46E
100
AcDbEntity
  8
レイヤ1
  6
CONTINUOUS
 62
     0
100
AcDb2dPolyline
 66
     1
 10
0
 20
0
 70
     0
  0
VERTEX
  5
46F
100
AcDbEntity
  8
レイヤ1
100
AcDbVertex
100
AcDb2dVertex
 10
-80.82884217027
 20
851.7339243692
  0
VERTEX
  5
470
100
AcDbEntity
  8
レイヤ1
100
AcDbVertex
100
AcDb2dVertex
 10
-79.40716000778
 20
830.1657637177
  0
VERTEX
  5
471
100
AcDbEntity
  8
レイヤ1
100
AcDbVertex
100
AcDb2dVertex
 10
-80.85092655338
 20
816.6906092922
  0
VERTEX
  5
472
100
AcDbEntity
  8
レイヤ1
100
AcDbVertex
100
AcDb2dVertex
 10
-75.075860371
 20
788.2965338954
  0
VERTEX
  5
473
100
AcDbEntity
  8
レイヤ1
100
AcDbVertex
100
AcDb2dVertex
 10
-81.81343758378
 20
789.740300441
  0
VERTEX
  5
474
100
AcDbEntity
  8
レイヤ1
100
AcDbVertex
100
AcDb2dVertex
 10
-91.09279146403
 20
782.5966728494
  0
SEQEND
  5
475
100
AcDbEntity
  8
レイヤ1
  0
POLYLINE
  5
476
100
AcDbEntity
  8
レイヤ1
  6
CONTINUOUS
 62
     0
100
AcDb2dPolyline
 66
     1
 10
0
 20
0
 70
     0
  0
VERTEX
  5
477
100
AcDbEntity
  8
レイヤ1
100
AcDbVertex
100
AcDb2dVertex
 10
-93.80318500047
 20
741.9407698027
  0
VERTEX
  5
478
100
AcDbEntity
  8
レイヤ1
100
AcDbVertex
100
AcDb2dVertex
 10
-73.08274479562
 20
740.5942663851
  0
VERTEX
  5
479
100
AcDbEntity
  8
レイヤ1
100
AcDbVertex
100
AcDb2dVertex
 10
-49.17087898692
 20
736.2160374342
  0
VERTEX
  5
47A
100
AcDbEntity
  8
レイヤ1
100
AcDbVertex
100
AcDb2dVertex
 10
4.041442108514
 20
733.8585295376
  0
VERTEX
  5
47B
100
AcDbEntity
  8
レイヤ1
100
AcDbVertex
100
AcDb2dVertex
 10
24.58543949346
 20
732.5113821681
  0
SEQEND
  5
47C
100
AcDbEntity
  8
レイヤ1
  0
POLYLINE
  5
47D
100
AcDbEntity
  8
レイヤ1
  6
CONTINUOUS
 62
     0
100
AcDb2dPolyline
 66
     1
 10
0
 20
0
 70
     0
  0
VERTEX
  5
47E
100
AcDbEntity
  8
レイヤ1
100
AcDbVertex
100
AcDb2dVertex
 10
52.93810667186
 20
813.803076201
  0
VERTEX
  5
47F
100
AcDbEntity
  8
レイヤ1
100
AcDbVertex
100
AcDb2dVertex
 10
30.31081581385
 20
807.9516348604
  0
VERTEX
  5
480
100
AcDbEntity
  8
レイヤ1
100
AcDbVertex
100
AcDb2dVertex
 10
19.19685001544
 20
806.2677006485
  0
VERTEX
  5
481
100
AcDbEntity
  8
レイヤ1
100
AcDbVertex
100
AcDb2dVertex
 10
-7.746097374651
 20
777.3040322041
  0
VERTEX
  5
482
100
AcDbEntity
  8
レイヤ1
100
AcDbVertex
100
AcDb2dVertex
 10
-14.48183422217
 20
774.2729506227
  0
VERTEX
  5
483
100
AcDbEntity
  8
レイヤ1
100
AcDbVertex
100
AcDb2dVertex
 10
-16.16576843405
 20
770.905082199
  0
VERTEX
  5
484
100
AcDbEntity
  8
レイヤ1
100
AcDbVertex
100
AcDb2dVertex
 10
-14.81862106455
 20
766.8636400905
  0
VERTEX
  5
485
100
AcDbEntity
  8
レイヤ1
100
AcDbVertex
100
AcDb2dVertex
 10
-10.77717895604
 20
763.8325585091
  0
VERTEX
  5
486
100
AcDbEntity
  8
レイヤ1
100
AcDbVertex
100
AcDb2dVertex
 10
-5.725376320394
 20
764.1693453515
  0
VERTEX
  5
487
100
AcDbEntity
  8
レイヤ1
100
AcDbVertex
100
AcDb2dVertex
 10
-3.031081581385
 20
761.8118374548
  0
VERTEX
  5
488
100
AcDbEntity
  8
レイヤ1
100
AcDbVertex
100
AcDb2dVertex
 10
-7.072523689899
 20
757.0968216616
  0
VERTEX
  5
489
100
AcDbEntity
  8
レイヤ1
100
AcDbVertex
100
AcDb2dVertex
 10
-9.093244744156
 20
751.7082321835
  0
VERTEX
  5
48A
100
AcDbEntity
  8
レイヤ1
100
AcDbVertex
100
AcDb2dVertex
 10
-8.082884217027
 20
747.3300032326
  0
VERTEX
  5
48B
100
AcDbEntity
  8
レイヤ1
100
AcDbVertex
100
AcDb2dVertex
 10
-5.388589478018
 20
745.9828558631
  0
VERTEX
  5
48C
100
AcDbEntity
  8
レイヤ1
100
AcDbVertex
100
AcDb2dVertex
 10
1.010360527128
 20
747.666790075
  0
VERTEX
  5
48D
100
AcDbEntity
  8
レイヤ1
100
AcDbVertex
100
AcDb2dVertex
 10
4.041442108514
 20
749.6875111293
  0
VERTEX
  5
48E
100
AcDbEntity
  8
レイヤ1
100
AcDbVertex
100
AcDb2dVertex
 10
4.37822895089
 20
747.666790075
  0
VERTEX
  5
48F
100
AcDbEntity
  8
レイヤ1
100
AcDbVertex
100
AcDb2dVertex
 10
1.010360527128
 20
744.972495336
  0
VERTEX
  5
490
100
AcDbEntity
  8
レイヤ1
100
AcDbVertex
100
AcDb2dVertex
 10
-0.3367868423761
 20
741.9414137546
  0
VERTEX
  5
491
100
AcDbEntity
  8
レイヤ1
100
AcDbVertex
100
AcDb2dVertex
 10
-0.3367868423761
 20
739.583905858
  0
VERTEX
  5
492
100
AcDbEntity
  8
レイヤ1
100
AcDbVertex
100
AcDb2dVertex
 10
2.694294739009
 20
736.889611119
  0
VERTEX
  5
493
100
AcDbEntity
  8
レイヤ1
100
AcDbVertex
100
AcDb2dVertex
 10
6.398950005147
 20
737.2263979614
  0
VERTEX
  5
494
100
AcDbEntity
  8
レイヤ1
100
AcDbVertex
100
AcDb2dVertex
 10
26.26937370534
 20
749.0139374445
  0
VERTEX
  5
495
100
AcDbEntity
  8
レイヤ1
100
AcDbVertex
100
AcDb2dVertex
 10
34.01547107999
 20
752.0450190259
  0
VERTEX
  5
496
100
AcDbEntity
  8
レイヤ1
100
AcDbVertex
100
AcDb2dVertex
 10
45.46622372078
 20
764.8429190362
  0
VERTEX
  5
497
100
AcDbEntity
  8
レイヤ1
100
AcDbVertex
100
AcDb2dVertex
 10
47.48694477504
 20
765.1797058786
  0
VERTEX
  5
498
100
AcDbEntity
  8
レイヤ1
100
AcDbVertex
100
AcDb2dVertex
 10
35.02583160712
 20
748.3403637598
  0
VERTEX
  5
499
100
AcDbEntity
  8
レイヤ1
100
AcDbVertex
100
AcDb2dVertex
 10
30.9843894986
 20
745.3092821784
  0
VERTEX
  5
49A
100
AcDbEntity
  8
レイヤ1
100
AcDbVertex
100
AcDb2dVertex
 10
28.62688160197
 20
741.9414137546
  0
VERTEX
  5
49B
100
AcDbEntity
  8
レイヤ1
100
AcDbVertex
100
AcDb2dVertex
 10
28.96366844435
 20
738.5735453309
  0
VERTEX
  5
49C
100
AcDbEntity
  8
レイヤ1
100
AcDbVertex
100
AcDb2dVertex
 10
33.34189739524
 20
737.2263979614
  0
VERTEX
  5
49D
100
AcDbEntity
  8
レイヤ1
100
AcDbVertex
100
AcDb2dVertex
 10
37.72012634613
 20
739.2471190156
  0
VERTEX
  5
49E
100
AcDbEntity
  8
レイヤ1
100
AcDbVertex
100
AcDb2dVertex
 10
53.54910793781
 20
754.0657400802
  0
VERTEX
  5
49F
100
AcDbEntity
  8
レイヤ1
100
AcDbVertex
100
AcDb2dVertex
 10
67.6941553176
 20
760.4646900853
  0
VERTEX
  5
4A0
100
AcDbEntity
  8
レイヤ1
100
AcDbVertex
100
AcDb2dVertex
 10
71.39881058374
 20
764.5061321938
  0
VERTEX
  5
4A1
100
AcDbEntity
  8
レイヤ1
100
AcDbVertex
100
AcDb2dVertex
 10
78.47133427364
 20
773.9361637804
  0
VERTEX
  5
4A2
100
AcDbEntity
  8
レイヤ1
100
AcDbVertex
100
AcDb2dVertex
 10
84.60486948248
 20
776.0829011035
  0
SEQEND
  5
4A3
100
AcDbEntity
  8
レイヤ1
  0
POLYLINE
  5
4A4
100
AcDbEntity
  8
レイヤ1
  6
CONTINUOUS
 62
     0
100
AcDb2dPolyline
 66
     1
 10
0
 20
0
 70
     0
  0
VERTEX
  5
4A5
100
AcDbEntity
  8
レイヤ1
100
AcDbVertex
100
AcDb2dVertex
 10
62.08579373387
 20
757.9275741308
  0
VERTEX
  5
4A6
100
AcDbEntity
  8
レイヤ1
100
AcDbVertex
100
AcDb2dVertex
 10
71.39881058374
 20
747.3300032326
  0
VERTEX
  5
4A7
100
AcDbEntity
  8
レイヤ1
100
AcDbVertex
100
AcDb2dVertex
 10
93.28995533819
 20
716.345613734
  0
VERTEX
  5
4A8
100
AcDbEntity
  8
レイヤ1
100
AcDbVertex
100
AcDb2dVertex
 10
111.1396579841
 20
699.5062716152
  0
VERTEX
  5
4A9
100
AcDbEntity
  8
レイヤ1
100
AcDbVertex
100
AcDb2dVertex
 10
115.517886935
 20
698.4959110881
  0
VERTEX
  5
4AA
100
AcDbEntity
  8
レイヤ1
100
AcDbVertex
100
AcDb2dVertex
 10
131.3468685267
 20
704.5580742509
  0
VERTEX
  5
4AB
100
AcDbEntity
  8
レイヤ1
100
AcDbVertex
100
AcDb2dVertex
 10
139.0929659013
 20
717.3559742612
  0
VERTEX
  5
4AC
100
AcDbEntity
  8
レイヤ1
100
AcDbVertex
100
AcDb2dVertex
 10
139.0929659013
 20
724.0917111087
  0
VERTEX
  5
4AD
100
AcDbEntity
  8
レイヤ1
100
AcDbVertex
100
AcDb2dVertex
 10
136.3986711623
 20
727.7963663748
  0
SEQEND
  5
4AE
100
AcDbEntity
  8
レイヤ1
  0
POLYLINE
  5
4AF
100
AcDbEntity
  8
レイヤ1
  6
CONTINUOUS
 62
     0
100
AcDb2dPolyline
 66
     1
 10
0
 20
0
 70
     0
  0
VERTEX
  5
4B0
100
AcDbEntity
  8
レイヤ1
100
AcDbVertex
100
AcDb2dVertex
 10
52.93810667186
 20
816.209353777
  0
VERTEX
  5
4B1
100
AcDbEntity
  8
レイヤ1
100
AcDbVertex
100
AcDb2dVertex
 10
58.60091057345
 20
817.3816664469
  0
VERTEX
  5
4B2
100
AcDbEntity
  8
レイヤ1
100
AcDbVertex
100
AcDb2dVertex
 10
64.66307373622
 20
814.0137980231
  0
VERTEX
  5
4B3
100
AcDbEntity
  8
レイヤ1
100
AcDbVertex
100
AcDb2dVertex
 10
74.09310532275
 20
803.2366190671
  0
VERTEX
  5
4B4
100
AcDbEntity
  8
レイヤ1
100
AcDbVertex
100
AcDb2dVertex
 10
91.60602112631
 20
768.5475743023
  0
VERTEX
  5
4B5
100
AcDbEntity
  8
レイヤ1
100
AcDbVertex
100
AcDb2dVertex
 10
95.31067639245
 20
763.4957716667
  0
VERTEX
  5
4B6
100
AcDbEntity
  8
レイヤ1
100
AcDbVertex
100
AcDb2dVertex
 10
115.8546737774
 20
747.3300032326
  0
VERTEX
  5
4B7
100
AcDbEntity
  8
レイヤ1
100
AcDbVertex
100
AcDb2dVertex
 10
135.7250974776
 20
724.7652847934
  0
VERTEX
  5
4B8
100
AcDbEntity
  8
レイヤ1
100
AcDbVertex
100
AcDb2dVertex
 10
136.3986711623
 20
718.3663347883
  0
VERTEX
  5
4B9
100
AcDbEntity
  8
レイヤ1
100
AcDbVertex
100
AcDb2dVertex
 10
128.3157869453
 20
706.2420084628
  0
VERTEX
  5
4BA
100
AcDbEntity
  8
レイヤ1
100
AcDbVertex
100
AcDb2dVertex
 10
112.4868053536
 20
701.5269926695
  0
VERTEX
  5
4BB
100
AcDbEntity
  8
レイヤ1
100
AcDbVertex
100
AcDb2dVertex
 10
98.34175797383
 20
714.6616795222
  0
VERTEX
  5
4BC
100
AcDbEntity
  8
レイヤ1
100
AcDbVertex
100
AcDb2dVertex
 10
86.55421849067
 20
730.1538742715
  0
VERTEX
  5
4BD
100
AcDbEntity
  8
レイヤ1
100
AcDbVertex
100
AcDb2dVertex
 10
71.06202374136
 20
752.0450190259
  0
VERTEX
  5
4BE
100
AcDbEntity
  8
レイヤ1
100
AcDbVertex
100
AcDb2dVertex
 10
65.55429167209
 20
759.4966565314
  0
SEQEND
  5
4BF
100
AcDbEntity
  8
レイヤ1
  0
POLYLINE
  5
4C0
100
AcDbEntity
  8
レイヤ1
  6
CONTINUOUS
 62
     0
100
AcDb2dPolyline
 66
     1
 10
0
 20
0
 70
     0
  0
VERTEX
  5
4C1
100
AcDbEntity
  8
レイヤ1
100
AcDbVertex
100
AcDb2dVertex
 10
20.33416020586
 20
745.4930480804
  0
VERTEX
  5
4C2
100
AcDbEntity
  8
レイヤ1
100
AcDbVertex
100
AcDb2dVertex
 10
22.90150528158
 20
739.2471190156
  0
VERTEX
  5
4C3
100
AcDbEntity
  8
レイヤ1
100
AcDbVertex
100
AcDb2dVertex
 10
24.58543949346
 20
741.2678400699
  0
VERTEX
  5
4C4
100
AcDbEntity
  8
レイヤ1
100
AcDbVertex
100
AcDb2dVertex
 10
28.62688160197
 20
741.9414137546
  0
SEQEND
  5
4C5
100
AcDbEntity
  8
レイヤ1
  0
POLYLINE
  5
4C6
100
AcDbEntity
  8
レイヤ1
  6
CONTINUOUS
 62
     0
100
AcDb2dPolyline
 66
     1
 10
0
 20
0
 70
     0
  0
VERTEX
  5
4C7
100
AcDbEntity
  8
レイヤ1
100
AcDbVertex
100
AcDb2dVertex
 10
-76.88082089382
 20
797.1709231327
  0
VERTEX
  5
4C8
100
AcDbEntity
  8
レイヤ1
100
AcDbVertex
100
AcDb2dVertex
 10
-64.32628689384
 20
794.8169480077
  0
VERTEX
  5
4C9
100
AcDbEntity
  8
レイヤ1
100
AcDbVertex
100
AcDb2dVertex
 10
-18.86006317306
 20
794.1433743229
  0
VERTEX
  5
4CA
100
AcDbEntity
  8
レイヤ1
100
AcDbVertex
100
AcDb2dVertex
 10
-9.766818428908
 20
792.7962269534
  0
VERTEX
  5
4CB
100
AcDbEntity
  8
レイヤ1
100
AcDbVertex
100
AcDb2dVertex
 10
0.5865453265919
 20
793.535752936
  0
SEQEND
  5
4CC
100
AcDbEntity
  8
レイヤ1
  0
POLYLINE
  5
4CD
100
AcDbEntity
  8
レイヤ1
  6
CONTINUOUS
 62
     0
100
AcDb2dPolyline
 66
     1
 10
0
 20
0
 70
     0
  0
VERTEX
  5
4CE
100
AcDbEntity
  8
レイヤ1
100
AcDbVertex
100
AcDb2dVertex
 10
22.90150528158
 20
739.2471190156
  0
VERTEX
  5
4CF
100
AcDbEntity
  8
レイヤ1
100
AcDbVertex
100
AcDb2dVertex
 10
24.58543949346
 20
732.5113821681
  0
VERTEX
  5
4D0
100
AcDbEntity
  8
レイヤ1
100
AcDbVertex
100
AcDb2dVertex
 10
27.00904093531
 20
722.5495566455
  0
VERTEX
  5
4D1
100
AcDbEntity
  8
レイヤ1
100
AcDbVertex
100
AcDb2dVertex
 10
28.5095432095
 20
721.2799008751
  0
VERTEX
  5
4D2
100
AcDbEntity
  8
レイヤ1
100
AcDbVertex
100
AcDb2dVertex
 10
31.395124506
 20
721.2799008751
  0
VERTEX
  5
4D3
100
AcDbEntity
  8
レイヤ1
100
AcDbVertex
100
AcDb2dVertex
 10
40.85983115855
 20
727.974449483
  0
VERTEX
  5
4D4
100
AcDbEntity
  8
レイヤ1
100
AcDbVertex
100
AcDb2dVertex
 10
40.97525441041
 20
730.0520680165
  0
VERTEX
  5
4D5
100
AcDbEntity
  8
レイヤ1
100
AcDbVertex
100
AcDb2dVertex
 10
34.73684108587
 20
737.8702181263
  0
SEQEND
  5
4D6
100
AcDbEntity
  8
レイヤ1
  0
POLYLINE
  5
4D7
100
AcDbEntity
  8
レイヤ1
  6
CONTINUOUS
 62
     0
100
AcDb2dPolyline
 66
     1
 10
0
 20
0
 70
     0
  0
VERTEX
  5
4D8
100
AcDbEntity
  8
レイヤ1
100
AcDbVertex
100
AcDb2dVertex
 10
38.18561563154
 20
733.5481195909
  0
VERTEX
  5
4D9
100
AcDbEntity
  8
レイヤ1
100
AcDbVertex
100
AcDb2dVertex
 10
62.30556583959
 20
730.4906611138
  0
VERTEX
  5
4DA
100
AcDbEntity
  8
レイヤ1
100
AcDbVertex
100
AcDb2dVertex
 10
85.67968215552
 20
727.1170773157
  0
SEQEND
  5
4DB
100
AcDbEntity
  8
レイヤ1
  0
LINE
  5
4DC
100
AcDbEntity
  8
レイヤ1
  6
CONTINUOUS
 62
     0
100
AcDbLine
 10
30.64264520508
 20
750.7252175966
 11
32.44074300695
 21
746.4015473097
  0
LINE
  5
4DD
100
AcDbEntity
  8
レイヤ1
  6
CONTINUOUS
 62
     0
100
AcDbLine
 10
-5.938927228347
 20
838.6885406235
 11
11.14411092685
 21
797.6110061282
  0
LINE
  5
4DE
100
AcDbEntity
  8
レイヤ1
  6
CONTINUOUS
 62
     0
100
AcDbLine
 10
-20.4711418261
 20
844.7656485462
 11
2.66022556689
 21
788.4908293663
  0
LINE
  5
4DF
100
AcDbEntity
  8
レイヤ1
  6
CONTINUOUS
 62
     0
100
AcDbLine
 10
-30.9843894986
 20
900.2312296714
 11
-126.3279074378
 21
1138.365285307
  0
POLYLINE
  5
4E0
100
AcDbEntity
  8
レイヤ1
  6
CONTINUOUS
 62
     0
100
AcDb2dPolyline
 66
     1
 10
0
 20
0
 70
     0
  0
VERTEX
  5
4E1
100
AcDbEntity
  8
レイヤ1
100
AcDbVertex
100
AcDb2dVertex
 10
-56.2397399932
 20
935.3306051001
  0
VERTEX
  5
4E2
100
AcDbEntity
  8
レイヤ1
100
AcDbVertex
100
AcDb2dVertex
 10
-61.74983535207
 20
935.67498606
  0
VERTEX
  5
4E3
100
AcDbEntity
  8
レイヤ1
100
AcDbVertex
100
AcDb2dVertex
 10
-75.65533262601
 20
936.6177316379
  0
VERTEX
  5
4E4
100
AcDbEntity
  8
レイヤ1
100
AcDbVertex
100
AcDb2dVertex
 10
-89.03227031176
 20
935.079466031
  0
VERTEX
  5
4E5
100
AcDbEntity
  8
レイヤ1
100
AcDbVertex
100
AcDb2dVertex
 10
-96.73235855494
 20
931.7106774247
  0
VERTEX
  5
4E6
100
AcDbEntity
  8
レイヤ1
100
AcDbVertex
100
AcDb2dVertex
 10
-104.8804455407
 20
925.3047847032
  0
VERTEX
  5
4E7
100
AcDbEntity
  8
レイヤ1
100
AcDbVertex
100
AcDb2dVertex
 10
-107.8012354045
 20
921.1230560903
  0
VERTEX
  5
4E8
100
AcDbEntity
  8
レイヤ1
100
AcDbVertex
100
AcDb2dVertex
 10
-108.6514278523
 20
918.4698792634
  0
VERTEX
  5
4E9
100
AcDbEntity
  8
レイヤ1
100
AcDbVertex
100
AcDb2dVertex
 10
-107.4729958799
 20
914.9345833463
  0
VERTEX
  5
4EA
100
AcDbEntity
  8
レイヤ1
100
AcDbVertex
100
AcDb2dVertex
 10
-107.001623091
 20
909.7494826679
  0
VERTEX
  5
4EB
100
AcDbEntity
  8
レイヤ1
100
AcDbVertex
100
AcDb2dVertex
 10
-105.3518183297
 20
906.9212459342
  0
SEQEND
  5
4EC
100
AcDbEntity
  8
レイヤ1
  0
POLYLINE
  5
4ED
100
AcDbEntity
  8
レイヤ1
  6
CONTINUOUS
 62
     0
100
AcDb2dPolyline
 66
     1
 10
0
 20
0
 70
     0
  0
VERTEX
  5
4EE
100
AcDbEntity
  8
レイヤ1
100
AcDbVertex
100
AcDb2dVertex
 10
-29.30439391967
 20
1093.568589354
  0
VERTEX
  5
4EF
100
AcDbEntity
  8
レイヤ1
100
AcDbVertex
100
AcDb2dVertex
 10
-29.85330953785
 20
1088.408782543
  0
VERTEX
  5
4F0
100
AcDbEntity
  8
レイヤ1
100
AcDbVertex
100
AcDb2dVertex
 10
16.16367035751
 20
1027.052809349
  0
VERTEX
  5
4F1
100
AcDbEntity
  8
レイヤ1
100
AcDbVertex
100
AcDb2dVertex
 10
41.23385295283
 20
1068.946403949
  0
VERTEX
  5
4F2
100
AcDbEntity
  8
レイヤ1
100
AcDbVertex
100
AcDb2dVertex
 10
56.9027170749
 20
1093.026974074
  0
VERTEX
  5
4F3
100
AcDbEntity
  8
レイヤ1
100
AcDbVertex
100
AcDb2dVertex
 10
58.55207119302
 20
1094.51139278
  0
VERTEX
  5
4F4
100
AcDbEntity
  8
レイヤ1
100
AcDbVertex
100
AcDb2dVertex
 10
65.6442939009
 20
1078.842528658
  0
VERTEX
  5
4F5
100
AcDbEntity
  8
レイヤ1
100
AcDbVertex
100
AcDb2dVertex
 10
79.42631493759
 20
1058.93897037
  0
VERTEX
  5
4F6
100
AcDbEntity
  8
レイヤ1
100
AcDbVertex
100
AcDb2dVertex
 10
86.26122037732
 20
1058.93897037
  0
VERTEX
  5
4F7
100
AcDbEntity
  8
レイヤ1
100
AcDbVertex
100
AcDb2dVertex
 10
93.567498606
 20
1052.811124113
  0
VERTEX
  5
4F8
100
AcDbEntity
  8
レイヤ1
100
AcDbVertex
100
AcDb2dVertex
 10
107.9443686689
 20
1052.811124113
  0
VERTEX
  5
4F9
100
AcDbEntity
  8
レイヤ1
100
AcDbVertex
100
AcDb2dVertex
 10
123.2639843097
 20
1049.091014002
  0
VERTEX
  5
4FA
100
AcDbEntity
  8
レイヤ1
100
AcDbVertex
100
AcDb2dVertex
 10
153.2380132811
 20
1035.282753464
  0
VERTEX
  5
4FB
100
AcDbEntity
  8
レイヤ1
100
AcDbVertex
100
AcDb2dVertex
 10
157.2794553897
 20
1031.578098198
  0
VERTEX
  5
4FC
100
AcDbEntity
  8
レイヤ1
100
AcDbVertex
100
AcDb2dVertex
 10
191.2949264696
 20
974.3243349942
  0
VERTEX
  5
4FD
100
AcDbEntity
  8
レイヤ1
100
AcDbVertex
100
AcDb2dVertex
 10
216.5539396479
 20
937.2777823328
  0
VERTEX
  5
4FE
100
AcDbEntity
  8
レイヤ1
100
AcDbVertex
100
AcDb2dVertex
 10
237.0979370328
 20
896.1897875629
  0
VERTEX
  5
4FF
100
AcDbEntity
  8
レイヤ1
100
AcDbVertex
100
AcDb2dVertex
 10
237.7715107176
 20
891.1379849273
  0
VERTEX
  5
500
100
AcDbEntity
  8
レイヤ1
100
AcDbVertex
100
AcDb2dVertex
 10
237.7715107176
 20
887.4333296611
  0
VERTEX
  5
501
100
AcDbEntity
  8
レイヤ1
100
AcDbVertex
100
AcDb2dVertex
 10
230.0254133429
 20
869.2468401728
  0
VERTEX
  5
502
100
AcDbEntity
  8
レイヤ1
100
AcDbVertex
100
AcDb2dVertex
 10
213.8596449088
 20
824.1174032944
  0
VERTEX
  5
503
100
AcDbEntity
  8
レイヤ1
100
AcDbVertex
100
AcDb2dVertex
 10
193.9892212087
 20
794.4801611653
  0
VERTEX
  5
504
100
AcDbEntity
  8
レイヤ1
100
AcDbVertex
100
AcDb2dVertex
 10
186.5799106764
 20
789.0915716873
  0
VERTEX
  5
505
100
AcDbEntity
  8
レイヤ1
100
AcDbVertex
100
AcDb2dVertex
 10
181.5281080407
 20
787.4076374754
  0
VERTEX
  5
506
100
AcDbEntity
  8
レイヤ1
100
AcDbVertex
100
AcDb2dVertex
 10
180.5177475136
 20
784.376555894
  0
VERTEX
  5
507
100
AcDbEntity
  8
レイヤ1
100
AcDbVertex
100
AcDb2dVertex
 10
187.5902712035
 20
763.1589848243
  0
VERTEX
  5
508
100
AcDbEntity
  8
レイヤ1
100
AcDbVertex
100
AcDb2dVertex
 10
187.9270580459
 20
757.4336085039
  0
VERTEX
  5
509
100
AcDbEntity
  8
レイヤ1
100
AcDbVertex
100
AcDb2dVertex
 10
182.5384685679
 20
703.2109268814
  0
VERTEX
  5
50A
100
AcDbEntity
  8
レイヤ1
100
AcDbVertex
100
AcDb2dVertex
 10
192.3052869968
 20
632.4856899824
  0
VERTEX
  5
50B
100
AcDbEntity
  8
レイヤ1
100
AcDbVertex
100
AcDb2dVertex
 10
198.0306633172
 20
572.5376320394
  0
VERTEX
  5
50C
100
AcDbEntity
  8
レイヤ1
100
AcDbVertex
100
AcDb2dVertex
 10
208.8078422732
 20
455.6725977349
  0
VERTEX
  5
50D
100
AcDbEntity
  8
レイヤ1
100
AcDbVertex
100
AcDb2dVertex
 10
212.175710697
 20
383.9370003088
  0
VERTEX
  5
50E
100
AcDbEntity
  8
レイヤ1
100
AcDbVertex
100
AcDb2dVertex
 10
221.6057422835
 20
318.9371397302
  0
VERTEX
  5
50F
100
AcDbEntity
  8
レイヤ1
100
AcDbVertex
100
AcDb2dVertex
 10
225.647184392
 20
268.7559002162
  0
VERTEX
  5
510
100
AcDbEntity
  8
レイヤ1
100
AcDbVertex
100
AcDb2dVertex
 10
224.9736107073
 20
264.3776712653
  0
VERTEX
  5
511
100
AcDbEntity
  8
レイヤ1
100
AcDbVertex
100
AcDb2dVertex
 10
222.2793159682
 20
262.0201633686
  0
VERTEX
  5
512
100
AcDbEntity
  8
レイヤ1
100
AcDbVertex
100
AcDb2dVertex
 10
167.3830606609
 20
261.3465896839
  0
VERTEX
  5
513
100
AcDbEntity
  8
レイヤ1
100
AcDbVertex
100
AcDb2dVertex
 10
160.9841106558
 20
262.0201633686
  0
VERTEX
  5
514
100
AcDbEntity
  8
レイヤ1
100
AcDbVertex
100
AcDb2dVertex
 10
116.5282474621
 20
282.5641607536
  0
VERTEX
  5
515
100
AcDbEntity
  8
レイヤ1
100
AcDbVertex
100
AcDb2dVertex
 10
120.2329027283
 20
248.5486896736
  0
VERTEX
  5
516
100
AcDbEntity
  8
レイヤ1
100
AcDbVertex
100
AcDb2dVertex
 10
120.2329027283
 20
223.6264633378
  0
VERTEX
  5
517
100
AcDbEntity
  8
レイヤ1
100
AcDbVertex
100
AcDb2dVertex
 10
115.1811000926
 20
196.3467291053
  0
VERTEX
  5
518
100
AcDbEntity
  8
レイヤ1
100
AcDbVertex
100
AcDb2dVertex
 10
110.129297457
 20
180.854534356
  0
VERTEX
  5
519
100
AcDbEntity
  8
レイヤ1
100
AcDbVertex
100
AcDb2dVertex
 10
110.129297457
 20
128.3157869453
  0
VERTEX
  5
51A
100
AcDbEntity
  8
レイヤ1
100
AcDbVertex
100
AcDb2dVertex
 10
114.5075264079
 20
112.823592196
  0
VERTEX
  5
51B
100
AcDbEntity
  8
レイヤ1
100
AcDbVertex
100
AcDb2dVertex
 10
114.1707395655
 20
110.129297457
  0
VERTEX
  5
51C
100
AcDbEntity
  8
レイヤ1
100
AcDbVertex
100
AcDb2dVertex
 10
111.4764448265
 20
111.1396579841
  0
VERTEX
  5
51D
100
AcDbEntity
  8
レイヤ1
100
AcDbVertex
100
AcDb2dVertex
 10
109.1189369299
 20
112.4868053536
  0
VERTEX
  5
51E
100
AcDbEntity
  8
レイヤ1
100
AcDbVertex
100
AcDb2dVertex
 10
93.28995533819
 20
103.7303474518
  0
VERTEX
  5
51F
100
AcDbEntity
  8
レイヤ1
100
AcDbVertex
100
AcDb2dVertex
 10
57.9273368887
 20
101.0360527128
  0
VERTEX
  5
520
100
AcDbEntity
  8
レイヤ1
100
AcDbVertex
100
AcDb2dVertex
 10
52.87553425305
 20
98.67854481621
  0
VERTEX
  5
521
100
AcDbEntity
  8
レイヤ1
100
AcDbVertex
100
AcDb2dVertex
 10
39.40406055801
 20
95.9842500772
  0
VERTEX
  5
522
100
AcDbEntity
  8
レイヤ1
100
AcDbVertex
100
AcDb2dVertex
 10
-36.03619213425
 20
97.3313974467
  0
VERTEX
  5
523
100
AcDbEntity
  8
レイヤ1
100
AcDbVertex
100
AcDb2dVertex
 10
-72.74595795325
 20
99.35211850096
  0
VERTEX
  5
524
100
AcDbEntity
  8
レイヤ1
100
AcDbVertex
100
AcDb2dVertex
 10
-99.01533165858
 20
109.4557237722
  0
VERTEX
  5
525
100
AcDbEntity
  8
レイヤ1
100
AcDbVertex
100
AcDb2dVertex
 10
-118.8857553588
 20
113.4971658808
  0
VERTEX
  5
526
100
AcDbEntity
  8
レイヤ1
100
AcDbVertex
100
AcDb2dVertex
 10
-147.5126369607
 20
121.9168369402
  0
VERTEX
  5
527
100
AcDbEntity
  8
レイヤ1
100
AcDbVertex
100
AcDb2dVertex
 10
-165.3623396067
 20
131.6836553691
  0
VERTEX
  5
528
100
AcDbEntity
  8
レイヤ1
100
AcDbVertex
100
AcDb2dVertex
 10
-166.3727001338
 20
135.3883106352
  0
VERTEX
  5
529
100
AcDbEntity
  8
レイヤ1
100
AcDbVertex
100
AcDb2dVertex
 10
-141.1136869556
 20
225.9839712344
  0
VERTEX
  5
52A
100
AcDbEntity
  8
レイヤ1
100
AcDbVertex
100
AcDb2dVertex
 10
-138.0826053742
 20
253.9372791516
  0
VERTEX
  5
52B
100
AcDbEntity
  8
レイヤ1
100
AcDbVertex
100
AcDb2dVertex
 10
-136.3986711623
 20
291.3206186554
  0
VERTEX
  5
52C
100
AcDbEntity
  8
レイヤ1
100
AcDbVertex
100
AcDb2dVertex
 10
-158.9633896015
 20
273.8077028518
  0
VERTEX
  5
52D
100
AcDbEntity
  8
レイヤ1
100
AcDbVertex
100
AcDb2dVertex
 10
-165.3623396067
 20
272.4605554823
  0
VERTEX
  5
52E
100
AcDbEntity
  8
レイヤ1
100
AcDbVertex
100
AcDb2dVertex
 10
-167.7198475033
 20
272.1237686399
  0
VERTEX
  5
52F
100
AcDbEntity
  8
レイヤ1
100
AcDbVertex
100
AcDb2dVertex
 10
-172.4348632966
 20
273.4709160094
  0
VERTEX
  5
530
100
AcDbEntity
  8
レイヤ1
100
AcDbVertex
100
AcDb2dVertex
 10
-179.8441738289
 20
283.2377344383
  0
VERTEX
  5
531
100
AcDbEntity
  8
レイヤ1
100
AcDbVertex
100
AcDb2dVertex
 10
-183.2120422526
 20
294.0149133944
  0
VERTEX
  5
532
100
AcDbEntity
  8
レイヤ1
100
AcDbVertex
100
AcDb2dVertex
 10
-181.5281080407
 20
363.0562160815
  0
VERTEX
  5
533
100
AcDbEntity
  8
レイヤ1
100
AcDbVertex
100
AcDb2dVertex
 10
-175.465944878
 20
410.2063740141
  0
VERTEX
  5
534
100
AcDbEntity
  8
レイヤ1
100
AcDbVertex
100
AcDb2dVertex
 10
-183.2120422526
 20
481.6051845979
  0
VERTEX
  5
535
100
AcDbEntity
  8
レイヤ1
100
AcDbVertex
100
AcDb2dVertex
 10
-184.2224027797
 20
538.5221609594
  0
VERTEX
  5
536
100
AcDbEntity
  8
レイヤ1
100
AcDbVertex
100
AcDb2dVertex
 10
-176.8130922475
 20
655.387195264
  0
VERTEX
  5
537
100
AcDbEntity
  8
レイヤ1
100
AcDbVertex
100
AcDb2dVertex
 10
-165.6991264491
 20
730.1538742715
  0
VERTEX
  5
538
100
AcDbEntity
  8
レイヤ1
100
AcDbVertex
100
AcDb2dVertex
 10
-167.7198475033
 20
735.8792505919
  0
VERTEX
  5
539
100
AcDbEntity
  8
レイヤ1
100
AcDbVertex
100
AcDb2dVertex
 10
-173.7820106661
 20
738.2367584885
  0
VERTEX
  5
53A
100
AcDbEntity
  8
レイヤ1
100
AcDbVertex
100
AcDb2dVertex
 10
-187.2534843611
 20
754.4025269225
  0
VERTEX
  5
53B
100
AcDbEntity
  8
レイヤ1
100
AcDbVertex
100
AcDb2dVertex
 10
-200.7249580562
 20
794.1433743229
  0
VERTEX
  5
53C
100
AcDbEntity
  8
レイヤ1
100
AcDbVertex
100
AcDb2dVertex
 10
-201.3985317409
 20
803.5734059095
  0
VERTEX
  5
53D
100
AcDbEntity
  8
レイヤ1
100
AcDbVertex
100
AcDb2dVertex
 10
-193.9892212087
 20
829.8427796148
  0
VERTEX
  5
53E
100
AcDbEntity
  8
レイヤ1
100
AcDbVertex
100
AcDb2dVertex
 10
-208.8078422732
 20
845.3349743641
  0
VERTEX
  5
53F
100
AcDbEntity
  8
レイヤ1
100
AcDbVertex
100
AcDb2dVertex
 10
-216.2171528055
 20
850.3867769997
  0
VERTEX
  5
540
100
AcDbEntity
  8
レイヤ1
100
AcDbVertex
100
AcDb2dVertex
 10
-216.8907264902
 20
854.4282191083
  0
VERTEX
  5
541
100
AcDbEntity
  8
レイヤ1
100
AcDbVertex
100
AcDb2dVertex
 10
-215.5435791207
 20
877.3297243898
  0
VERTEX
  5
542
100
AcDbEntity
  8
レイヤ1
100
AcDbVertex
100
AcDb2dVertex
 10
-204.7664001647
 20
906.9669665189
  0
VERTEX
  5
543
100
AcDbEntity
  8
レイヤ1
100
AcDbVertex
100
AcDb2dVertex
 10
-187.2534843611
 20
938.2881428599
  0
VERTEX
  5
544
100
AcDbEntity
  8
レイヤ1
100
AcDbVertex
100
AcDb2dVertex
 10
-172.771650139
 20
961.1896481415
  0
VERTEX
  5
545
100
AcDbEntity
  8
レイヤ1
100
AcDbVertex
100
AcDb2dVertex
 10
-158.6266027592
 20
994.8683323791
  0
VERTEX
  5
546
100
AcDbEntity
  8
レイヤ1
100
AcDbVertex
100
AcDb2dVertex
 10
-153.2380132811
 20
998.2362008029
  0
VERTEX
  5
547
100
AcDbEntity
  8
レイヤ1
100
AcDbVertex
100
AcDb2dVertex
 10
-138.756179059
 20
1019.790558715
  0
VERTEX
  5
548
100
AcDbEntity
  8
レイヤ1
100
AcDbVertex
100
AcDb2dVertex
 10
-121.2432632554
 20
1034.609179779
  0
VERTEX
  5
549
100
AcDbEntity
  8
レイヤ1
100
AcDbVertex
100
AcDb2dVertex
 10
-108.7821500875
 20
1041.344916627
  0
VERTEX
  5
54A
100
AcDbEntity
  8
レイヤ1
100
AcDbVertex
100
AcDb2dVertex
 10
-98.93573489547
 20
1043.970627345
  0
SEQEND
  5
54B
100
AcDbEntity
  8
レイヤ1
  0
POLYLINE
  5
54C
100
AcDbEntity
  8
レイヤ1
  6
CONTINUOUS
 62
     0
100
AcDb2dPolyline
 66
     1
 10
0
 20
0
 70
     0
  0
VERTEX
  5
54D
100
AcDbEntity
  8
レイヤ1
100
AcDbVertex
100
AcDb2dVertex
 10
-29.85330953785
 20
1088.408782543
  0
VERTEX
  5
54E
100
AcDbEntity
  8
レイヤ1
100
AcDbVertex
100
AcDb2dVertex
 10
-34.17452719866
 20
1091.699379201
  0
VERTEX
  5
54F
100
AcDbEntity
  8
レイヤ1
100
AcDbVertex
100
AcDb2dVertex
 10
-36.06001835445
 20
1090.756633624
  0
VERTEX
  5
550
100
AcDbEntity
  8
レイヤ1
100
AcDbVertex
100
AcDb2dVertex
 10
-37.23845032682
 20
1088.635456073
  0
VERTEX
  5
551
100
AcDbEntity
  8
レイヤ1
100
AcDbVertex
100
AcDb2dVertex
 10
-38.41688229919
 20
1070.251917304
  0
VERTEX
  5
552
100
AcDbEntity
  8
レイヤ1
100
AcDbVertex
100
AcDb2dVertex
 10
-41.71649182182
 20
1069.780544515
  0
VERTEX
  5
553
100
AcDbEntity
  8
レイヤ1
100
AcDbVertex
100
AcDb2dVertex
 10
-46.43021971129
 20
1067.423680571
  0
VERTEX
  5
554
100
AcDbEntity
  8
レイヤ1
100
AcDbVertex
100
AcDb2dVertex
 10
-54.20787072892
 20
1055.167988058
  0
VERTEX
  5
555
100
AcDbEntity
  8
レイヤ1
100
AcDbVertex
100
AcDb2dVertex
 10
-69.05611358075
 20
1055.167988058
  0
VERTEX
  5
556
100
AcDbEntity
  8
レイヤ1
100
AcDbVertex
100
AcDb2dVertex
 10
-72.35572310338
 20
1053.989556086
  0
VERTEX
  5
557
100
AcDbEntity
  8
レイヤ1
100
AcDbVertex
100
AcDb2dVertex
 10
-81.31180609337
 20
1047.154650646
  0
VERTEX
  5
558
100
AcDbEntity
  8
レイヤ1
100
AcDbVertex
100
AcDb2dVertex
 10
-89.16211534159
 20
1045.538410507
  0
SEQEND
  5
559
100
AcDbEntity
  8
レイヤ1
  0
POLYLINE
  5
55A
100
AcDbEntity
  8
レイヤ1
  6
CONTINUOUS
 62
     0
100
AcDb2dPolyline
 66
     1
 10
0
 20
0
 70
     0
  0
VERTEX
  5
55B
100
AcDbEntity
  8
レイヤ1
100
AcDbVertex
100
AcDb2dVertex
 10
-37.827666313
 20
1079.443686689
  0
VERTEX
  5
55C
100
AcDbEntity
  8
レイヤ1
100
AcDbVertex
100
AcDb2dVertex
 10
-44.78041494997
 20
1082.743296211
  0
VERTEX
  5
55D
100
AcDbEntity
  8
レイヤ1
100
AcDbVertex
100
AcDb2dVertex
 10
-54.67924351786
 20
1084.628787367
  0
VERTEX
  5
55E
100
AcDbEntity
  8
レイヤ1
100
AcDbVertex
100
AcDb2dVertex
 10
-57.0361074626
 20
1083.921728184
  0
VERTEX
  5
55F
100
AcDbEntity
  8
レイヤ1
100
AcDbVertex
100
AcDb2dVertex
 10
-64.10669929681
 20
1076.615449955
  0
VERTEX
  5
560
100
AcDbEntity
  8
レイヤ1
100
AcDbVertex
100
AcDb2dVertex
 10
-69.76317276417
 20
1074.494272405
  0
VERTEX
  5
561
100
AcDbEntity
  8
レイヤ1
100
AcDbVertex
100
AcDb2dVertex
 10
-73.0627822868
 20
1067.659366965
  0
VERTEX
  5
562
100
AcDbEntity
  8
レイヤ1
100
AcDbVertex
100
AcDb2dVertex
 10
-80.13337412101
 20
1064.595443837
  0
VERTEX
  5
563
100
AcDbEntity
  8
レイヤ1
100
AcDbVertex
100
AcDb2dVertex
 10
-84.84710201048
 20
1056.582106425
  0
VERTEX
  5
564
100
AcDbEntity
  8
レイヤ1
100
AcDbVertex
100
AcDb2dVertex
 10
-91.87530304509
 20
1052.314984368
  0
SEQEND
  5
565
100
AcDbEntity
  8
レイヤ1
  0
POLYLINE
  5
566
100
AcDbEntity
  8
レイヤ1
  6
CONTINUOUS
 62
     0
100
AcDb2dPolyline
 66
     1
 10
0
 20
0
 70
     0
  0
VERTEX
  5
567
100
AcDbEntity
  8
レイヤ1
100
AcDbVertex
100
AcDb2dVertex
 10
-46.18766297374
 20
938.2035769251
  0
VERTEX
  5
568
100
AcDbEntity
  8
レイヤ1
100
AcDbVertex
100
AcDb2dVertex
 10
-22.22793159682
 20
949.065321816
  0
VERTEX
  5
569
100
AcDbEntity
  8
レイヤ1
100
AcDbVertex
100
AcDb2dVertex
 10
-18.18648948831
 20
949.7388955007
  0
VERTEX
  5
56A
100
AcDbEntity
  8
レイヤ1
100
AcDbVertex
100
AcDb2dVertex
 10
21.2175710697
 20
951.4228297126
  0
VERTEX
  5
56B
100
AcDbEntity
  8
レイヤ1
100
AcDbVertex
100
AcDb2dVertex
 10
45.1294368784
 20
947.0446007617
  0
VERTEX
  5
56C
100
AcDbEntity
  8
レイヤ1
100
AcDbVertex
100
AcDb2dVertex
 10
83.52313690928
 20
934.5834875938
  0
VERTEX
  5
56D
100
AcDbEntity
  8
レイヤ1
100
AcDbVertex
100
AcDb2dVertex
 10
112.1500185113
 20
924.4798823225
  0
VERTEX
  5
56E
100
AcDbEntity
  8
レイヤ1
100
AcDbVertex
100
AcDb2dVertex
 10
124.6451784365
 20
917.2730119687
  0
SEQEND
  5
56F
100
AcDbEntity
  8
レイヤ1
  0
POLYLINE
  5
570
100
AcDbEntity
  8
レイヤ1
  6
CONTINUOUS
 62
     0
100
AcDb2dPolyline
 66
     1
 10
0
 20
0
 70
     0
  0
VERTEX
  5
571
100
AcDbEntity
  8
レイヤ1
100
AcDbVertex
100
AcDb2dVertex
 10
-79.66127126665
 20
834.0208535536
  0
VERTEX
  5
572
100
AcDbEntity
  8
レイヤ1
100
AcDbVertex
100
AcDb2dVertex
 10
-69.04130268711
 20
832.2002875114
  0
VERTEX
  5
573
100
AcDbEntity
  8
レイヤ1
100
AcDbVertex
100
AcDb2dVertex
 10
-45.80301056315
 20
833.2106480386
  0
VERTEX
  5
574
100
AcDbEntity
  8
レイヤ1
100
AcDbVertex
100
AcDb2dVertex
 10
-40.24602766395
 20
834.5577954081
  0
SEQEND
  5
575
100
AcDbEntity
  8
レイヤ1
  0
POLYLINE
  5
576
100
AcDbEntity
  8
レイヤ1
  6
CONTINUOUS
 62
     0
100
AcDb2dPolyline
 66
     1
 10
0
 20
0
 70
     0
  0
VERTEX
  5
577
100
AcDbEntity
  8
レイヤ1
100
AcDbVertex
100
AcDb2dVertex
 10
1.683934211881
 20
838.5992375166
  0
VERTEX
  5
578
100
AcDbEntity
  8
レイヤ1
100
AcDbVertex
100
AcDb2dVertex
 10
13.13468685267
 20
837.5888769894
  0
VERTEX
  5
579
100
AcDbEntity
  8
レイヤ1
100
AcDbVertex
100
AcDb2dVertex
 10
20.88078422732
 20
832.8738611962
  0
VERTEX
  5
57A
100
AcDbEntity
  8
レイヤ1
100
AcDbVertex
100
AcDb2dVertex
 10
23.91186580871
 20
832.2002875114
  0
VERTEX
  5
57B
100
AcDbEntity
  8
レイヤ1
100
AcDbVertex
100
AcDb2dVertex
 10
29.6372421291
 20
834.8945822504
  0
VERTEX
  5
57C
100
AcDbEntity
  8
レイヤ1
100
AcDbVertex
100
AcDb2dVertex
 10
83.18635006691
 20
835.5681559352
  0
VERTEX
  5
57D
100
AcDbEntity
  8
レイヤ1
100
AcDbVertex
100
AcDb2dVertex
 10
98.89800837333
 20
834.9783188697
  0
SEQEND
  5
57E
100
AcDbEntity
  8
レイヤ1
  0
POLYLINE
  5
57F
100
AcDbEntity
  8
レイヤ1
  6
CONTINUOUS
 62
     0
100
AcDb2dPolyline
 66
     1
 10
0
 20
0
 70
     0
  0
VERTEX
  5
580
100
AcDbEntity
  8
レイヤ1
100
AcDbVertex
100
AcDb2dVertex
 10
19.19685001544
 20
853.4178585811
  0
VERTEX
  5
581
100
AcDbEntity
  8
レイヤ1
100
AcDbVertex
100
AcDb2dVertex
 10
23.09726665841
 20
852.2420024163
  0
VERTEX
  5
582
100
AcDbEntity
  8
レイヤ1
100
AcDbVertex
100
AcDb2dVertex
 10
27.57530815341
 20
847.0569017379
  0
VERTEX
  5
583
100
AcDbEntity
  8
レイヤ1
100
AcDbVertex
100
AcDb2dVertex
 10
69.76317276417
 20
846.8212153435
  0
VERTEX
  5
584
100
AcDbEntity
  8
レイヤ1
100
AcDbVertex
100
AcDb2dVertex
 10
102.523581596
 20
847.0569017379
  0
VERTEX
  5
585
100
AcDbEntity
  8
レイヤ1
100
AcDbVertex
100
AcDb2dVertex
 10
110.6887684957
 20
844.8440569313
  0
SEQEND
  5
586
100
AcDbEntity
  8
レイヤ1
  0
POLYLINE
  5
587
100
AcDbEntity
  8
レイヤ1
  6
CONTINUOUS
 62
     0
100
AcDb2dPolyline
 66
     1
 10
0
 20
0
 70
     0
  0
VERTEX
  5
588
100
AcDbEntity
  8
レイヤ1
100
AcDbVertex
100
AcDb2dVertex
 10
86.14337718008
 20
846.9390585407
  0
VERTEX
  5
589
100
AcDbEntity
  8
レイヤ1
100
AcDbVertex
100
AcDb2dVertex
 10
45.72316052787
 20
900.322026889
  0
VERTEX
  5
58A
100
AcDbEntity
  8
レイヤ1
100
AcDbVertex
100
AcDb2dVertex
 10
34.17452719866
 20
898.6722221276
  0
VERTEX
  5
58B
100
AcDbEntity
  8
レイヤ1
100
AcDbVertex
100
AcDb2dVertex
 10
31.81766325393
 20
892.7800622658
  0
SEQEND
  5
58C
100
AcDbEntity
  8
レイヤ1
  0
LINE
  5
58D
100
AcDbEntity
  8
レイヤ1
  6
CONTINUOUS
 62
     0
100
AcDbLine
 10
45.72316052787
 20
900.322026889
 11
41.95217821629
 21
892.7800622658
  0
POLYLINE
  5
58E
100
AcDbEntity
  8
レイヤ1
  6
CONTINUOUS
 62
     0
100
AcDb2dPolyline
 66
     1
 10
0
 20
0
 70
     0
  0
VERTEX
  5
58F
100
AcDbEntity
  8
レイヤ1
100
AcDbVertex
100
AcDb2dVertex
 10
41.95217821629
 20
892.7800622658
  0
VERTEX
  5
590
100
AcDbEntity
  8
レイヤ1
100
AcDbVertex
100
AcDb2dVertex
 10
31.81766325393
 20
892.7800622658
  0
VERTEX
  5
591
100
AcDbEntity
  8
レイヤ1
100
AcDbVertex
100
AcDb2dVertex
 10
65.01627652395
 20
846.8477343169
  0
SEQEND
  5
592
100
AcDbEntity
  8
レイヤ1
  0
LINE
  5
593
100
AcDbEntity
  8
レイヤ1
  6
CONTINUOUS
 62
     0
100
AcDbLine
 10
41.95217821629
 20
892.7800622658
 11
75.73931539606
 21
846.8642091753
  0
POLYLINE
  5
594
100
AcDbEntity
  8
レイヤ1
  6
CONTINUOUS
 62
     0
100
AcDb2dPolyline
 66
     1
 10
0
 20
0
 70
     0
  0
VERTEX
  5
595
100
AcDbEntity
  8
レイヤ1
100
AcDbVertex
100
AcDb2dVertex
 10
68.44376630988
 20
870.3149294567
  0
VERTEX
  5
596
100
AcDbEntity
  8
レイヤ1
100
AcDbVertex
100
AcDb2dVertex
 10
88.23815270255
 20
860.1535954287
  0
VERTEX
  5
597
100
AcDbEntity
  8
レイヤ1
100
AcDbVertex
100
AcDb2dVertex
 10
88.9117263873
 20
857.4593006896
  0
VERTEX
  5
598
100
AcDbEntity
  8
レイヤ1
100
AcDbVertex
100
AcDb2dVertex
 10
84.12353388695
 20
849.6066649891
  0
SEQEND
  5
599
100
AcDbEntity
  8
レイヤ1
  0
POLYLINE
  5
59A
100
AcDbEntity
  8
レイヤ1
  6
CONTINUOUS
 62
     0
100
AcDb2dPolyline
 66
     1
 10
0
 20
0
 70
     0
  0
VERTEX
  5
59B
100
AcDbEntity
  8
レイヤ1
100
AcDbVertex
100
AcDb2dVertex
 10
-10.44039211366
 20
889.4540507154
  0
VERTEX
  5
59C
100
AcDbEntity
  8
レイヤ1
100
AcDbVertex
100
AcDb2dVertex
 10
-11.06887684957
 20
900.9103244519
  0
VERTEX
  5
59D
100
AcDbEntity
  8
レイヤ1
100
AcDbVertex
100
AcDb2dVertex
 10
-8.662599273576
 20
905.2416240887
  0
VERTEX
  5
59E
100
AcDbEntity
  8
レイヤ1
100
AcDbVertex
100
AcDb2dVertex
 10
-2.406277575993
 20
906.6853906343
  0
VERTEX
  5
59F
100
AcDbEntity
  8
レイヤ1
100
AcDbVertex
100
AcDb2dVertex
 10
36.02734017021
 20
886.9557147515
  0
SEQEND
  5
5A0
100
AcDbEntity
  8
レイヤ1
  0
POLYLINE
  5
5A1
100
AcDbEntity
  8
レイヤ1
  6
CONTINUOUS
 62
     0
100
AcDb2dPolyline
 66
     1
 10
0
 20
0
 70
     0
  0
VERTEX
  5
5A2
100
AcDbEntity
  8
レイヤ1
100
AcDbVertex
100
AcDb2dVertex
 10
214.6399597786
 20
885.0288924504
  0
VERTEX
  5
5A3
100
AcDbEntity
  8
レイヤ1
100
AcDbVertex
100
AcDb2dVertex
 10
208.8648935962
 20
878.2913152376
  0
VERTEX
  5
5A4
100
AcDbEntity
  8
レイヤ1
100
AcDbVertex
100
AcDb2dVertex
 10
168.9206858347
 20
870.1099714792
  0
VERTEX
  5
5A5
100
AcDbEntity
  8
レイヤ1
100
AcDbVertex
100
AcDb2dVertex
 10
129.4577335884
 20
853.2660284473
  0
SEQEND
  5
5A6
100
AcDbEntity
  8
レイヤ1
  0
POLYLINE
  5
5A7
100
AcDbEntity
  8
レイヤ1
  6
CONTINUOUS
 62
     0
100
AcDb2dPolyline
 66
     1
 10
0
 20
0
 70
     0
  0
VERTEX
  5
5A8
100
AcDbEntity
  8
レイヤ1
100
AcDbVertex
100
AcDb2dVertex
 10
180.5177475136
 20
784.376555894
  0
VERTEX
  5
5A9
100
AcDbEntity
  8
レイヤ1
100
AcDbVertex
100
AcDb2dVertex
 10
164.589386198
 20
773.8588684395
  0
VERTEX
  5
5AA
100
AcDbEntity
  8
レイヤ1
100
AcDbVertex
100
AcDb2dVertex
 10
153.5205093484
 20
769.5275688027
  0
VERTEX
  5
5AB
100
AcDbEntity
  8
レイヤ1
100
AcDbVertex
100
AcDb2dVertex
 10
137.1578218316
 20
768.5650577723
  0
VERTEX
  5
5AC
100
AcDbEntity
  8
レイヤ1
100
AcDbVertex
100
AcDb2dVertex
 10
125.1264339517
 20
769.0463132875
  0
SEQEND
  5
5AD
100
AcDbEntity
  8
レイヤ1
  0
POLYLINE
  5
5AE
100
AcDbEntity
  8
レイヤ1
  6
CONTINUOUS
 62
     0
100
AcDb2dPolyline
 66
     1
 10
0
 20
0
 70
     0
  0
VERTEX
  5
5AF
100
AcDbEntity
  8
レイヤ1
100
AcDbVertex
100
AcDb2dVertex
 10
139.0929659013
 20
717.3559742612
  0
VERTEX
  5
5B0
100
AcDbEntity
  8
レイヤ1
100
AcDbVertex
100
AcDb2dVertex
 10
160.6473238134
 20
719.039908473
  0
VERTEX
  5
5B1
100
AcDbEntity
  8
レイヤ1
100
AcDbVertex
100
AcDb2dVertex
 10
172.0980764542
 20
723.0813505816
  0
VERTEX
  5
5B2
100
AcDbEntity
  8
レイヤ1
100
AcDbVertex
100
AcDb2dVertex
 10
176.8130922475
 20
727.1227926901
  0
SEQEND
  5
5B3
100
AcDbEntity
  8
レイヤ1
  0
POLYLINE
  5
5B4
100
AcDbEntity
  8
レイヤ1
  6
CONTINUOUS
 62
     0
100
AcDb2dPolyline
 66
     1
 10
0
 20
0
 70
     0
  0
VERTEX
  5
5B5
100
AcDbEntity
  8
レイヤ1
100
AcDbVertex
100
AcDb2dVertex
 10
-130.516394392
 20
1124.327662192
  0
VERTEX
  5
5B6
100
AcDbEntity
  8
レイヤ1
100
AcDbVertex
100
AcDb2dVertex
 10
-134.0411632657
 20
1123.857693009
  0
VERTEX
  5
5B7
100
AcDbEntity
  8
レイヤ1
100
AcDbVertex
100
AcDb2dVertex
 10
-137.7458185318
 20
1125.541627221
  0
VERTEX
  5
5B8
100
AcDbEntity
  8
レイヤ1
100
AcDbVertex
100
AcDb2dVertex
 10
-139.0929659013
 20
1129.58306933
  0
VERTEX
  5
5B9
100
AcDbEntity
  8
レイヤ1
100
AcDbVertex
100
AcDb2dVertex
 10
-139.0929659013
 20
1133.287724596
  0
VERTEX
  5
5BA
100
AcDbEntity
  8
レイヤ1
100
AcDbVertex
100
AcDb2dVertex
 10
-144.144768537
 20
1144.401690394
  0
VERTEX
  5
5BB
100
AcDbEntity
  8
レイヤ1
100
AcDbVertex
100
AcDb2dVertex
 10
-147.5126369607
 20
1145.748837764
  0
VERTEX
  5
5BC
100
AcDbEntity
  8
レイヤ1
100
AcDbVertex
100
AcDb2dVertex
 10
-148.5229974879
 20
1148.779919345
  0
VERTEX
  5
5BD
100
AcDbEntity
  8
レイヤ1
100
AcDbVertex
100
AcDb2dVertex
 10
-148.5229974879
 20
1155.515656193
  0
VERTEX
  5
5BE
100
AcDbEntity
  8
レイヤ1
100
AcDbVertex
100
AcDb2dVertex
 10
-145.8287027489
 20
1162.588179882
  0
VERTEX
  5
5BF
100
AcDbEntity
  8
レイヤ1
100
AcDbVertex
100
AcDb2dVertex
 10
-136.3986711623
 20
1165.956048306
  0
VERTEX
  5
5C0
100
AcDbEntity
  8
レイヤ1
100
AcDbVertex
100
AcDb2dVertex
 10
-125.9582790487
 20
1163.261753567
  0
VERTEX
  5
5C1
100
AcDbEntity
  8
レイヤ1
100
AcDbVertex
100
AcDb2dVertex
 10
-123.2639843097
 20
1159.557098301
  0
VERTEX
  5
5C2
100
AcDbEntity
  8
レイヤ1
100
AcDbVertex
100
AcDb2dVertex
 10
-122.9271974673
 20
1154.505295665
  0
VERTEX
  5
5C3
100
AcDbEntity
  8
レイヤ1
100
AcDbVertex
100
AcDb2dVertex
 10
-123.600771152
 20
1152.147787769
  0
VERTEX
  5
5C4
100
AcDbEntity
  8
レイヤ1
100
AcDbVertex
100
AcDb2dVertex
 10
-126.9686395758
 20
1149.790279872
  0
VERTEX
  5
5C5
100
AcDbEntity
  8
レイヤ1
100
AcDbVertex
100
AcDb2dVertex
 10
-123.600771152
 20
1139.686674601
  0
VERTEX
  5
5C6
100
AcDbEntity
  8
レイヤ1
100
AcDbVertex
100
AcDb2dVertex
 10
-121.2432632554
 20
1138.002740389
  0
VERTEX
  5
5C7
100
AcDbEntity
  8
レイヤ1
100
AcDbVertex
100
AcDb2dVertex
 10
-120.2329027283
 20
1132.950937753
  0
VERTEX
  5
5C8
100
AcDbEntity
  8
レイヤ1
100
AcDbVertex
100
AcDb2dVertex
 10
-120.5696895707
 20
1130.930216699
  0
VERTEX
  5
5C9
100
AcDbEntity
  8
レイヤ1
100
AcDbVertex
100
AcDb2dVertex
 10
-122.4233622243
 20
1128.613125882
  0
SEQEND
  5
5CA
100
AcDbEntity
  8
レイヤ1
  0
POLYLINE
  5
5CB
100
AcDbEntity
  8
レイヤ1
  6
CONTINUOUS
 62
     0
100
AcDb2dPolyline
 66
     1
 10
0
 20
0
 70
     0
  0
VERTEX
  5
5CC
100
AcDbEntity
  8
レイヤ1
100
AcDbVertex
100
AcDb2dVertex
 10
-126.3279074378
 20
1138.365285307
  0
VERTEX
  5
5CD
100
AcDbEntity
  8
レイヤ1
100
AcDbVertex
100
AcDb2dVertex
 10
-128.6496212128
 20
1140.528372675
  0
VERTEX
  5
5CE
100
AcDbEntity
  8
レイヤ1
100
AcDbVertex
100
AcDb2dVertex
 10
-131.6184586254
 20
1140.693308087
  0
VERTEX
  5
5CF
100
AcDbEntity
  8
レイヤ1
100
AcDbVertex
100
AcDb2dVertex
 10
-133.762618979
 20
1139.373824793
  0
VERTEX
  5
5D0
100
AcDbEntity
  8
レイヤ1
100
AcDbVertex
100
AcDb2dVertex
 10
-134.587296038
 20
1138.714083145
  0
VERTEX
  5
5D1
100
AcDbEntity
  8
レイヤ1
100
AcDbVertex
100
AcDb2dVertex
 10
-135.2470376853
 20
1135.745245733
  0
VERTEX
  5
5D2
100
AcDbEntity
  8
レイヤ1
100
AcDbVertex
100
AcDb2dVertex
 10
-134.5835116691
 20
1132.994640261
  0
SEQEND
  5
5D3
100
AcDbEntity
  8
レイヤ1
  0
LINE
  5
5D4
100
AcDbEntity
  8
レイヤ1
  6
CONTINUOUS
 62
     0
100
AcDbLine
 10
-46.81337109028
 20
911.3451954698
 11
-135.159090323
 21
1136.141008863
  0
POLYLINE
  5
5D5
100
AcDbEntity
  8
レイヤ1
  6
CONTINUOUS
 62
     0
100
AcDb2dPolyline
 66
     1
 10
0
 20
0
 70
     0
  0
VERTEX
  5
5D6
100
AcDbEntity
  8
レイヤ1
100
AcDbVertex
100
AcDb2dVertex
 10
-143.1700287174
 20
1142.257262791
  0
VERTEX
  5
5D7
100
AcDbEntity
  8
レイヤ1
100
AcDbVertex
100
AcDb2dVertex
 10
-147.0683101515
 20
1140.957835646
  0
VERTEX
  5
5D8
100
AcDbEntity
  8
レイヤ1
100
AcDbVertex
100
AcDb2dVertex
 10
-151.5463516465
 20
1140.957835646
  0
VERTEX
  5
5D9
100
AcDbEntity
  8
レイヤ1
100
AcDbVertex
100
AcDb2dVertex
 10
-160.5024346365
 20
1143.78607238
  0
VERTEX
  5
5DA
100
AcDbEntity
  8
レイヤ1
100
AcDbVertex
100
AcDb2dVertex
 10
-163.3306713702
 20
1145.435877141
  0
VERTEX
  5
5DB
100
AcDbEntity
  8
レイヤ1
100
AcDbVertex
100
AcDb2dVertex
 10
-168.2800856541
 20
1150.149605031
  0
VERTEX
  5
5DC
100
AcDbEntity
  8
レイヤ1
100
AcDbVertex
100
AcDb2dVertex
 10
-169.4585176265
 20
1159.105688021
  0
VERTEX
  5
5DD
100
AcDbEntity
  8
レイヤ1
100
AcDbVertex
100
AcDb2dVertex
 10
-166.8659672873
 20
1167.354711827
  0
VERTEX
  5
5DE
100
AcDbEntity
  8
レイヤ1
100
AcDbVertex
100
AcDb2dVertex
 10
-157.2028251139
 20
1177.960599579
  0
VERTEX
  5
5DF
100
AcDbEntity
  8
レイヤ1
100
AcDbVertex
100
AcDb2dVertex
 10
-145.6541917847
 20
1183.617073046
  0
VERTEX
  5
5E0
100
AcDbEntity
  8
レイヤ1
100
AcDbVertex
100
AcDb2dVertex
 10
-132.4557536941
 20
1185.266877807
  0
VERTEX
  5
5E1
100
AcDbEntity
  8
レイヤ1
100
AcDbVertex
100
AcDb2dVertex
 10
-123.0282979152
 20
1182.674327468
  0
VERTEX
  5
5E2
100
AcDbEntity
  8
レイヤ1
100
AcDbVertex
100
AcDb2dVertex
 10
-115.957706081
 20
1177.960599579
  0
VERTEX
  5
5E3
100
AcDbEntity
  8
レイヤ1
100
AcDbVertex
100
AcDb2dVertex
 10
-112.6580965584
 20
1171.597066928
  0
VERTEX
  5
5E4
100
AcDbEntity
  8
レイヤ1
100
AcDbVertex
100
AcDb2dVertex
 10
-112.6580965584
 20
1163.112356727
  0
VERTEX
  5
5E5
100
AcDbEntity
  8
レイヤ1
100
AcDbVertex
100
AcDb2dVertex
 10
-115.486333292
 20
1156.748824076
  0
VERTEX
  5
5E6
100
AcDbEntity
  8
レイヤ1
100
AcDbVertex
100
AcDb2dVertex
 10
-118.3145700257
 20
1152.035096187
  0
VERTEX
  5
5E7
100
AcDbEntity
  8
レイヤ1
100
AcDbVertex
100
AcDb2dVertex
 10
-121.8498659428
 20
1150.385291425
  0
VERTEX
  5
5E8
100
AcDbEntity
  8
レイヤ1
100
AcDbVertex
100
AcDb2dVertex
 10
-126.9686395758
 20
1149.790279872
  0
SEQEND
  5
5E9
100
AcDbEntity
  8
レイヤ1
  0
POLYLINE
  5
5EA
100
AcDbEntity
  8
レイヤ1
  6
CONTINUOUS
 62
     0
100
AcDb2dPolyline
 66
     1
 10
0
 20
0
 70
     0
  0
VERTEX
  5
5EB
100
AcDbEntity
  8
レイヤ1
100
AcDbVertex
100
AcDb2dVertex
 10
-141.6188672192
 20
1138.844707495
  0
VERTEX
  5
5EC
100
AcDbEntity
  8
レイヤ1
100
AcDbVertex
100
AcDb2dVertex
 10
-154.5851606506
 20
1132.277364069
  0
VERTEX
  5
5ED
100
AcDbEntity
  8
レイヤ1
100
AcDbVertex
100
AcDb2dVertex
 10
-175.8027317203
 20
1128.909495645
  0
VERTEX
  5
5EE
100
AcDbEntity
  8
レイヤ1
100
AcDbVertex
100
AcDb2dVertex
 10
-194.6627948934
 20
1129.246282487
  0
VERTEX
  5
5EF
100
AcDbEntity
  8
レイヤ1
100
AcDbVertex
100
AcDb2dVertex
 10
-212.8492843817
 20
1131.940577226
  0
VERTEX
  5
5F0
100
AcDbEntity
  8
レイヤ1
100
AcDbVertex
100
AcDb2dVertex
 10
-227.3311186039
 20
1138.002740389
  0
VERTEX
  5
5F1
100
AcDbEntity
  8
レイヤ1
100
AcDbVertex
100
AcDb2dVertex
 10
-241.8129528261
 20
1145.748837764
  0
VERTEX
  5
5F2
100
AcDbEntity
  8
レイヤ1
100
AcDbVertex
100
AcDb2dVertex
 10
-253.2637054669
 20
1158.209950932
  0
VERTEX
  5
5F3
100
AcDbEntity
  8
レイヤ1
100
AcDbVertex
100
AcDb2dVertex
 10
-260.3362291568
 20
1174.712506208
  0
VERTEX
  5
5F4
100
AcDbEntity
  8
レイヤ1
100
AcDbVertex
100
AcDb2dVertex
 10
-263.7040975805
 20
1191.551848327
  0
VERTEX
  5
5F5
100
AcDbEntity
  8
レイヤ1
100
AcDbVertex
100
AcDb2dVertex
 10
-262.0201633686
 20
1205.023322022
  0
VERTEX
  5
5F6
100
AcDbEntity
  8
レイヤ1
100
AcDbVertex
100
AcDb2dVertex
 10
-257.3051475754
 20
1221.862664141
  0
VERTEX
  5
5F7
100
AcDbEntity
  8
レイヤ1
100
AcDbVertex
100
AcDb2dVertex
 10
-248.885476516
 20
1237.018072048
  0
VERTEX
  5
5F8
100
AcDbEntity
  8
レイヤ1
100
AcDbVertex
100
AcDb2dVertex
 10
-234.7404291362
 20
1253.520627324
  0
VERTEX
  5
5F9
100
AcDbEntity
  8
レイヤ1
100
AcDbVertex
100
AcDb2dVertex
 10
-218.5746607021
 20
1265.308166807
  0
VERTEX
  5
5FA
100
AcDbEntity
  8
レイヤ1
100
AcDbVertex
100
AcDb2dVertex
 10
-201.3985317409
 20
1276.422132606
  0
VERTEX
  5
5FB
100
AcDbEntity
  8
レイヤ1
100
AcDbVertex
100
AcDb2dVertex
 10
-181.5281080407
 20
1284.505016823
  0
VERTEX
  5
5FC
100
AcDbEntity
  8
レイヤ1
100
AcDbVertex
100
AcDb2dVertex
 10
-161.6576843405
 20
1290.230393143
  0
VERTEX
  5
5FD
100
AcDbEntity
  8
レイヤ1
100
AcDbVertex
100
AcDb2dVertex
 10
-138.0826053742
 20
1291.24075367
  0
VERTEX
  5
5FE
100
AcDbEntity
  8
レイヤ1
100
AcDbVertex
100
AcDb2dVertex
 10
-119.2225422012
 20
1289.893606301
  0
VERTEX
  5
5FF
100
AcDbEntity
  8
レイヤ1
100
AcDbVertex
100
AcDb2dVertex
 10
-100.6992658705
 20
1285.852164192
  0
VERTEX
  5
600
100
AcDbEntity
  8
レイヤ1
100
AcDbVertex
100
AcDb2dVertex
 10
-84.53349743641
 20
1278.44285366
  0
VERTEX
  5
601
100
AcDbEntity
  8
レイヤ1
100
AcDbVertex
100
AcDb2dVertex
 10
-74.17144472265
 20
1269.98960013
  0
SEQEND
  5
602
100
AcDbEntity
  8
レイヤ1
  0
LINE
  5
603
100
AcDbEntity
  8
レイヤ1
  6
CONTINUOUS
 62
     0
100
AcDbLine
 10
-154.5851606506
 20
1132.277364069
 11
-147.0683101515
 21
1140.957835646
  0
LINE
  5
604
100
AcDbEntity
  8
レイヤ1
  6
CONTINUOUS
 62
     0
100
AcDbLine
 10
-175.8027317203
 20
1128.909495645
 11
-151.6442323349
 21
1140.988745338
  0
LINE
  5
605
100
AcDbEntity
  8
レイヤ1
  6
CONTINUOUS
 62
     0
100
AcDbLine
 10
-257.3051475754
 20
1221.862664141
 11
-165.9988016665
 21
1168.306478972
  0
LINE
  5
606
100
AcDbEntity
  8
レイヤ1
  6
CONTINUOUS
 62
     0
100
AcDbLine
 10
-262.0201633686
 20
1205.023322022
 11
-167.9189508888
 21
1164.004309459
  0
LINE
  5
607
100
AcDbEntity
  8
レイヤ1
  6
CONTINUOUS
 62
     0
100
AcDbLine
 10
-263.7040975805
 20
1191.551848327
 11
-169.3612858073
 21
1159.415061991
  0
LINE
  5
608
100
AcDbEntity
  8
レイヤ1
  6
CONTINUOUS
 62
     0
100
AcDbLine
 10
-260.3362291568
 20
1174.712506208
 11
-168.8332018671
 21
1154.793479859
  0
LINE
  5
609
100
AcDbEntity
  8
レイヤ1
  6
CONTINUOUS
 62
     0
100
AcDbLine
 10
-253.2637054669
 20
1158.209950932
 11
-168.3785250419
 21
1150.897744378
  0
LINE
  5
60A
100
AcDbEntity
  8
レイヤ1
  6
CONTINUOUS
 62
     0
100
AcDbLine
 10
-241.8129528261
 20
1145.748837764
 11
-164.981804287
 21
1147.008384681
  0
LINE
  5
60B
100
AcDbEntity
  8
レイヤ1
  6
CONTINUOUS
 62
     0
100
AcDbLine
 10
-227.3311186039
 20
1138.002740389
 11
-161.0035940857
 21
1144.078415392
  0
LINE
  5
60C
100
AcDbEntity
  8
レイヤ1
  6
CONTINUOUS
 62
     0
100
AcDbLine
 10
-212.8492843817
 20
1131.940577226
 11
-158.1673633715
 21
1143.048681454
  0
LINE
  5
60D
100
AcDbEntity
  8
レイヤ1
  6
CONTINUOUS
 62
     0
100
AcDbLine
 10
-194.6627948934
 20
1129.246282487
 11
-154.8464240486
 21
1141.999963773
  0
LINE
  5
60E
100
AcDbEntity
  8
レイヤ1
  6
CONTINUOUS
 62
     0
100
AcDbLine
 10
-248.885476516
 20
1237.018072048
 11
-163.0763072141
 21
1171.514094835
  0
LINE
  5
60F
100
AcDbEntity
  8
レイヤ1
  6
CONTINUOUS
 62
     0
100
AcDbLine
 10
-234.7404291362
 20
1253.520627324
 11
-159.5811611763
 21
1175.35023073
  0
LINE
  5
610
100
AcDbEntity
  8
レイヤ1
  6
CONTINUOUS
 62
     0
100
AcDbLine
 10
-218.5746607021
 20
1265.308166807
 11
-155.4796016442
 21
1178.804627401
  0
LINE
  5
611
100
AcDbEntity
  8
レイヤ1
  6
CONTINUOUS
 62
     0
100
AcDbLine
 10
-201.3985317409
 20
1276.422132606
 11
-150.2381736591
 21
1181.371857434
  0
LINE
  5
612
100
AcDbEntity
  8
レイヤ1
  6
CONTINUOUS
 62
     0
100
AcDbLine
 10
-181.5281080407
 20
1284.505016823
 11
-145.7790315939
 21
1183.57285614
  0
LINE
  5
613
100
AcDbEntity
  8
レイヤ1
  6
CONTINUOUS
 62
     0
100
AcDbLine
 10
-161.6576843405
 20
1290.230393143
 11
-138.9974550862
 21
1184.454297334
  0
LINE
  5
614
100
AcDbEntity
  8
レイヤ1
  6
CONTINUOUS
 62
     0
100
AcDbLine
 10
-138.0826053742
 20
1291.24075367
 11
-134.2631810931
 21
1185.040949383
  0
LINE
  5
615
100
AcDbEntity
  8
レイヤ1
  6
CONTINUOUS
 62
     0
100
AcDbLine
 10
-119.2225422012
 20
1289.893606301
 11
-129.6925683749
 21
1184.507001845
  0
LINE
  5
616
100
AcDbEntity
  8
レイヤ1
  6
CONTINUOUS
 62
     0
100
AcDbLine
 10
-100.6992658705
 20
1285.852164192
 11
-125.7526576989
 21
1183.423526409
  0
LINE
  5
617
100
AcDbEntity
  8
レイヤ1
  6
CONTINUOUS
 62
     0
100
AcDbLine
 10
-84.53349743641
 20
1278.44285366
 11
-121.2466240369
 21
1181.486544883
  0
LINE
  5
618
100
AcDbEntity
  8
レイヤ1
  6
CONTINUOUS
 62
     0
100
AcDbLine
 10
-80.36906051548
 20
1261.393583222
 11
-116.1781050787
 21
1178.107532244
  0
LINE
  5
619
100
AcDbEntity
  8
レイヤ1
  6
CONTINUOUS
 62
     0
100
AcDbLine
 10
-100.3624790281
 20
1153.158148296
 11
-118.3145700257
 21
1152.035096187
  0
LINE
  5
61A
100
AcDbEntity
  8
レイヤ1
  6
CONTINUOUS
 62
     0
100
AcDbLine
 10
-84.53349743641
 20
1165.619261464
 11
-116.0364695435
 21
1155.831930324
  0
LINE
  5
61B
100
AcDbEntity
  8
レイヤ1
  6
CONTINUOUS
 62
     0
100
AcDbLine
 10
-71.73559742612
 20
1178.417161474
 11
-115.0077787811
 21
1157.825571726
  0
LINE
  5
61C
100
AcDbEntity
  8
レイヤ1
  6
CONTINUOUS
 62
     0
100
AcDbLine
 10
-84.37572922153
 20
1222.033955345
 11
-114.2948085768
 21
1174.753582964
  0
LINE
  5
61D
100
AcDbEntity
  8
レイヤ1
  6
CONTINUOUS
 62
     0
100
AcDbLine
 10
-84.84710201048
 20
1207.421398888
 11
-112.6580965584
 21
1171.136922428
  0
LINE
  5
61E
100
AcDbEntity
  8
レイヤ1
  6
CONTINUOUS
 62
     0
100
AcDbLine
 10
-82.84956322453
 20
1197.61401149
 11
-112.6580965584
 21
1168.812976283
  0
LINE
  5
61F
100
AcDbEntity
  8
レイヤ1
  6
CONTINUOUS
 62
     0
100
AcDbLine
 10
-81.16562901265
 20
1192.730602275
 11
-112.6580965584
 21
1166.177047093
  0
LINE
  5
620
100
AcDbEntity
  8
レイヤ1
  6
CONTINUOUS
 62
     0
100
AcDbLine
 10
-75.44025269225
 20
1185.489685164
 11
-113.4417423397
 21
1161.349153719
  0
POLYLINE
  5
621
100
AcDbEntity
  8
レイヤ1
  6
CONTINUOUS
 62
     0
100
AcDb2dPolyline
 66
     1
 10
0
 20
0
 70
     0
  0
VERTEX
  5
622
100
AcDbEntity
  8
レイヤ1
100
AcDbVertex
100
AcDb2dVertex
 10
-125.2847053639
 20
1144.738477236
  0
VERTEX
  5
623
100
AcDbEntity
  8
レイヤ1
100
AcDbVertex
100
AcDb2dVertex
 10
-100.3624790281
 20
1153.158148296
  0
VERTEX
  5
624
100
AcDbEntity
  8
レイヤ1
100
AcDbVertex
100
AcDb2dVertex
 10
-84.53349743641
 20
1165.619261464
  0
VERTEX
  5
625
100
AcDbEntity
  8
レイヤ1
100
AcDbVertex
100
AcDb2dVertex
 10
-71.73559742612
 20
1178.417161474
  0
SEQEND
  5
626
100
AcDbEntity
  8
レイヤ1
  0
POLYLINE
  5
627
100
AcDbEntity
  8
レイヤ1
  6
CONTINUOUS
 62
     0
100
AcDb2dPolyline
 66
     1
 10
0
 20
0
 70
     0
  0
VERTEX
  5
628
100
AcDbEntity
  8
レイヤ1
100
AcDbVertex
100
AcDb2dVertex
 10
-150.2381736591
 20
1181.371857434
  0
VERTEX
  5
629
100
AcDbEntity
  8
レイヤ1
100
AcDbVertex
100
AcDb2dVertex
 10
-169.222831232
 20
1224.155132896
  0
VERTEX
  5
62A
100
AcDbEntity
  8
レイヤ1
100
AcDbVertex
100
AcDb2dVertex
 10
-168.0443992596
 20
1227.219056024
  0
VERTEX
  5
62B
100
AcDbEntity
  8
レイヤ1
100
AcDbVertex
100
AcDb2dVertex
 10
-165.216162526
 20
1228.633174391
  0
VERTEX
  5
62C
100
AcDbEntity
  8
レイヤ1
100
AcDbVertex
100
AcDb2dVertex
 10
-163.0949849757
 20
1228.397487996
  0
VERTEX
  5
62D
100
AcDbEntity
  8
レイヤ1
100
AcDbVertex
100
AcDb2dVertex
 10
-160.0310618475
 20
1227.454742418
  0
VERTEX
  5
62E
100
AcDbEntity
  8
レイヤ1
100
AcDbVertex
100
AcDb2dVertex
 10
-144.1974337479
 20
1183.799167801
  0
SEQEND
  5
62F
100
AcDbEntity
  8
レイヤ1
  0
POLYLINE
  5
630
100
AcDbEntity
  8
レイヤ1
  6
CONTINUOUS
 62
     0
100
AcDb2dPolyline
 66
     1
 10
0
 20
0
 70
     1
  0
VERTEX
  5
631
100
AcDbEntity
  8
レイヤ1
100
AcDbVertex
100
AcDb2dVertex
 10
-162.183108622
 20
1195.438699754
  0
VERTEX
  5
632
100
AcDbEntity
  8
レイヤ1
100
AcDbVertex
100
AcDb2dVertex
 10
-146.3016766204
 20
1202.176276966
  0
VERTEX
  5
633
100
AcDbEntity
  8
レイヤ1
100
AcDbVertex
100
AcDb2dVertex
 10
-134.2702887404
 20
1213.245153816
  0
VERTEX
  5
634
100
AcDbEntity
  8
レイヤ1
100
AcDbVertex
100
AcDb2dVertex
 10
-130.901500134
 20
1220.463986544
  0
VERTEX
  5
635
100
AcDbEntity
  8
レイヤ1
100
AcDbVertex
100
AcDb2dVertex
 10
-129.4577335884
 20
1232.495374424
  0
VERTEX
  5
636
100
AcDbEntity
  8
レイヤ1
100
AcDbVertex
100
AcDb2dVertex
 10
-132.3452666796
 20
1242.601740243
  0
VERTEX
  5
637
100
AcDbEntity
  8
レイヤ1
100
AcDbVertex
100
AcDb2dVertex
 10
-139.5640994076
 20
1248.376806425
  0
VERTEX
  5
638
100
AcDbEntity
  8
レイヤ1
100
AcDbVertex
100
AcDb2dVertex
 10
-147.2641876508
 20
1251.264339517
  0
VERTEX
  5
639
100
AcDbEntity
  8
レイヤ1
100
AcDbVertex
100
AcDb2dVertex
 10
-161.7018531068
 20
1251.745595032
  0
VERTEX
  5
63A
100
AcDbEntity
  8
レイヤ1
100
AcDbVertex
100
AcDb2dVertex
 10
-175.6582630475
 20
1248.376806425
  0
VERTEX
  5
63B
100
AcDbEntity
  8
レイヤ1
100
AcDbVertex
100
AcDb2dVertex
 10
-184.3208623211
 20
1242.601740243
  0
VERTEX
  5
63C
100
AcDbEntity
  8
レイヤ1
100
AcDbVertex
100
AcDb2dVertex
 10
-192.0209505643
 20
1234.901652
  0
VERTEX
  5
63D
100
AcDbEntity
  8
レイヤ1
100
AcDbVertex
100
AcDb2dVertex
 10
-195.3897391707
 20
1229.126585817
  0
VERTEX
  5
63E
100
AcDbEntity
  8
レイヤ1
100
AcDbVertex
100
AcDb2dVertex
 10
-198.2772722619
 20
1217.095197937
  0
VERTEX
  5
63F
100
AcDbEntity
  8
レイヤ1
100
AcDbVertex
100
AcDb2dVertex
 10
-196.3522502011
 20
1206.507576603
  0
VERTEX
  5
640
100
AcDbEntity
  8
レイヤ1
100
AcDbVertex
100
AcDb2dVertex
 10
-190.0959285035
 20
1200.732510421
  0
VERTEX
  5
641
100
AcDbEntity
  8
レイヤ1
100
AcDbVertex
100
AcDb2dVertex
 10
-182.3958402603
 20
1196.882466299
  0
VERTEX
  5
642
100
AcDbEntity
  8
レイヤ1
100
AcDbVertex
100
AcDb2dVertex
 10
-170.8457078955
 20
1194.957444238
  0
SEQEND
  5
643
100
AcDbEntity
  8
レイヤ1
  0
POLYLINE
  5
644
100
AcDbEntity
  8
レイヤ1
  6
CONTINUOUS
 62
     0
100
AcDb2dPolyline
 66
     1
 10
0
 20
0
 70
     0
  0
VERTEX
  5
645
100
AcDbEntity
  8
レイヤ1
100
AcDbVertex
100
AcDb2dVertex
 10
-172.771650139
 20
961.1896481415
  0
VERTEX
  5
646
100
AcDbEntity
  8
レイヤ1
100
AcDbVertex
100
AcDb2dVertex
 10
-191.5396950491
 20
959.142241791
  0
VERTEX
  5
647
100
AcDbEntity
  8
レイヤ1
100
AcDbVertex
100
AcDb2dVertex
 10
-243.5152906905
 20
959.142241791
  0
VERTEX
  5
648
100
AcDbEntity
  8
レイヤ1
100
AcDbVertex
100
AcDb2dVertex
 10
-262.7655112985
 20
963.4735414278
  0
VERTEX
  5
649
100
AcDbEntity
  8
レイヤ1
100
AcDbVertex
100
AcDb2dVertex
 10
-294.0471197864
 20
966.8423300342
  0
VERTEX
  5
64A
100
AcDbEntity
  8
レイヤ1
100
AcDbVertex
100
AcDb2dVertex
 10
-312.3348293639
 20
975.0236737925
  0
VERTEX
  5
64B
100
AcDbEntity
  8
レイヤ1
100
AcDbVertex
100
AcDb2dVertex
 10
-336.3976051239
 20
982.2425065205
  0
VERTEX
  5
64C
100
AcDbEntity
  8
レイヤ1
100
AcDbVertex
100
AcDb2dVertex
 10
-352.7602926406
 20
992.8301278549
  0
VERTEX
  5
64D
100
AcDbEntity
  8
レイヤ1
100
AcDbVertex
100
AcDb2dVertex
 10
-375.8605573702
 20
1004.861515735
  0
VERTEX
  5
64E
100
AcDbEntity
  8
レイヤ1
100
AcDbVertex
100
AcDb2dVertex
 10
-388.8544562805
 20
1020.261692221
  0
VERTEX
  5
64F
100
AcDbEntity
  8
レイヤ1
100
AcDbVertex
100
AcDb2dVertex
 10
-404.7358882821
 20
1035.180613192
  0
VERTEX
  5
650
100
AcDbEntity
  8
レイヤ1
100
AcDbVertex
100
AcDb2dVertex
 10
-412.9172320405
 20
1051.062045194
  0
VERTEX
  5
651
100
AcDbEntity
  8
レイヤ1
100
AcDbVertex
100
AcDb2dVertex
 10
-427.3548974964
 20
1073.199798893
  0
VERTEX
  5
652
100
AcDbEntity
  8
レイヤ1
100
AcDbVertex
100
AcDb2dVertex
 10
-430.7236861028
 20
1094.375041562
  0
VERTEX
  5
653
100
AcDbEntity
  8
レイヤ1
100
AcDbVertex
100
AcDb2dVertex
 10
-434.0924747092
 20
1110.737729079
  0
VERTEX
  5
654
100
AcDbEntity
  8
レイヤ1
100
AcDbVertex
100
AcDb2dVertex
 10
-433.611219194
 20
1134.800504839
  0
VERTEX
  5
655
100
AcDbEntity
  8
レイヤ1
100
AcDbVertex
100
AcDb2dVertex
 10
-433.1299636788
 20
1155.494491992
  0
VERTEX
  5
656
100
AcDbEntity
  8
レイヤ1
100
AcDbVertex
100
AcDb2dVertex
 10
-424.9486199204
 20
1178.594756722
  0
VERTEX
  5
657
100
AcDbEntity
  8
レイヤ1
100
AcDbVertex
100
AcDb2dVertex
 10
-421.0985757988
 20
1200.732510421
  0
VERTEX
  5
658
100
AcDbEntity
  8
レイヤ1
100
AcDbVertex
100
AcDb2dVertex
 10
-403.7733772517
 20
1224.795286181
  0
VERTEX
  5
659
100
AcDbEntity
  8
レイヤ1
100
AcDbVertex
100
AcDb2dVertex
 10
-394.1482669477
 20
1245.008017819
  0
VERTEX
  5
65A
100
AcDbEntity
  8
レイヤ1
100
AcDbVertex
100
AcDb2dVertex
 10
-377.3043239158
 20
1263.776982912
  0
VERTEX
  5
65B
100
AcDbEntity
  8
レイヤ1
100
AcDbVertex
100
AcDb2dVertex
 10
-365.2729360358
 20
1272.920837701
  0
VERTEX
  5
65C
100
AcDbEntity
  8
レイヤ1
100
AcDbVertex
100
AcDb2dVertex
 10
-359.4978698534
 20
1288.802269702
  0
VERTEX
  5
65D
100
AcDbEntity
  8
レイヤ1
100
AcDbVertex
100
AcDb2dVertex
 10
-337.3601161543
 20
1306.127468249
  0
VERTEX
  5
65E
100
AcDbEntity
  8
レイヤ1
100
AcDbVertex
100
AcDb2dVertex
 10
-311.3723183335
 20
1324.415177827
  0
VERTEX
  5
65F
100
AcDbEntity
  8
レイヤ1
100
AcDbVertex
100
AcDb2dVertex
 10
-289.2345646344
 20
1341.259120859
  0
VERTEX
  5
660
100
AcDbEntity
  8
レイヤ1
100
AcDbVertex
100
AcDb2dVertex
 10
-261.3217447529
 20
1359.546830436
  0
VERTEX
  5
661
100
AcDbEntity
  8
レイヤ1
100
AcDbVertex
100
AcDb2dVertex
 10
-228.5963697194
 20
1371.578218316
  0
VERTEX
  5
662
100
AcDbEntity
  8
レイヤ1
100
AcDbVertex
100
AcDb2dVertex
 10
-204.0523384442
 20
1385.534628257
  0
VERTEX
  5
663
100
AcDbEntity
  8
レイヤ1
100
AcDbVertex
100
AcDb2dVertex
 10
-170.3644523803
 20
1391.309694439
  0
VERTEX
  5
664
100
AcDbEntity
  8
レイヤ1
100
AcDbVertex
100
AcDb2dVertex
 10
-142.4516324988
 20
1402.378571289
  0
VERTEX
  5
665
100
AcDbEntity
  8
レイヤ1
100
AcDbVertex
100
AcDb2dVertex
 10
-113.0950460717
 20
1401.897315774
  0
VERTEX
  5
666
100
AcDbEntity
  8
レイヤ1
100
AcDbVertex
100
AcDb2dVertex
 10
-81.81343758378
 20
1406.228615411
  0
VERTEX
  5
667
100
AcDbEntity
  8
レイヤ1
100
AcDbVertex
100
AcDb2dVertex
 10
-55.34438424785
 20
1401.416060259
  0
VERTEX
  5
668
100
AcDbEntity
  8
レイヤ1
100
AcDbVertex
100
AcDb2dVertex
 10
-25.50654230553
 20
1402.859826804
  0
VERTEX
  5
669
100
AcDbEntity
  8
レイヤ1
100
AcDbVertex
100
AcDb2dVertex
 10
-8.181343758378
 20
1395.159738561
  0
VERTEX
  5
66A
100
AcDbEntity
  8
レイヤ1
100
AcDbVertex
100
AcDb2dVertex
 10
26.95030885113
 20
1387.459650318
  0
VERTEX
  5
66B
100
AcDbEntity
  8
レイヤ1
100
AcDbVertex
100
AcDb2dVertex
 10
47.64429600467
 20
1374.947006923
  0
VERTEX
  5
66C
100
AcDbEntity
  8
レイヤ1
100
AcDbVertex
100
AcDb2dVertex
 10
67.37577212782
 20
1368.20942971
  0
VERTEX
  5
66D
100
AcDbEntity
  8
レイヤ1
100
AcDbVertex
100
AcDb2dVertex
 10
84.21971515977
 20
1351.846742193
  0
VERTEX
  5
66E
100
AcDbEntity
  8
レイヤ1
100
AcDbVertex
100
AcDb2dVertex
 10
102.0261692221
 20
1337.409076737
  0
VERTEX
  5
66F
100
AcDbEntity
  8
レイヤ1
100
AcDbVertex
100
AcDb2dVertex
 10
113.0950460717
 20
1318.158856129
  0
VERTEX
  5
670
100
AcDbEntity
  8
レイヤ1
100
AcDbVertex
100
AcDb2dVertex
 10
125.1264339517
 20
1303.239935158
  0
VERTEX
  5
671
100
AcDbEntity
  8
レイヤ1
100
AcDbVertex
100
AcDb2dVertex
 10
132.8265221948
 20
1278.695903883
  0
VERTEX
  5
672
100
AcDbEntity
  8
レイヤ1
100
AcDbVertex
100
AcDb2dVertex
 10
139.5640994076
 20
1261.370705336
  0
VERTEX
  5
673
100
AcDbEntity
  8
レイヤ1
100
AcDbVertex
100
AcDb2dVertex
 10
139.0828438924
 20
1235.86416303
  0
VERTEX
  5
674
100
AcDbEntity
  8
レイヤ1
100
AcDbVertex
100
AcDb2dVertex
 10
138.120332862
 20
1217.576453453
  0
VERTEX
  5
675
100
AcDbEntity
  8
レイヤ1
100
AcDbVertex
100
AcDb2dVertex
 10
134.7515442556
 20
1198.326232845
  0
VERTEX
  5
676
100
AcDbEntity
  8
レイヤ1
100
AcDbVertex
100
AcDb2dVertex
 10
129.9389891036
 20
1174.263457085
  0
VERTEX
  5
677
100
AcDbEntity
  8
レイヤ1
100
AcDbVertex
100
AcDb2dVertex
 10
120.3138787997
 20
1157.419514053
  0
VERTEX
  5
678
100
AcDbEntity
  8
レイヤ1
100
AcDbVertex
100
AcDb2dVertex
 10
111.1700240109
 20
1133.837993808
  0
VERTEX
  5
679
100
AcDbEntity
  8
レイヤ1
100
AcDbVertex
100
AcDb2dVertex
 10
99.13863613093
 20
1116.031539746
  0
VERTEX
  5
67A
100
AcDbEntity
  8
レイヤ1
100
AcDbVertex
100
AcDb2dVertex
 10
82.77594861417
 20
1092.450019501
  0
VERTEX
  5
67B
100
AcDbEntity
  8
レイヤ1
100
AcDbVertex
100
AcDb2dVertex
 10
66.93544063841
 20
1076.977895432
  0
SEQEND
  5
67C
100
AcDbEntity
  8
レイヤ1
  0
POLYLINE
  5
67D
100
AcDbEntity
  8
レイヤ1
  6
CONTINUOUS
 62
     0
100
AcDb2dPolyline
 66
     1
 10
0
 20
0
 70
     0
  0
VERTEX
  5
67E
100
AcDbEntity
  8
レイヤ1
100
AcDbVertex
100
AcDb2dVertex
 10
-169.5897604101
 20
968.7655760674
  0
VERTEX
  5
67F
100
AcDbEntity
  8
レイヤ1
100
AcDbVertex
100
AcDb2dVertex
 10
-192.5548023106
 20
967.587881611
  0
VERTEX
  5
680
100
AcDbEntity
  8
レイヤ1
100
AcDbVertex
100
AcDb2dVertex
 10
-240.6935028883
 20
968.9632730561
  0
VERTEX
  5
681
100
AcDbEntity
  8
レイヤ1
100
AcDbVertex
100
AcDb2dVertex
 10
-270.95211468
 20
971.0263602237
  0
VERTEX
  5
682
100
AcDbEntity
  8
レイヤ1
100
AcDbVertex
100
AcDb2dVertex
 10
-291.5829863561
 20
975.8402302814
  0
VERTEX
  5
683
100
AcDbEntity
  8
レイヤ1
100
AcDbVertex
100
AcDb2dVertex
 10
-331.4693382633
 20
990.2818404547
  0
VERTEX
  5
684
100
AcDbEntity
  8
レイヤ1
100
AcDbVertex
100
AcDb2dVertex
 10
-367.2295158353
 20
1011.600407853
  0
VERTEX
  5
685
100
AcDbEntity
  8
レイヤ1
100
AcDbVertex
100
AcDb2dVertex
 10
-395.4250404594
 20
1041.171323923
  0
VERTEX
  5
686
100
AcDbEntity
  8
レイヤ1
100
AcDbVertex
100
AcDb2dVertex
 10
-416.743607858
 20
1078.30689294
  0
VERTEX
  5
687
100
AcDbEntity
  8
レイヤ1
100
AcDbVertex
100
AcDb2dVertex
 10
-425.683652251
 20
1116.817853402
  0
VERTEX
  5
688
100
AcDbEntity
  8
レイヤ1
100
AcDbVertex
100
AcDb2dVertex
 10
-424.9959565285
 20
1138.1364208
  0
VERTEX
  5
689
100
AcDbEntity
  8
レイヤ1
100
AcDbVertex
100
AcDb2dVertex
 10
-425.683652251
 20
1160.142683922
  0
VERTEX
  5
68A
100
AcDbEntity
  8
レイヤ1
100
AcDbVertex
100
AcDb2dVertex
 10
-416.743607858
 20
1183.524338488
  0
VERTEX
  5
68B
100
AcDbEntity
  8
レイヤ1
100
AcDbVertex
100
AcDb2dVertex
 10
-412.6174335228
 20
1201.404427274
  0
VERTEX
  5
68C
100
AcDbEntity
  8
レイヤ1
100
AcDbVertex
100
AcDb2dVertex
 10
-398.863519072
 20
1222.03529895
  0
VERTEX
  5
68D
100
AcDbEntity
  8
レイヤ1
100
AcDbVertex
100
AcDb2dVertex
 10
-389.2357789565
 20
1243.353866349
  0
VERTEX
  5
68E
100
AcDbEntity
  8
レイヤ1
100
AcDbVertex
100
AcDb2dVertex
 10
-371.3556901705
 20
1263.297042302
  0
VERTEX
  5
68F
100
AcDbEntity
  8
レイヤ1
100
AcDbVertex
100
AcDb2dVertex
 10
-361.0402543325
 20
1270.86169525
  0
VERTEX
  5
690
100
AcDbEntity
  8
レイヤ1
100
AcDbVertex
100
AcDb2dVertex
 10
-352.787905662
 20
1285.991001146
  0
VERTEX
  5
691
100
AcDbEntity
  8
レイヤ1
100
AcDbVertex
100
AcDb2dVertex
 10
-331.4693382633
 20
1305.246481377
  0
VERTEX
  5
692
100
AcDbEntity
  8
レイヤ1
100
AcDbVertex
100
AcDb2dVertex
 10
-306.712292252
 20
1323.814265886
  0
VERTEX
  5
693
100
AcDbEntity
  8
レイヤ1
100
AcDbVertex
100
AcDb2dVertex
 10
-281.267550518
 20
1339.631267504
  0
VERTEX
  5
694
100
AcDbEntity
  8
レイヤ1
100
AcDbVertex
100
AcDb2dVertex
 10
-258.9154671769
 20
1357.14055286
  0
VERTEX
  5
695
100
AcDbEntity
  8
レイヤ1
100
AcDbVertex
100
AcDb2dVertex
 10
-228.1151142042
 20
1368.20942971
  0
VERTEX
  5
696
100
AcDbEntity
  8
レイヤ1
100
AcDbVertex
100
AcDb2dVertex
 10
-203.0898274138
 20
1382.647095166
  0
VERTEX
  5
697
100
AcDbEntity
  8
レイヤ1
100
AcDbVertex
100
AcDb2dVertex
 10
-169.8831968651
 20
1387.459650318
  0
VERTEX
  5
698
100
AcDbEntity
  8
レイヤ1
100
AcDbVertex
100
AcDb2dVertex
 10
-143.4141435292
 20
1398.047271652
  0
VERTEX
  5
699
100
AcDbEntity
  8
レイヤ1
100
AcDbVertex
100
AcDb2dVertex
 10
-112.1325350413
 20
1399.009782683
  0
VERTEX
  5
69A
100
AcDbEntity
  8
レイヤ1
100
AcDbVertex
100
AcDb2dVertex
 10
-84.21971515977
 20
1402.859826804
  0
VERTEX
  5
69B
100
AcDbEntity
  8
レイヤ1
100
AcDbVertex
100
AcDb2dVertex
 10
-55.34438424785
 20
1397.566016137
  0
VERTEX
  5
69C
100
AcDbEntity
  8
レイヤ1
100
AcDbVertex
100
AcDb2dVertex
 10
-30.31909745752
 20
1397.566016137
  0
VERTEX
  5
69D
100
AcDbEntity
  8
レイヤ1
100
AcDbVertex
100
AcDb2dVertex
 10
-10.58762133437
 20
1392.27220547
  0
VERTEX
  5
69E
100
AcDbEntity
  8
レイヤ1
100
AcDbVertex
100
AcDb2dVertex
 10
1.925022060795
 20
1386.015883772
  0
VERTEX
  5
69F
100
AcDbEntity
  8
レイヤ1
100
AcDbVertex
100
AcDb2dVertex
 10
19.25022060795
 20
1384.090861711
  0
VERTEX
  5
6A0
100
AcDbEntity
  8
レイヤ1
100
AcDbVertex
100
AcDb2dVertex
 10
38.0191857007
 20
1373.021984862
  0
VERTEX
  5
6A1
100
AcDbEntity
  8
レイヤ1
100
AcDbVertex
100
AcDb2dVertex
 10
59.67568388464
 20
1362.434363527
  0
VERTEX
  5
6A2
100
AcDbEntity
  8
レイヤ1
100
AcDbVertex
100
AcDb2dVertex
 10
76.03837140139
 20
1347.034187041
  0
VERTEX
  5
6A3
100
AcDbEntity
  8
レイヤ1
100
AcDbVertex
100
AcDb2dVertex
 10
93.36356994854
 20
1333.559032616
  0
VERTEX
  5
6A4
100
AcDbEntity
  8
レイヤ1
100
AcDbVertex
100
AcDb2dVertex
 10
104.9137023133
 20
1313.346300977
  0
VERTEX
  5
6A5
100
AcDbEntity
  8
レイヤ1
100
AcDbVertex
100
AcDb2dVertex
 10
117.9076012237
 20
1298.427380006
  0
VERTEX
  5
6A6
100
AcDbEntity
  8
レイヤ1
100
AcDbVertex
100
AcDb2dVertex
 10
123.2014118909
 20
1278.695903883
  0
VERTEX
  5
6A7
100
AcDbEntity
  8
レイヤ1
100
AcDbVertex
100
AcDb2dVertex
 10
129.4577335884
 20
1259.445683275
  0
VERTEX
  5
6A8
100
AcDbEntity
  8
レイヤ1
100
AcDbVertex
100
AcDb2dVertex
 10
128.9764780732
 20
1240.195462667
  0
VERTEX
  5
6A9
100
AcDbEntity
  8
レイヤ1
100
AcDbVertex
100
AcDb2dVertex
 10
129.9389891036
 20
1218.057708968
  0
VERTEX
  5
6AA
100
AcDbEntity
  8
レイヤ1
100
AcDbVertex
100
AcDb2dVertex
 10
127.0514560125
 20
1198.80748836
  0
VERTEX
  5
6AB
100
AcDbEntity
  8
レイヤ1
100
AcDbVertex
100
AcDb2dVertex
 10
120.7951343149
 20
1175.70722363
  0
VERTEX
  5
6AC
100
AcDbEntity
  8
レイヤ1
100
AcDbVertex
100
AcDb2dVertex
 10
103.4699357677
 20
1136.244271384
  0
VERTEX
  5
6AD
100
AcDbEntity
  8
レイヤ1
100
AcDbVertex
100
AcDb2dVertex
 10
77.00088243179
 20
1097.262574653
  0
VERTEX
  5
6AE
100
AcDbEntity
  8
レイヤ1
100
AcDbVertex
100
AcDb2dVertex
 10
63.18240653396
 20
1084.281582143
  0
SEQEND
  5
6AF
100
AcDbEntity
  8
レイヤ1
  0
LINE
  5
6B0
100
AcDbEntity
  8
レイヤ1
  6
CONTINUOUS
 62
     0
100
AcDbLine
 10
-134.0411632657
 20
1123.857693009
 11
-108.7821500875
 21
1041.344916627
  0
LINE
  5
6B1
100
AcDbEntity
  8
レイヤ1
  6
CONTINUOUS
 62
     0
100
AcDbLine
 10
-119.8104256365
 20
1146.587896063
 11
-76.5980782039
 21
1066.127405401
  0
LINE
  5
6B2
100
AcDbEntity
  8
レイヤ1
  6
CONTINUOUS
 62
     0
100
AcDbLine
 10
-100.3624790281
 20
1153.158148296
 11
-37.827666313
 21
1079.443686689
  0
LINE
  5
6B3
100
AcDbEntity
  8
レイヤ1
  6
CONTINUOUS
 62
     0
100
AcDbLine
 10
-84.53349743641
 20
1165.619261464
 11
-66.3470079481
 21
1151.811000926
  0
POLYLINE
  5
6B4
100
AcDbEntity
  8
レイヤ1
  6
CONTINUOUS
 62
     0
100
AcDb2dPolyline
 66
     1
 10
0
 20
0
 70
     0
  0
VERTEX
  5
6B5
100
AcDbEntity
  8
レイヤ1
100
AcDbVertex
100
AcDb2dVertex
 10
-154.5851606506
 20
1132.277364069
  0
VERTEX
  5
6B6
100
AcDbEntity
  8
レイヤ1
100
AcDbVertex
100
AcDb2dVertex
 10
-156.4080424396
 20
1101.59387429
  0
VERTEX
  5
6B7
100
AcDbEntity
  8
レイヤ1
100
AcDbVertex
100
AcDb2dVertex
 10
-148.0361855423
 20
1005.978456042
  0
SEQEND
  5
6B8
100
AcDbEntity
  8
レイヤ1
  0
LINE
  5
6B9
100
AcDbEntity
  8
レイヤ1
  6
CONTINUOUS
 62
     0
100
AcDbLine
 10
-175.8027317203
 20
1128.909495645
 11
-191.5396950491
 21
959.142241791
  0
LINE
  5
6BA
100
AcDbEntity
  8
レイヤ1
  6
CONTINUOUS
 62
     0
100
AcDbLine
 10
-194.6627948934
 20
1129.246282487
 11
-243.5152906905
 21
959.142241791
  0
LINE
  5
6BB
100
AcDbEntity
  8
レイヤ1
  6
CONTINUOUS
 62
     0
100
AcDbLine
 10
-212.8492843817
 20
1131.940577226
 11
-294.0471197864
 21
966.8423300342
  0
LINE
  5
6BC
100
AcDbEntity
  8
レイヤ1
  6
CONTINUOUS
 62
     0
100
AcDbLine
 10
-227.3311186039
 20
1138.002740389
 11
-336.3976051239
 21
982.2425065205
  0
LINE
  5
6BD
100
AcDbEntity
  8
レイヤ1
  6
CONTINUOUS
 62
     0
100
AcDbLine
 10
-241.8129528261
 20
1145.748837764
 11
-375.8605573702
 21
1004.861515735
  0
LINE
  5
6BE
100
AcDbEntity
  8
レイヤ1
  6
CONTINUOUS
 62
     0
100
AcDbLine
 10
-253.2637054669
 20
1158.209950932
 11
-404.7358882821
 21
1035.180613192
  0
LINE
  5
6BF
100
AcDbEntity
  8
レイヤ1
  6
CONTINUOUS
 62
     0
100
AcDbLine
 10
-260.3362291568
 20
1174.712506208
 11
-427.3548974964
 21
1073.199798893
  0
LINE
  5
6C0
100
AcDbEntity
  8
レイヤ1
  6
CONTINUOUS
 62
     0
100
AcDbLine
 10
-263.7040975805
 20
1191.551848327
 11
-434.0924747092
 21
1110.737729079
  0
LINE
  5
6C1
100
AcDbEntity
  8
レイヤ1
  6
CONTINUOUS
 62
     0
100
AcDbLine
 10
-262.0201633686
 20
1205.023322022
 11
-433.1299636788
 21
1155.494491992
  0
LINE
  5
6C2
100
AcDbEntity
  8
レイヤ1
  6
CONTINUOUS
 62
     0
100
AcDbLine
 10
-257.3051475754
 20
1221.862664141
 11
-421.0985757988
 21
1200.732510421
  0
LINE
  5
6C3
100
AcDbEntity
  8
レイヤ1
  6
CONTINUOUS
 62
     0
100
AcDbLine
 10
-248.885476516
 20
1237.018072048
 11
-394.1482669477
 21
1245.008017819
  0
LINE
  5
6C4
100
AcDbEntity
  8
レイヤ1
  6
CONTINUOUS
 62
     0
100
AcDbLine
 10
-234.7404291362
 20
1253.520627324
 11
-359.4978698534
 21
1288.802269702
  0
LINE
  5
6C5
100
AcDbEntity
  8
レイヤ1
  6
CONTINUOUS
 62
     0
100
AcDbLine
 10
-218.5746607021
 20
1265.308166807
 11
-311.3723183335
 21
1324.415177827
  0
LINE
  5
6C6
100
AcDbEntity
  8
レイヤ1
  6
CONTINUOUS
 62
     0
100
AcDbLine
 10
-201.3985317409
 20
1276.422132606
 11
-261.3217447529
 21
1359.546830436
  0
LINE
  5
6C7
100
AcDbEntity
  8
レイヤ1
  6
CONTINUOUS
 62
     0
100
AcDbLine
 10
-181.5281080407
 20
1284.505016823
 11
-204.0523384442
 21
1385.534628257
  0
LINE
  5
6C8
100
AcDbEntity
  8
レイヤ1
  6
CONTINUOUS
 62
     0
100
AcDbLine
 10
-161.6576843405
 20
1290.230393143
 11
-142.4516324988
 21
1402.378571289
  0
LINE
  5
6C9
100
AcDbEntity
  8
レイヤ1
  6
CONTINUOUS
 62
     0
100
AcDbLine
 10
-138.0826053742
 20
1291.24075367
 11
-81.81343758378
 21
1406.228615411
  0
LINE
  5
6CA
100
AcDbEntity
  8
レイヤ1
  6
CONTINUOUS
 62
     0
100
AcDbLine
 10
-119.2225422012
 20
1289.893606301
 11
-25.50654230553
 21
1402.859826804
  0
LINE
  5
6CB
100
AcDbEntity
  8
レイヤ1
  6
CONTINUOUS
 62
     0
100
AcDbLine
 10
-100.6992658705
 20
1285.852164192
 11
-62.36691570043
 21
1316.364241859
  0
LINE
  5
6CC
100
AcDbEntity
  8
レイヤ1
  6
CONTINUOUS
 62
     0
100
AcDbLine
 10
-58.53199189862
 20
1319.416793878
 11
-32.34514667335
 21
1340.261199499
  0
LINE
  5
6CD
100
AcDbEntity
  8
レイヤ1
  6
CONTINUOUS
 62
     0
100
AcDbLine
 10
-32.32006410985
 20
1340.28116491
 11
26.95030885113
 21
1387.459650318
  0
LINE
  5
6CE
100
AcDbEntity
  8
レイヤ1
  6
CONTINUOUS
 62
     0
100
AcDbLine
 10
-84.53349743641
 20
1278.44285366
 11
-76.12508365949
 21
1283.411572928
  0
LINE
  5
6CF
100
AcDbEntity
  8
レイヤ1
  6
CONTINUOUS
 62
     0
100
AcDbLine
 10
-64.99968104896
 20
1289.985821507
 11
-61.00266141977
 21
1292.347749568
  0
LINE
  5
6D0
100
AcDbEntity
  8
レイヤ1
  6
CONTINUOUS
 62
     0
100
AcDbLine
 10
-8.978347736166
 20
1323.090077039
 11
67.37577212782
 21
1368.20942971
  0
LINE
  5
6D1
100
AcDbEntity
  8
レイヤ1
  6
CONTINUOUS
 62
     0
100
AcDbLine
 10
78.47133427364
 20
1291.24075367
 11
125.1264339517
 21
1303.239935158
  0
LINE
  5
6D2
100
AcDbEntity
  8
レイヤ1
  6
CONTINUOUS
 62
     0
100
AcDbLine
 10
95.9842500772
 20
1257.22528259
 11
139.5640994076
 21
1261.370705336
  0
LINE
  5
6D3
100
AcDbEntity
  8
レイヤ1
  6
CONTINUOUS
 62
     0
100
AcDbLine
 10
96.99461060433
 20
1220.750422879
 11
138.120332862
 21
1217.576453453
  0
LINE
  5
6D4
100
AcDbEntity
  8
レイヤ1
  6
CONTINUOUS
 62
     0
100
AcDbLine
 10
94.97388955007
 20
1180.774669371
 11
129.9389891036
 21
1174.263457085
  0
LINE
  5
6D5
100
AcDbEntity
  8
レイヤ1
  6
CONTINUOUS
 62
     0
100
AcDbLine
 10
84.87028427879
 20
1141.370608813
 11
111.1700240109
 21
1133.837993808
  0
LINE
  5
6D6
100
AcDbEntity
  8
レイヤ1
  6
CONTINUOUS
 62
     0
100
AcDbLine
 10
62.11137640784
 20
1104.527819888
 11
82.77594861417
 21
1092.450019501
  0
LINE
  5
6D7
100
AcDbEntity
  8
レイヤ1
  6
CONTINUOUS
 62
     0
100
AcDbLine
 10
38.58187714811
 20
1315.569619943
 11
102.0261692221
 21
1337.409076737
  0
ENDSEC
  0
SECTION
  2
OBJECTS
  0
DICTIONARY
  5
6D8
100
AcDbDictionary
  3
ACAD_GROUP
350
6D9
  3
ACAD_MLINESTYLE
350
6DA
  0
DICTIONARY
  5
6D9
100
AcDbDictionary
  0
DICTIONARY
  5
6DA
100
AcDbDictionary
  3
STANDARD
350
6DB
  0
MLINESTYLE
  5
6DB
100
AcDbMlineStyle
  2
STANDARD
 70
     0
  3

 62
   256
 51
90
 52
90
 71
     0
  0
ENDSEC
  0
EOF
