  0
SECTION
  2
HEADER
  9
$ACADVER
  1
AC1014
  9
$DWGCODEPAGE
  3
dos932
  9
$EXTMIN
 10
-248.8848325641
 20
-2.121177550262
  9
$EXTMAX
 10
264.3776712653
 20
1598.660813714
  9
$LIMMIN
 10
0
 20
0
  9
$LIMMAX
 10
8410
 20
5940
  9
$LTSCALE
 40
10
  9
$DIMSCALE
 40
10
  9
$DIMSTYLE
  2
M7DIMSTL
  9
$HANDSEED
  5
7FFFFFFF
  0
ENDSEC
  0
SECTION
  2
CLASSES
  0
CLASS
  1
CSOFTARXCLASS
  2
CSoftArxClass
  3
CSRasterApi
 90
     0
280
     0
281
     0
  0
CLASS
  1
IMAGEDEF
  2
AcDbRasterImageDef
  3
ISM
 90
     0
280
     0
281
     0
  0
CLASS
  1
RASTERVARIABLES
  2
AcDbRasterVariables
  3
ISM
 90
     0
280
     0
281
     0
  0
CLASS
  1
IMAGE
  2
AcDbRasterImage
  3
ISM
 90
   127
280
     0
281
     0
  0
CLASS
  1
IMAGEDEF_REACTOR
  2
AcDbRasterImageDefReactor
  3
ISM
 90
     1
280
     0
281
     0
  0
CLASS
  1
HATCH
  2
AcDbHatch
  3
M7
 90
     0
280
     0
281
     1
  0
ENDSEC
  0
SECTION
  2
TABLES
  0
TABLE
  2
VPORT
  5
FF
100
AcDbSymbolTable
 70
     5
  0
VPORT
  5
100
100
AcDbSymbolTableRecord
100
AcDbViewportTableRecord
  2
*ACTIVE
 70
     0
 10
0
 20
0
 11
1
 21
1
 12
4205
 22
2970
 13
0
 23
0
 14
0
 24
0
 15
0
 25
0
 16
0
 26
0
 36
1
 17
0
 27
0
 37
0
 40
2970
 41
1.415824915825
 42
50
 43
0
 44
0
 50
0
 51
0
 71
     0
 72
   100
 73
     1
 74
     3
 75
     0
 76
     0
 77
     0
 78
     0
  0
ENDTAB
  0
TABLE
  2
LTYPE
  5
101
100
AcDbSymbolTable
 70
     1
  0
LTYPE
  5
102
100
AcDbSymbolTableRecord
100
AcDbLinetypeTableRecord
  2
BYBLOCK
 70
     0
  3

 72
    65
 73
     0
 40
0
  0
LTYPE
  5
103
100
AcDbSymbolTableRecord
100
AcDbLinetypeTableRecord
  2
BYLAYER
 70
     0
  3

 72
    65
 73
     0
 40
0
  0
LTYPE
  5
104
100
AcDbSymbolTableRecord
100
AcDbLinetypeTableRecord
  2
CONTINUOUS
 70
     0
  3
Solid line
 72
    65
 73
     0
 40
0
  0
LTYPE
  5
105
100
AcDbSymbolTableRecord
100
AcDbLinetypeTableRecord
  2
DOT
 70
     0
  3
...............................
 72
    65
 73
     2
 40
2
 49
1
 74
     0
 49
-1
 74
     0
  0
LTYPE
  5
106
100
AcDbSymbolTableRecord
100
AcDbLinetypeTableRecord
  2
DASHED
 70
     0
  3
- - - - - - - - - - - - - - - -
 72
    65
 73
     2
 40
4
 49
2
 74
     0
 49
-2
 74
     0
  0
LTYPE
  5
107
100
AcDbSymbolTableRecord
100
AcDbLinetypeTableRecord
  2
DASHED2
 70
     0
  3
-- -- -- -- -- -- -- -- -- -- -
 72
    65
 73
     2
 40
8
 49
5
 74
     0
 49
-3
 74
     0
  0
LTYPE
  5
108
100
AcDbSymbolTableRecord
100
AcDbLinetypeTableRecord
  2
CENTER
 70
     0
  3
--------- - --------- - -------
 72
    65
 73
     4
 40
23
 49
20
 74
     0
 49
-1
 74
     0
 49
1
 74
     0
 49
-1
 74
     0
  0
LTYPE
  5
109
100
AcDbSymbolTableRecord
100
AcDbLinetypeTableRecord
  2
CENTERX2
 70
     0
  3
-------------- - --------------
 72
    65
 73
     4
 40
43
 49
40
 74
     0
 49
-1
 74
     0
 49
1
 74
     0
 49
-1
 74
     0
  0
LTYPE
  5
10A
100
AcDbSymbolTableRecord
100
AcDbLinetypeTableRecord
  2
CENTER2
 70
     0
  3
------ - ----- - ------ - -----
 72
    65
 73
     4
 40
13
 49
10
 74
     0
 49
-1
 74
     0
 49
1
 74
     0
 49
-1
 74
     0
  0
LTYPE
  5
10B
100
AcDbSymbolTableRecord
100
AcDbLinetypeTableRecord
  2
PHANTOM
 70
     0
  3
-------- - - ------- - - ------
 72
    65
 73
     6
 40
25
 49
20
 74
     0
 49
-1
 74
     0
 49
1
 74
     0
 49
-1
 74
     0
 49
1
 74
     0
 49
-1
 74
     0
  0
LTYPE
  5
10C
100
AcDbSymbolTableRecord
100
AcDbLinetypeTableRecord
  2
PHANTOMX2
 70
     0
  3
------------- - - -------------
 72
    65
 73
     6
 40
45
 49
40
 74
     0
 49
-1
 74
     0
 49
1
 74
     0
 49
-1
 74
     0
 49
1
 74
     0
 49
-1
 74
     0
  0
LTYPE
  5
10D
100
AcDbSymbolTableRecord
100
AcDbLinetypeTableRecord
  2
PHANTOM2
 70
     0
  3
---- - - ---- - - ---- - - ----
 72
    65
 73
     6
 40
15
 49
10
 74
     0
 49
-1
 74
     0
 49
1
 74
     0
 49
-1
 74
     0
 49
1
 74
     0
 49
-1
 74
     0
  0
LTYPE
  5
10E
100
AcDbSymbolTableRecord
100
AcDbLinetypeTableRecord
  2
ACAD_ISO06W100
 70
     0
  3
------------ - - - ------------
 72
    65
 73
     8
 40
47
 49
40
 74
     0
 49
-1
 74
     0
 49
1
 74
     0
 49
-1
 74
     0
 49
1
 74
     0
 49
-1
 74
     0
 49
1
 74
     0
 49
-1
 74
     0
  0
LTYPE
  5
10F
100
AcDbSymbolTableRecord
100
AcDbLinetypeTableRecord
  2
ACAD_ISO14W100
 70
     0
  3
---- - - - -------- - - - -----
 72
    65
 73
     8
 40
27
 49
20
 74
     0
 49
-1
 74
     0
 49
1
 74
     0
 49
-1
 74
     0
 49
1
 74
     0
 49
-1
 74
     0
 49
1
 74
     0
 49
-1
 74
     0
  0
LTYPE
  5
110
100
AcDbSymbolTableRecord
100
AcDbLinetypeTableRecord
  2
ACAD_ISO11W100
 70
     0
  3
------- ------ - ------- ------
 72
    65
 73
     6
 40
44
 49
20
 74
     0
 49
-1
 74
     0
 49
20
 74
     0
 49
-1
 74
     0
 49
1
 74
     0
 49
-1
 74
     0
  0
LTYPE
  5
111
100
AcDbSymbolTableRecord
100
AcDbLinetypeTableRecord
  2
ACAD_ISO13W100
 70
     0
  3
------ ------ - - ------ ------
 72
    65
 73
     8
 40
46
 49
20
 74
     0
 49
-1
 74
     0
 49
20
 74
     0
 49
-1
 74
     0
 49
1
 74
     0
 49
-1
 74
     0
 49
1
 74
     0
 49
-1
 74
     0
  0
LTYPE
  5
112
100
AcDbSymbolTableRecord
100
AcDbLinetypeTableRecord
  2
ACAD_ISO15W100
 70
     0
  3
------ ----- - - - ------ -----
 72
    65
 73
    10
 40
48
 49
20
 74
     0
 49
-1
 74
     0
 49
20
 74
     0
 49
-1
 74
     0
 49
1
 74
     0
 49
-1
 74
     0
 49
1
 74
     0
 49
-1
 74
     0
 49
1
 74
     0
 49
-1
 74
     0
  0
LTYPE
  5
113
100
AcDbSymbolTableRecord
100
AcDbLinetypeTableRecord
  2
HIDDEN
 70
     0
  3
. . . . . . . . . . . . . . . .
 72
    65
 73
     2
 40
1.5
 49
1
 74
     0
 49
-0.5
 74
     0
  0
ENDTAB
  0
TABLE
  2
LAYER
  5
114
100
AcDbSymbolTable
 70
     1
  0
LAYER
  5
115
100
AcDbSymbolTableRecord
100
AcDbLayerTableRecord
  2
0
 70
     0
 62
     7
  6
CONTINUOUS
  0
LAYER
  5
116
100
AcDbSymbolTableRecord
100
AcDbLayerTableRecord
  2
レイヤ1
 70
     0
 62
     7
  6
CONTINUOUS
  0
ENDTAB
  0
TABLE
  2
STYLE
  5
117
100
AcDbSymbolTable
 70
     1
  0
STYLE
  5
118
100
AcDbSymbolTableRecord
100
AcDbTextStyleTableRecord
  2
STANDARD
 70
     0
 40
0
 41
0
 50
0
 71
     0
 42
1
  3
txt
  4
bigfont
  0
STYLE
  5
119
100
AcDbSymbolTableRecord
100
AcDbTextStyleTableRecord
  2
VSTANDARD
 70
     4
 40
0
 41
0
 50
0
 71
     0
 42
1
  3
txt
  4
bigfont
  0
ENDTAB
  0
TABLE
  2
VIEW
  5
11A
100
AcDbSymbolTable
 70
     0
  0
ENDTAB
  0
TABLE
  2
UCS
  5
11B
100
AcDbSymbolTable
 70
     0
  0
ENDTAB
  0
TABLE
  2
APPID
  5
11C
100
AcDbSymbolTable
 70
     1
  0
APPID
  5
11D
100
AcDbSymbolTableRecord
100
AcDbRegAppTableRecord
  2
ACAD
 70
     0
  0
ENDTAB
  0
TABLE
  2
DIMSTYLE
  5
11E
100
AcDbSymbolTable
 70
     1
  0
DIMSTYLE
105
11F
100
AcDbSymbolTableRecord
100
AcDbDimStyleTableRecord
  2
M7DIMSTL
 70
     0
  3

  4

  5

  6

  7

 40
10
 41
2.5
 42
0.625
 43
3.75
 44
1.25
 45
0
 46
0
 47
0
 48
0
140
2.5
141
2.5
142
0
143
0.03937007874016
144
1
145
0
146
1
147
0.625
 71
     0
 72
     0
 73
     0
 74
     0
 75
     0
 76
     0
 77
     1
 78
     8
170
     0
171
     3
172
     1
173
     0
174
     0
175
     0
176
     0
177
     0
178
     0
270
     2
271
     2
272
     2
273
     2
274
     3
340
118
275
     0
280
     0
281
     0
282
     0
283
     0
284
     8
285
     0
286
     0
287
     3
288
     0
  0
ENDTAB
  0
TABLE
  2
BLOCK_RECORD
  5
120
100
AcDbSymbolTable
 70
     2
  0
BLOCK_RECORD
  5
121
100
AcDbSymbolTableRecord
100
AcDbBlockTableRecord
  2
*MODEL_SPACE
  0
BLOCK_RECORD
  5
122
100
AcDbSymbolTableRecord
100
AcDbBlockTableRecord
  2
*PAPER_SPACE
  0
BLOCK_RECORD
  5
123
100
AcDbSymbolTableRecord
100
AcDbBlockTableRecord
  2
_DOT
  0
BLOCK_RECORD
  5
124
100
AcDbSymbolTableRecord
100
AcDbBlockTableRecord
  2
_OPEN30
  0
ENDTAB
  0
ENDSEC
  0
SECTION
  2
BLOCKS
  0
BLOCK
  5
125
100
AcDbEntity
  8
0
100
AcDbBlockBegin
  2
*MODEL_SPACE
 70
     0
 10
0
 20
0
  3
*MODEL_SPACE
  1

  0
ENDBLK
  5
126
100
AcDbEntity
  8
0
100
AcDbBlockEnd
  0
BLOCK
  5
127
100
AcDbEntity
 67
     1
  8
0
100
AcDbBlockBegin
  2
*PAPER_SPACE
 70
     0
 10
0
 20
0
  3
*PAPER_SPACE
  1

  0
ENDBLK
  5
128
100
AcDbEntity
 67
     1
  8
0
100
AcDbBlockEnd
  0
BLOCK
  5
129
100
AcDbEntity
 67
     1
  8
0
100
AcDbBlockBegin
  2
_DOT
 70
     0
 10
0
 20
0
  3
_DOT
  1

  0
LWPOLYLINE
  5
12A
100
AcDbEntity
  8
0
  6
BYBLOCK
 62
     0
100
AcDbPolyline
 90
     2
 70
     1
 43
0.5
 10
-0.25
 20
0
 42
1
 10
0.25
 20
0
 42
1
  0
LINE
  5
12B
100
AcDbEntity
  8
0
  6
BYBLOCK
 62
     0
100
AcDbLine
 10
-0.5
 20
0
 11
-1
 21
0
  0
ENDBLK
  5
12C
100
AcDbEntity
  8
0
100
AcDbBlockEnd
  0
BLOCK
  5
12D
100
AcDbEntity
 67
     1
  8
0
100
AcDbBlockBegin
  2
_OPEN30
 70
     0
 10
0
 20
0
  3
_OPEN30
  1

  0
LINE
  5
12E
100
AcDbEntity
  8
0
  6
BYBLOCK
 62
     0
100
AcDbLine
 10
-1
 20
0.26794919
 11
0
 21
0
  0
LINE
  5
12F
100
AcDbEntity
  8
0
  6
BYBLOCK
 62
     0
100
AcDbLine
 10
-1
 20
-0.26794919
 11
0
 21
0
  0
LINE
  5
130
100
AcDbEntity
  8
0
  6
BYBLOCK
 62
     0
100
AcDbLine
 10
0
 20
0
 11
-1
 21
0
  0
ENDBLK
  5
131
100
AcDbEntity
  8
0
100
AcDbBlockEnd
  0
ENDSEC
  0
SECTION
  2
ENTITIES
  0
POLYLINE
  5
132
100
AcDbEntity
  8
レイヤ1
  6
CONTINUOUS
 62
     0
100
AcDb2dPolyline
 66
     1
 10
0
 20
0
 70
     1
  0
VERTEX
  5
133
100
AcDbEntity
  8
レイヤ1
100
AcDbVertex
100
AcDb2dVertex
 10
23.10026472954
 20
1561.192891305
  0
VERTEX
  5
134
100
AcDbEntity
  8
レイヤ1
100
AcDbVertex
100
AcDb2dVertex
 10
12.99389891036
 20
1577.555578821
  0
VERTEX
  5
135
100
AcDbEntity
  8
レイヤ1
100
AcDbVertex
100
AcDb2dVertex
 10
6.599219045259
 20
1583.105511679
  0
VERTEX
  5
136
100
AcDbEntity
  8
レイヤ1
100
AcDbVertex
100
AcDb2dVertex
 10
-1.649804761315
 20
1584.283943651
  0
VERTEX
  5
137
100
AcDbEntity
  8
レイヤ1
100
AcDbVertex
100
AcDb2dVertex
 10
-2.121177550262
 20
1583.105511679
  0
VERTEX
  5
138
100
AcDbEntity
  8
レイヤ1
100
AcDbVertex
100
AcDb2dVertex
 10
-1.414118366841
 20
1582.162766101
  0
VERTEX
  5
139
100
AcDbEntity
  8
レイヤ1
100
AcDbVertex
100
AcDb2dVertex
 10
4.478041494997
 20
1581.455706918
  0
VERTEX
  5
13A
100
AcDbEntity
  8
レイヤ1
100
AcDbVertex
100
AcDb2dVertex
 10
8.249023806574
 20
1578.863156578
  0
VERTEX
  5
13B
100
AcDbEntity
  8
レイヤ1
100
AcDbVertex
100
AcDb2dVertex
 10
16.0266748242
 20
1570.378446377
  0
VERTEX
  5
13C
100
AcDbEntity
  8
レイヤ1
100
AcDbVertex
100
AcDb2dVertex
 10
16.9694204021
 20
1568.96432801
  0
VERTEX
  5
13D
100
AcDbEntity
  8
レイヤ1
100
AcDbVertex
100
AcDb2dVertex
 10
17.15328282838
 20
1567.216283031
  0
VERTEX
  5
13E
100
AcDbEntity
  8
レイヤ1
100
AcDbVertex
100
AcDb2dVertex
 10
11.38054341498
 20
1568.535766326
  0
VERTEX
  5
13F
100
AcDbEntity
  8
レイヤ1
100
AcDbVertex
100
AcDb2dVertex
 10
4.288320707094
 20
1568.535766326
  0
VERTEX
  5
140
100
AcDbEntity
  8
レイヤ1
100
AcDbVertex
100
AcDb2dVertex
 10
2.803902000792
 20
1571.174732915
  0
VERTEX
  5
141
100
AcDbEntity
  8
レイヤ1
100
AcDbVertex
100
AcDb2dVertex
 10
5.442868589773
 20
1573.318893268
  0
VERTEX
  5
142
100
AcDbEntity
  8
レイヤ1
100
AcDbVertex
100
AcDb2dVertex
 10
5.607804001585
 20
1575.957859857
  0
VERTEX
  5
143
100
AcDbEntity
  8
レイヤ1
100
AcDbVertex
100
AcDb2dVertex
 10
2.309095765358
 20
1576.452666093
  0
VERTEX
  5
144
100
AcDbEntity
  8
レイヤ1
100
AcDbVertex
100
AcDb2dVertex
 10
-0.4948062354339
 20
1573.48382868
  0
VERTEX
  5
145
100
AcDbEntity
  8
レイヤ1
100
AcDbVertex
100
AcDb2dVertex
 10
-6.597416472453
 20
1576.452666093
  0
VERTEX
  5
146
100
AcDbEntity
  8
レイヤ1
100
AcDbVertex
100
AcDb2dVertex
 10
-7.257158119698
 20
1575.957859857
  0
VERTEX
  5
147
100
AcDbEntity
  8
レイヤ1
100
AcDbVertex
100
AcDb2dVertex
 10
-12.37015588585
 20
1578.596826446
  0
VERTEX
  5
148
100
AcDbEntity
  8
レイヤ1
100
AcDbVertex
100
AcDb2dVertex
 10
-17.31821824019
 20
1573.978634915
  0
VERTEX
  5
149
100
AcDbEntity
  8
レイヤ1
100
AcDbVertex
100
AcDb2dVertex
 10
-32.82214695045
 20
1573.153957856
  0
VERTEX
  5
14A
100
AcDbEntity
  8
レイヤ1
100
AcDbVertex
100
AcDb2dVertex
 10
-34.63643648038
 20
1571.66953915
  0
VERTEX
  5
14B
100
AcDbEntity
  8
レイヤ1
100
AcDbVertex
100
AcDb2dVertex
 10
-52.94426719143
 20
1571.834474562
  0
VERTEX
  5
14C
100
AcDbEntity
  8
レイヤ1
100
AcDbVertex
100
AcDb2dVertex
 10
-54.42868589773
 20
1571.174732915
  0
VERTEX
  5
14D
100
AcDbEntity
  8
レイヤ1
100
AcDbVertex
100
AcDb2dVertex
 10
-54.09881507411
 20
1573.813699504
  0
VERTEX
  5
14E
100
AcDbEntity
  8
レイヤ1
100
AcDbVertex
100
AcDb2dVertex
 10
-52.449460956
 20
1577.442278563
  0
VERTEX
  5
14F
100
AcDbEntity
  8
レイヤ1
100
AcDbVertex
100
AcDb2dVertex
 10
-52.11959013238
 20
1579.421503505
  0
VERTEX
  5
150
100
AcDbEntity
  8
レイヤ1
100
AcDbVertex
100
AcDb2dVertex
 10
-53.60400883868
 20
1579.256568093
  0
VERTEX
  5
151
100
AcDbEntity
  8
レイヤ1
100
AcDbVertex
100
AcDb2dVertex
 10
-57.72739413396
 20
1573.648764092
  0
VERTEX
  5
152
100
AcDbEntity
  8
レイヤ1
100
AcDbVertex
100
AcDb2dVertex
 10
-57.89232954577
 20
1570.844862091
  0
VERTEX
  5
153
100
AcDbEntity
  8
レイヤ1
100
AcDbVertex
100
AcDb2dVertex
 10
-60.53129613475
 20
1568.04096009
  0
VERTEX
  5
154
100
AcDbEntity
  8
レイヤ1
100
AcDbVertex
100
AcDb2dVertex
 10
-61.35597319381
 20
1564.41238103
  0
VERTEX
  5
155
100
AcDbEntity
  8
レイヤ1
100
AcDbVertex
100
AcDb2dVertex
 10
-70.59235625524
 20
1563.917574795
  0
VERTEX
  5
156
100
AcDbEntity
  8
レイヤ1
100
AcDbVertex
100
AcDb2dVertex
 10
-77.35470813951
 20
1561.773414441
  0
VERTEX
  5
157
100
AcDbEntity
  8
レイヤ1
100
AcDbVertex
100
AcDb2dVertex
 10
-83.62225378834
 20
1556.825352087
  0
VERTEX
  5
158
100
AcDbEntity
  8
レイヤ1
100
AcDbVertex
100
AcDb2dVertex
 10
-86.42615578913
 20
1552.866902204
  0
VERTEX
  5
159
100
AcDbEntity
  8
レイヤ1
100
AcDbVertex
100
AcDb2dVertex
 10
-87.25083284819
 20
1549.238323144
  0
VERTEX
  5
15A
100
AcDbEntity
  8
レイヤ1
100
AcDbVertex
100
AcDb2dVertex
 10
-93.51837849702
 20
1548.743516908
  0
VERTEX
  5
15B
100
AcDbEntity
  8
レイヤ1
100
AcDbVertex
100
AcDb2dVertex
 10
-94.01318473245
 20
1542.640906671
  0
VERTEX
  5
15C
100
AcDbEntity
  8
レイヤ1
100
AcDbVertex
100
AcDb2dVertex
 10
-92.85863684977
 20
1535.713619375
  0
VERTEX
  5
15D
100
AcDbEntity
  8
レイヤ1
100
AcDbVertex
100
AcDb2dVertex
 10
-87.41576826
 20
1528.951267491
  0
VERTEX
  5
15E
100
AcDbEntity
  8
レイヤ1
100
AcDbVertex
100
AcDb2dVertex
 10
-81.14822261117
 20
1524.33307596
  0
VERTEX
  5
15F
100
AcDbEntity
  8
レイヤ1
100
AcDbVertex
100
AcDb2dVertex
 10
-79.16899766943
 20
1523.343463489
  0
VERTEX
  5
160
100
AcDbEntity
  8
レイヤ1
100
AcDbVertex
100
AcDb2dVertex
 10
-79.33393308124
 20
1521.859044783
  0
VERTEX
  5
161
100
AcDbEntity
  8
レイヤ1
100
AcDbVertex
100
AcDb2dVertex
 10
-84.44693084739
 20
1521.529173959
  0
VERTEX
  5
162
100
AcDbEntity
  8
レイヤ1
100
AcDbVertex
100
AcDb2dVertex
 10
-90.54954108441
 20
1518.725271959
  0
VERTEX
  5
163
100
AcDbEntity
  8
レイヤ1
100
AcDbVertex
100
AcDb2dVertex
 10
-93.84824932064
 20
1517.735659488
  0
VERTEX
  5
164
100
AcDbEntity
  8
レイヤ1
100
AcDbVertex
100
AcDb2dVertex
 10
-100.4456657931
 20
1517.9005949
  0
VERTEX
  5
165
100
AcDbEntity
  8
レイヤ1
100
AcDbVertex
100
AcDb2dVertex
 10
-104.5690510884
 20
1517.240853252
  0
VERTEX
  5
166
100
AcDbEntity
  8
レイヤ1
100
AcDbVertex
100
AcDb2dVertex
 10
-106.5482760301
 20
1513.942145016
  0
VERTEX
  5
167
100
AcDbEntity
  8
レイヤ1
100
AcDbVertex
100
AcDb2dVertex
 10
-106.7132114419
 20
1510.973307603
  0
VERTEX
  5
168
100
AcDbEntity
  8
レイヤ1
100
AcDbVertex
100
AcDb2dVertex
 10
-106.0534697947
 20
1512.45772631
  0
VERTEX
  5
169
100
AcDbEntity
  8
レイヤ1
100
AcDbVertex
100
AcDb2dVertex
 10
-103.7443740293
 20
1514.931757487
  0
VERTEX
  5
16A
100
AcDbEntity
  8
レイヤ1
100
AcDbVertex
100
AcDb2dVertex
 10
-103.5794386175
 20
1513.942145016
  0
VERTEX
  5
16B
100
AcDbEntity
  8
レイヤ1
100
AcDbVertex
100
AcDb2dVertex
 10
-105.3937281474
 20
1511.468113839
  0
VERTEX
  5
16C
100
AcDbEntity
  8
レイヤ1
100
AcDbVertex
100
AcDb2dVertex
 10
-106.3833406183
 20
1508.169405603
  0
VERTEX
  5
16D
100
AcDbEntity
  8
レイヤ1
100
AcDbVertex
100
AcDb2dVertex
 10
-105.8885343829
 20
1503.056407837
  0
VERTEX
  5
16E
100
AcDbEntity
  8
レイヤ1
100
AcDbVertex
100
AcDb2dVertex
 10
-103.5794386175
 20
1500.252505836
  0
VERTEX
  5
16F
100
AcDbEntity
  8
レイヤ1
100
AcDbVertex
100
AcDb2dVertex
 10
-101.7651490876
 20
1499.7576996
  0
VERTEX
  5
170
100
AcDbEntity
  8
レイヤ1
100
AcDbVertex
100
AcDb2dVertex
 10
-103.4145032057
 20
1503.716149484
  0
VERTEX
  5
171
100
AcDbEntity
  8
レイヤ1
100
AcDbVertex
100
AcDb2dVertex
 10
-103.4145032057
 20
1507.179793132
  0
VERTEX
  5
172
100
AcDbEntity
  8
レイヤ1
100
AcDbVertex
100
AcDb2dVertex
 10
-101.7651490876
 20
1508.169405603
  0
VERTEX
  5
173
100
AcDbEntity
  8
レイヤ1
100
AcDbVertex
100
AcDb2dVertex
 10
-97.80669920411
 20
1509.653824309
  0
VERTEX
  5
174
100
AcDbEntity
  8
レイヤ1
100
AcDbVertex
100
AcDb2dVertex
 10
-88.73525155449
 20
1508.82914725
  0
VERTEX
  5
175
100
AcDbEntity
  8
レイヤ1
100
AcDbVertex
100
AcDb2dVertex
 10
-93.35344308521
 20
1508.334341014
  0
VERTEX
  5
176
100
AcDbEntity
  8
レイヤ1
100
AcDbVertex
100
AcDb2dVertex
 10
-96.81708673324
 20
1506.520051485
  0
VERTEX
  5
177
100
AcDbEntity
  8
レイヤ1
100
AcDbVertex
100
AcDb2dVertex
 10
-79.33393308124
 20
1506.190180661
  0
VERTEX
  5
178
100
AcDbEntity
  8
レイヤ1
100
AcDbVertex
100
AcDb2dVertex
 10
-77.35470813951
 20
1504.540826543
  0
VERTEX
  5
179
100
AcDbEntity
  8
レイヤ1
100
AcDbVertex
100
AcDb2dVertex
 10
-84.61186625921
 20
1502.231730777
  0
VERTEX
  5
17A
100
AcDbEntity
  8
レイヤ1
100
AcDbVertex
100
AcDb2dVertex
 10
-91.8690243789
 20
1490.191445715
  0
VERTEX
  5
17B
100
AcDbEntity
  8
レイヤ1
100
AcDbVertex
100
AcDb2dVertex
 10
-94.6729263797
 20
1481.119998066
  0
VERTEX
  5
17C
100
AcDbEntity
  8
レイヤ1
100
AcDbVertex
100
AcDb2dVertex
 10
-89.55992861354
 20
1488.377156185
  0
VERTEX
  5
17D
100
AcDbEntity
  8
レイヤ1
100
AcDbVertex
100
AcDb2dVertex
 10
-83.29238296471
 20
1492.005735245
  0
VERTEX
  5
17E
100
AcDbEntity
  8
レイヤ1
100
AcDbVertex
100
AcDb2dVertex
 10
-76.69496649226
 20
1492.995347716
  0
VERTEX
  5
17F
100
AcDbEntity
  8
レイヤ1
100
AcDbVertex
100
AcDb2dVertex
 10
-73.56119366785
 20
1494.974572658
  0
VERTEX
  5
180
100
AcDbEntity
  8
レイヤ1
100
AcDbVertex
100
AcDb2dVertex
 10
-68.4481959017
 20
1493.984960187
  0
VERTEX
  5
181
100
AcDbEntity
  8
レイヤ1
100
AcDbVertex
100
AcDb2dVertex
 10
-68.77806672532
 20
1489.69663948
  0
VERTEX
  5
182
100
AcDbEntity
  8
レイヤ1
100
AcDbVertex
100
AcDb2dVertex
 10
-71.74690413792
 20
1484.583641714
  0
VERTEX
  5
183
100
AcDbEntity
  8
レイヤ1
100
AcDbVertex
100
AcDb2dVertex
 10
-79.33393308124
 20
1476.666741947
  0
VERTEX
  5
184
100
AcDbEntity
  8
レイヤ1
100
AcDbVertex
100
AcDb2dVertex
 10
-84.94173708283
 20
1476.336871123
  0
VERTEX
  5
185
100
AcDbEntity
  8
レイヤ1
100
AcDbVertex
100
AcDb2dVertex
 10
-86.92096202456
 20
1467.760229709
  0
VERTEX
  5
186
100
AcDbEntity
  8
レイヤ1
100
AcDbVertex
100
AcDb2dVertex
 10
-87.91057449543
 20
1459.348523707
  0
VERTEX
  5
187
100
AcDbEntity
  8
レイヤ1
100
AcDbVertex
100
AcDb2dVertex
 10
-85.9313495537
 20
1453.24591347
  0
VERTEX
  5
188
100
AcDbEntity
  8
レイヤ1
100
AcDbVertex
100
AcDb2dVertex
 10
-84.44693084739
 20
1451.596559351
  0
VERTEX
  5
189
100
AcDbEntity
  8
レイヤ1
100
AcDbVertex
100
AcDb2dVertex
 10
-84.44693084739
 20
1448.297851115
  0
VERTEX
  5
18A
100
AcDbEntity
  8
レイヤ1
100
AcDbVertex
100
AcDb2dVertex
 10
-81.6430288466
 20
1440.216015936
  0
VERTEX
  5
18B
100
AcDbEntity
  8
レイヤ1
100
AcDbVertex
100
AcDb2dVertex
 10
-75.37548319777
 20
1432.134180758
  0
VERTEX
  5
18C
100
AcDbEntity
  8
レイヤ1
100
AcDbVertex
100
AcDb2dVertex
 10
-68.11832507807
 20
1428.67053711
  0
VERTEX
  5
18D
100
AcDbEntity
  8
レイヤ1
100
AcDbVertex
100
AcDb2dVertex
 10
-63.66506895917
 20
1429.66014958
  0
VERTEX
  5
18E
100
AcDbEntity
  8
レイヤ1
100
AcDbVertex
100
AcDb2dVertex
 10
-58.55207119302
 20
1432.958857817
  0
VERTEX
  5
18F
100
AcDbEntity
  8
レイヤ1
100
AcDbVertex
100
AcDb2dVertex
 10
-52.94426719143
 20
1439.391338877
  0
VERTEX
  5
190
100
AcDbEntity
  8
レイヤ1
100
AcDbVertex
100
AcDb2dVertex
 10
-52.11959013238
 20
1441.865370055
  0
VERTEX
  5
191
100
AcDbEntity
  8
レイヤ1
100
AcDbVertex
100
AcDb2dVertex
 10
-50.63517142607
 20
1450.771882292
  0
VERTEX
  5
192
100
AcDbEntity
  8
レイヤ1
100
AcDbVertex
100
AcDb2dVertex
 10
-50.9650422497
 20
1455.390073823
  0
VERTEX
  5
193
100
AcDbEntity
  8
レイヤ1
100
AcDbVertex
100
AcDb2dVertex
 10
-53.43907342687
 20
1460.008265354
  0
VERTEX
  5
194
100
AcDbEntity
  8
レイヤ1
100
AcDbVertex
100
AcDb2dVertex
 10
-51.62478389694
 20
1461.987490296
  0
VERTEX
  5
195
100
AcDbEntity
  8
レイヤ1
100
AcDbVertex
100
AcDb2dVertex
 10
-49.31568813158
 20
1457.204363353
  0
VERTEX
  5
196
100
AcDbEntity
  8
レイヤ1
100
AcDbVertex
100
AcDb2dVertex
 10
-44.69749660087
 20
1451.926430175
  0
VERTEX
  5
197
100
AcDbEntity
  8
レイヤ1
100
AcDbVertex
100
AcDb2dVertex
 10
-41.23385295283
 20
1450.606946881
  0
VERTEX
  5
198
100
AcDbEntity
  8
レイヤ1
100
AcDbVertex
100
AcDb2dVertex
 10
-38.75982177566
 20
1450.771882292
  0
VERTEX
  5
199
100
AcDbEntity
  8
レイヤ1
100
AcDbVertex
100
AcDb2dVertex
 10
-35.79098436306
 20
1445.329013703
  0
VERTEX
  5
19A
100
AcDbEntity
  8
レイヤ1
100
AcDbVertex
100
AcDb2dVertex
 10
-32.98708236226
 20
1442.854982525
  0
VERTEX
  5
19B
100
AcDbEntity
  8
レイヤ1
100
AcDbVertex
100
AcDb2dVertex
 10
-29.85330953785
 20
1442.854982525
  0
VERTEX
  5
19C
100
AcDbEntity
  8
レイヤ1
100
AcDbVertex
100
AcDb2dVertex
 10
-33.15201777407
 20
1445.658884526
  0
VERTEX
  5
19D
100
AcDbEntity
  8
レイヤ1
100
AcDbVertex
100
AcDb2dVertex
 10
-35.13124271581
 20
1448.957592762
  0
VERTEX
  5
19E
100
AcDbEntity
  8
レイヤ1
100
AcDbVertex
100
AcDb2dVertex
 10
-35.62604895124
 20
1451.101753116
  0
VERTEX
  5
19F
100
AcDbEntity
  8
レイヤ1
100
AcDbVertex
100
AcDb2dVertex
 10
-32.16240530321
 20
1450.771882292
  0
VERTEX
  5
1A0
100
AcDbEntity
  8
レイヤ1
100
AcDbVertex
100
AcDb2dVertex
 10
-30.18318036147
 20
1452.256300999
  0
VERTEX
  5
1A1
100
AcDbEntity
  8
レイヤ1
100
AcDbVertex
100
AcDb2dVertex
 10
-35.79098436306
 20
1452.751107234
  0
VERTEX
  5
1A2
100
AcDbEntity
  8
レイヤ1
100
AcDbVertex
100
AcDb2dVertex
 10
-36.28579059849
 20
1454.400461352
  0
VERTEX
  5
1A3
100
AcDbEntity
  8
レイヤ1
100
AcDbVertex
100
AcDb2dVertex
 10
-35.95591977487
 20
1455.884880058
  0
VERTEX
  5
1A4
100
AcDbEntity
  8
レイヤ1
100
AcDbVertex
100
AcDb2dVertex
 10
-28.86369706698
 20
1455.060202999
  0
VERTEX
  5
1A5
100
AcDbEntity
  8
レイヤ1
100
AcDbVertex
100
AcDb2dVertex
 10
-21.60653894728
 20
1455.390073823
  0
VERTEX
  5
1A6
100
AcDbEntity
  8
レイヤ1
100
AcDbVertex
100
AcDb2dVertex
 10
-19.79224941736
 20
1452.256300999
  0
VERTEX
  5
1A7
100
AcDbEntity
  8
レイヤ1
100
AcDbVertex
100
AcDb2dVertex
 10
-16.65847659294
 20
1447.473174056
  0
VERTEX
  5
1A8
100
AcDbEntity
  8
レイヤ1
100
AcDbVertex
100
AcDb2dVertex
 10
-15.83379953389
 20
1449.452398998
  0
VERTEX
  5
1A9
100
AcDbEntity
  8
レイヤ1
100
AcDbVertex
100
AcDb2dVertex
 10
-17.81302447562
 20
1456.04981547
  0
VERTEX
  5
1AA
100
AcDbEntity
  8
レイヤ1
100
AcDbVertex
100
AcDb2dVertex
 10
-14.18444541577
 20
1458.853717471
  0
VERTEX
  5
1AB
100
AcDbEntity
  8
レイヤ1
100
AcDbVertex
100
AcDb2dVertex
 10
-11.38054341498
 20
1458.853717471
  0
VERTEX
  5
1AC
100
AcDbEntity
  8
レイヤ1
100
AcDbVertex
100
AcDb2dVertex
 10
-19.46237859374
 20
1464.956327708
  0
VERTEX
  5
1AD
100
AcDbEntity
  8
レイヤ1
100
AcDbVertex
100
AcDb2dVertex
 10
-21.27666812366
 20
1468.255035944
  0
VERTEX
  5
1AE
100
AcDbEntity
  8
レイヤ1
100
AcDbVertex
100
AcDb2dVertex
 10
-21.27666812366
 20
1476.501806535
  0
VERTEX
  5
1AF
100
AcDbEntity
  8
レイヤ1
100
AcDbVertex
100
AcDb2dVertex
 10
-14.34938082758
 20
1483.099223007
  0
VERTEX
  5
1B0
100
AcDbEntity
  8
レイヤ1
100
AcDbVertex
100
AcDb2dVertex
 10
-10.88573717955
 20
1483.099223007
  0
VERTEX
  5
1B1
100
AcDbEntity
  8
レイヤ1
100
AcDbVertex
100
AcDb2dVertex
 10
-5.772739413396
 20
1484.088835478
  0
VERTEX
  5
1B2
100
AcDbEntity
  8
レイヤ1
100
AcDbVertex
100
AcDb2dVertex
 10
-3.79351447166
 20
1487.057672891
  0
VERTEX
  5
1B3
100
AcDbEntity
  8
レイヤ1
100
AcDbVertex
100
AcDb2dVertex
 10
-1.814289529924
 20
1489.69663948
  0
VERTEX
  5
1B4
100
AcDbEntity
  8
レイヤ1
100
AcDbVertex
100
AcDb2dVertex
 10
-2.803902000792
 20
1481.944675125
  0
VERTEX
  5
1B5
100
AcDbEntity
  8
レイヤ1
100
AcDbVertex
100
AcDb2dVertex
 10
-5.112997766151
 20
1473.203098299
  0
VERTEX
  5
1B6
100
AcDbEntity
  8
レイヤ1
100
AcDbVertex
100
AcDb2dVertex
 10
1.649354118113
 20
1483.429093831
  0
VERTEX
  5
1B7
100
AcDbEntity
  8
レイヤ1
100
AcDbVertex
100
AcDb2dVertex
 10
2.47403117717
 20
1490.191445715
  0
VERTEX
  5
1B8
100
AcDbEntity
  8
レイヤ1
100
AcDbVertex
100
AcDb2dVertex
 10
1.885491155788
 20
1497.079977696
  0
VERTEX
  5
1B9
100
AcDbEntity
  8
レイヤ1
100
AcDbVertex
100
AcDb2dVertex
 10
0.9427455778942
 20
1502.972137558
  0
VERTEX
  5
1BA
100
AcDbEntity
  8
レイヤ1
100
AcDbVertex
100
AcDb2dVertex
 10
-0.7070591834206
 20
1505.564687897
  0
VERTEX
  5
1BB
100
AcDbEntity
  8
レイヤ1
100
AcDbVertex
100
AcDb2dVertex
 10
6.363532650786
 20
1510.514102181
  0
VERTEX
  5
1BC
100
AcDbEntity
  8
レイヤ1
100
AcDbVertex
100
AcDb2dVertex
 10
11.5486333292
 20
1517.349007621
  0
VERTEX
  5
1BD
100
AcDbEntity
  8
レイヤ1
100
AcDbVertex
100
AcDb2dVertex
 10
15.55530203525
 20
1516.406262043
  0
VERTEX
  5
1BE
100
AcDbEntity
  8
レイヤ1
100
AcDbVertex
100
AcDb2dVertex
 10
17.44079319104
 20
1513.342338915
  0
VERTEX
  5
1BF
100
AcDbEntity
  8
レイヤ1
100
AcDbVertex
100
AcDb2dVertex
 10
17.67647958552
 20
1505.329001503
  0
VERTEX
  5
1C0
100
AcDbEntity
  8
レイヤ1
100
AcDbVertex
100
AcDb2dVertex
 10
15.31961564078
 20
1501.322332796
  0
VERTEX
  5
1C1
100
AcDbEntity
  8
レイヤ1
100
AcDbVertex
100
AcDb2dVertex
 10
11.78431972368
 20
1496.372918513
  0
VERTEX
  5
1C2
100
AcDbEntity
  8
レイヤ1
100
AcDbVertex
100
AcDb2dVertex
 10
17.20510679657
 20
1499.436841641
  0
VERTEX
  5
1C3
100
AcDbEntity
  8
レイヤ1
100
AcDbVertex
100
AcDb2dVertex
 10
20.97608910815
 20
1506.036060686
  0
VERTEX
  5
1C4
100
AcDbEntity
  8
レイヤ1
100
AcDbVertex
100
AcDb2dVertex
 10
21.68314829157
 20
1510.514102181
  0
VERTEX
  5
1C5
100
AcDbEntity
  8
レイヤ1
100
AcDbVertex
100
AcDb2dVertex
 10
20.74040271367
 20
1515.463516465
  0
VERTEX
  5
1C6
100
AcDbEntity
  8
レイヤ1
100
AcDbVertex
100
AcDb2dVertex
 10
17.67647958552
 20
1519.234498776
  0
VERTEX
  5
1C7
100
AcDbEntity
  8
レイヤ1
100
AcDbVertex
100
AcDb2dVertex
 10
22.15452108051
 20
1522.06273551
  0
VERTEX
  5
1C8
100
AcDbEntity
  8
レイヤ1
100
AcDbVertex
100
AcDb2dVertex
 10
25.92550339209
 20
1521.591362721
  0
VERTEX
  5
1C9
100
AcDbEntity
  8
レイヤ1
100
AcDbVertex
100
AcDb2dVertex
 10
26.39687618104
 20
1518.763125988
  0
VERTEX
  5
1CA
100
AcDbEntity
  8
レイヤ1
100
AcDbVertex
100
AcDb2dVertex
 10
27.57530815341
 20
1524.890972244
  0
VERTEX
  5
1CB
100
AcDbEntity
  8
レイヤ1
100
AcDbVertex
100
AcDb2dVertex
 10
24.74707141972
 20
1526.540777005
  0
VERTEX
  5
1CC
100
AcDbEntity
  8
レイヤ1
100
AcDbVertex
100
AcDb2dVertex
 10
17.67647958552
 20
1525.598031427
  0
VERTEX
  5
1CD
100
AcDbEntity
  8
レイヤ1
100
AcDbVertex
100
AcDb2dVertex
 10
13.43412448499
 20
1524.419599455
  0
VERTEX
  5
1CE
100
AcDbEntity
  8
レイヤ1
100
AcDbVertex
100
AcDb2dVertex
 10
14.14118366841
 20
1530.783132106
  0
VERTEX
  5
1CF
100
AcDbEntity
  8
レイヤ1
100
AcDbVertex
100
AcDb2dVertex
 10
22.86158026393
 20
1541.860392646
  0
VERTEX
  5
1D0
100
AcDbEntity
  8
レイヤ1
100
AcDbVertex
100
AcDb2dVertex
 10
25.89485965438
 20
1551.217548085
  0
VERTEX
  5
1D1
100
AcDbEntity
  8
レイヤ1
100
AcDbVertex
100
AcDb2dVertex
 10
26.05979506619
 20
1557.650029146
  0
VERTEX
  5
1D2
100
AcDbEntity
  8
レイヤ1
100
AcDbVertex
100
AcDb2dVertex
 10
28.36889083155
 20
1561.443543618
  0
VERTEX
  5
1D3
100
AcDbEntity
  8
レイヤ1
100
AcDbVertex
100
AcDb2dVertex
 10
29.1935678906
 20
1566.391605972
  0
VERTEX
  5
1D4
100
AcDbEntity
  8
レイヤ1
100
AcDbVertex
100
AcDb2dVertex
 10
28.36889083155
 20
1572.164345385
  0
VERTEX
  5
1D5
100
AcDbEntity
  8
レイヤ1
100
AcDbVertex
100
AcDb2dVertex
 10
26.88447212524
 20
1573.48382868
  0
VERTEX
  5
1D6
100
AcDbEntity
  8
レイヤ1
100
AcDbVertex
100
AcDb2dVertex
 10
27.21434294887
 20
1568.370830914
  0
VERTEX
  5
1D7
100
AcDbEntity
  8
レイヤ1
100
AcDbVertex
100
AcDb2dVertex
 10
26.224730478
 20
1561.773414441
  0
VERTEX
  5
1D8
100
AcDbEntity
  8
レイヤ1
100
AcDbVertex
100
AcDb2dVertex
 10
24.24550553626
 20
1559.134447852
  0
SEQEND
  5
1D9
100
AcDbEntity
  8
レイヤ1
  0
POLYLINE
  5
1DA
100
AcDbEntity
  8
レイヤ1
  6
CONTINUOUS
 62
     0
100
AcDb2dPolyline
 66
     1
 10
0
 20
0
 70
     0
  0
VERTEX
  5
1DB
100
AcDbEntity
  8
レイヤ1
100
AcDbVertex
100
AcDb2dVertex
 10
19.13250777011
 20
1566.061735148
  0
VERTEX
  5
1DC
100
AcDbEntity
  8
レイヤ1
100
AcDbVertex
100
AcDb2dVertex
 10
19.13250777011
 20
1564.41238103
  0
VERTEX
  5
1DD
100
AcDbEntity
  8
レイヤ1
100
AcDbVertex
100
AcDb2dVertex
 10
9.401318473245
 20
1564.41238103
  0
VERTEX
  5
1DE
100
AcDbEntity
  8
レイヤ1
100
AcDbVertex
100
AcDb2dVertex
 10
7.092222707887
 20
1563.752639383
  0
VERTEX
  5
1DF
100
AcDbEntity
  8
レイヤ1
100
AcDbVertex
100
AcDb2dVertex
 10
8.246770590566
 20
1560.453931147
  0
VERTEX
  5
1E0
100
AcDbEntity
  8
レイヤ1
100
AcDbVertex
100
AcDb2dVertex
 10
9.236383061434
 20
1555.340933381
  0
VERTEX
  5
1E1
100
AcDbEntity
  8
レイヤ1
100
AcDbVertex
100
AcDb2dVertex
 10
9.071447649622
 20
1550.72274185
  0
VERTEX
  5
1E2
100
AcDbEntity
  8
レイヤ1
100
AcDbVertex
100
AcDb2dVertex
 10
7.751964355132
 20
1549.073387732
  0
VERTEX
  5
1E3
100
AcDbEntity
  8
レイヤ1
100
AcDbVertex
100
AcDb2dVertex
 10
11.05067259136
 20
1548.248710673
  0
VERTEX
  5
1E4
100
AcDbEntity
  8
レイヤ1
100
AcDbVertex
100
AcDb2dVertex
 10
12.70002670947
 20
1546.269485731
  0
VERTEX
  5
1E5
100
AcDbEntity
  8
レイヤ1
100
AcDbVertex
100
AcDb2dVertex
 10
12.70002670947
 20
1545.27987326
  0
VERTEX
  5
1E6
100
AcDbEntity
  8
レイヤ1
100
AcDbVertex
100
AcDb2dVertex
 10
10.72080176774
 20
1545.774679496
  0
VERTEX
  5
1E7
100
AcDbEntity
  8
レイヤ1
100
AcDbVertex
100
AcDb2dVertex
 10
7.257158119698
 20
1546.599356555
  0
VERTEX
  5
1E8
100
AcDbEntity
  8
レイヤ1
100
AcDbVertex
100
AcDb2dVertex
 10
6.597416472453
 20
1544.950002437
  0
VERTEX
  5
1E9
100
AcDbEntity
  8
レイヤ1
100
AcDbVertex
100
AcDb2dVertex
 10
11.54547882679
 20
1542.970777495
  0
VERTEX
  5
1EA
100
AcDbEntity
  8
レイヤ1
100
AcDbVertex
100
AcDb2dVertex
 10
13.02989753309
 20
1541.321423377
  0
VERTEX
  5
1EB
100
AcDbEntity
  8
レイヤ1
100
AcDbVertex
100
AcDb2dVertex
 10
20.12212024098
 20
1546.929227378
  0
VERTEX
  5
1EC
100
AcDbEntity
  8
レイヤ1
100
AcDbVertex
100
AcDb2dVertex
 10
21.77147435909
 20
1551.547418909
  0
VERTEX
  5
1ED
100
AcDbEntity
  8
レイヤ1
100
AcDbVertex
100
AcDb2dVertex
 10
22.10134518272
 20
1556.000675028
  0
VERTEX
  5
1EE
100
AcDbEntity
  8
レイヤ1
100
AcDbVertex
100
AcDb2dVertex
 10
20.78186188823
 20
1560.124060323
  0
VERTEX
  5
1EF
100
AcDbEntity
  8
レイヤ1
100
AcDbVertex
100
AcDb2dVertex
 10
20.94679730004
 20
1561.938349853
  0
VERTEX
  5
1F0
100
AcDbEntity
  8
レイヤ1
100
AcDbVertex
100
AcDb2dVertex
 10
22.26628059453
 20
1560.453931147
  0
VERTEX
  5
1F1
100
AcDbEntity
  8
レイヤ1
100
AcDbVertex
100
AcDb2dVertex
 10
23.91563471264
 20
1555.670804204
  0
VERTEX
  5
1F2
100
AcDbEntity
  8
レイヤ1
100
AcDbVertex
100
AcDb2dVertex
 10
23.58576388902
 20
1549.733129379
  0
VERTEX
  5
1F3
100
AcDbEntity
  8
レイヤ1
100
AcDbVertex
100
AcDb2dVertex
 10
22.43121600634
 20
1545.939614907
  0
VERTEX
  5
1F4
100
AcDbEntity
  8
レイヤ1
100
AcDbVertex
100
AcDb2dVertex
 10
18.9675723583
 20
1541.981165024
  0
VERTEX
  5
1F5
100
AcDbEntity
  8
レイヤ1
100
AcDbVertex
100
AcDb2dVertex
 10
12.20522047404
 20
1537.857779729
  0
VERTEX
  5
1F6
100
AcDbEntity
  8
レイヤ1
100
AcDbVertex
100
AcDb2dVertex
 10
9.236383061434
 20
1537.198038081
  0
VERTEX
  5
1F7
100
AcDbEntity
  8
レイヤ1
100
AcDbVertex
100
AcDb2dVertex
 10
4.783126942528
 20
1537.03310267
  0
VERTEX
  5
1F8
100
AcDbEntity
  8
レイヤ1
100
AcDbVertex
100
AcDb2dVertex
 10
2.47403117717
 20
1534.064265257
  0
VERTEX
  5
1F9
100
AcDbEntity
  8
レイヤ1
100
AcDbVertex
100
AcDb2dVertex
 10
-1.154547882679
 20
1531.095427844
  0
VERTEX
  5
1FA
100
AcDbEntity
  8
レイヤ1
100
AcDbVertex
100
AcDb2dVertex
 10
-3.958449883472
 20
1529.940879962
  0
VERTEX
  5
1FB
100
AcDbEntity
  8
レイヤ1
100
AcDbVertex
100
AcDb2dVertex
 10
5.442868589773
 20
1529.940879962
  0
VERTEX
  5
1FC
100
AcDbEntity
  8
レイヤ1
100
AcDbVertex
100
AcDb2dVertex
 10
7.092222707887
 20
1531.095427844
  0
VERTEX
  5
1FD
100
AcDbEntity
  8
レイヤ1
100
AcDbVertex
100
AcDb2dVertex
 10
4.618191530717
 20
1535.878554787
  0
VERTEX
  5
1FE
100
AcDbEntity
  8
レイヤ1
100
AcDbVertex
100
AcDb2dVertex
 10
5.442868589773
 20
1536.703231846
  0
VERTEX
  5
1FF
100
AcDbEntity
  8
レイヤ1
100
AcDbVertex
100
AcDb2dVertex
 10
8.906512237811
 20
1533.734394433
  0
VERTEX
  5
200
100
AcDbEntity
  8
レイヤ1
100
AcDbVertex
100
AcDb2dVertex
 10
13.85457459215
 20
1536.208425611
  0
VERTEX
  5
201
100
AcDbEntity
  8
レイヤ1
100
AcDbVertex
100
AcDb2dVertex
 10
17.64808906381
 20
1540.166875494
  0
SEQEND
  5
202
100
AcDbEntity
  8
レイヤ1
  0
POLYLINE
  5
203
100
AcDbEntity
  8
レイヤ1
  6
CONTINUOUS
 62
     0
100
AcDb2dPolyline
 66
     1
 10
0
 20
0
 70
     1
  0
VERTEX
  5
204
100
AcDbEntity
  8
レイヤ1
100
AcDbVertex
100
AcDb2dVertex
 10
-41.06891754102
 20
1567.216283031
  0
VERTEX
  5
205
100
AcDbEntity
  8
レイヤ1
100
AcDbVertex
100
AcDb2dVertex
 10
-52.28452554419
 20
1567.216283031
  0
VERTEX
  5
206
100
AcDbEntity
  8
レイヤ1
100
AcDbVertex
100
AcDb2dVertex
 10
-55.08842754498
 20
1566.391605972
  0
VERTEX
  5
207
100
AcDbEntity
  8
レイヤ1
100
AcDbVertex
100
AcDb2dVertex
 10
-56.24297542766
 20
1564.577316442
  0
VERTEX
  5
208
100
AcDbEntity
  8
レイヤ1
100
AcDbVertex
100
AcDb2dVertex
 10
-52.94426719143
 20
1563.422768559
  0
VERTEX
  5
209
100
AcDbEntity
  8
レイヤ1
100
AcDbVertex
100
AcDb2dVertex
 10
-47.66633401347
 20
1560.618866559
  0
VERTEX
  5
20A
100
AcDbEntity
  8
レイヤ1
100
AcDbVertex
100
AcDb2dVertex
 10
-42.55333624732
 20
1556.990287499
  0
VERTEX
  5
20B
100
AcDbEntity
  8
レイヤ1
100
AcDbVertex
100
AcDb2dVertex
 10
-45.52217365992
 20
1560.288995735
  0
VERTEX
  5
20C
100
AcDbEntity
  8
レイヤ1
100
AcDbVertex
100
AcDb2dVertex
 10
-44.36762577724
 20
1564.41238103
  0
VERTEX
  5
20D
100
AcDbEntity
  8
レイヤ1
100
AcDbVertex
100
AcDb2dVertex
 10
-42.05853001189
 20
1565.566928913
  0
VERTEX
  5
20E
100
AcDbEntity
  8
レイヤ1
100
AcDbVertex
100
AcDb2dVertex
 10
-40.40917589377
 20
1566.061735148
  0
SEQEND
  5
20F
100
AcDbEntity
  8
レイヤ1
  0
POLYLINE
  5
210
100
AcDbEntity
  8
レイヤ1
  6
CONTINUOUS
 62
     0
100
AcDb2dPolyline
 66
     1
 10
0
 20
0
 70
     1
  0
VERTEX
  5
211
100
AcDbEntity
  8
レイヤ1
100
AcDbVertex
100
AcDb2dVertex
 10
-47.33646318985
 20
1555.175997969
  0
VERTEX
  5
212
100
AcDbEntity
  8
レイヤ1
100
AcDbVertex
100
AcDb2dVertex
 10
-51.29491307332
 20
1558.144835382
  0
VERTEX
  5
213
100
AcDbEntity
  8
レイヤ1
100
AcDbVertex
100
AcDb2dVertex
 10
-54.75855672136
 20
1558.804577029
  0
VERTEX
  5
214
100
AcDbEntity
  8
レイヤ1
100
AcDbVertex
100
AcDb2dVertex
 10
-51.12997766151
 20
1555.011062557
  0
VERTEX
  5
215
100
AcDbEntity
  8
レイヤ1
100
AcDbVertex
100
AcDb2dVertex
 10
-48.65594648434
 20
1550.557806438
  0
VERTEX
  5
216
100
AcDbEntity
  8
レイヤ1
100
AcDbVertex
100
AcDb2dVertex
 10
-47.50139860166
 20
1550.887677262
  0
SEQEND
  5
217
100
AcDbEntity
  8
レイヤ1
  0
POLYLINE
  5
218
100
AcDbEntity
  8
レイヤ1
  6
CONTINUOUS
 62
     0
100
AcDb2dPolyline
 66
     1
 10
0
 20
0
 70
     1
  0
VERTEX
  5
219
100
AcDbEntity
  8
レイヤ1
100
AcDbVertex
100
AcDb2dVertex
 10
-61.02610237019
 20
1558.309770793
  0
VERTEX
  5
21A
100
AcDbEntity
  8
レイヤ1
100
AcDbVertex
100
AcDb2dVertex
 10
-65.31442307728
 20
1559.299383264
  0
VERTEX
  5
21B
100
AcDbEntity
  8
レイヤ1
100
AcDbVertex
100
AcDb2dVertex
 10
-70.42742084343
 20
1559.134447852
  0
VERTEX
  5
21C
100
AcDbEntity
  8
レイヤ1
100
AcDbVertex
100
AcDb2dVertex
 10
-78.01444978675
 20
1556.000675028
  0
VERTEX
  5
21D
100
AcDbEntity
  8
レイヤ1
100
AcDbVertex
100
AcDb2dVertex
 10
-81.6430288466
 20
1552.372095968
  0
VERTEX
  5
21E
100
AcDbEntity
  8
レイヤ1
100
AcDbVertex
100
AcDb2dVertex
 10
-84.77680167102
 20
1547.09416279
  0
VERTEX
  5
21F
100
AcDbEntity
  8
レイヤ1
100
AcDbVertex
100
AcDb2dVertex
 10
-86.75602661275
 20
1547.09416279
  0
VERTEX
  5
220
100
AcDbEntity
  8
レイヤ1
100
AcDbVertex
100
AcDb2dVertex
 10
-87.58070367181
 20
1547.918839849
  0
VERTEX
  5
221
100
AcDbEntity
  8
レイヤ1
100
AcDbVertex
100
AcDb2dVertex
 10
-92.52876602615
 20
1548.083775261
  0
VERTEX
  5
222
100
AcDbEntity
  8
レイヤ1
100
AcDbVertex
100
AcDb2dVertex
 10
-91.20928273166
 20
1546.434421143
  0
VERTEX
  5
223
100
AcDbEntity
  8
レイヤ1
100
AcDbVertex
100
AcDb2dVertex
 10
-89.55992861354
 20
1539.012327611
  0
VERTEX
  5
224
100
AcDbEntity
  8
レイヤ1
100
AcDbVertex
100
AcDb2dVertex
 10
-85.27160790645
 20
1536.703231846
  0
VERTEX
  5
225
100
AcDbEntity
  8
レイヤ1
100
AcDbVertex
100
AcDb2dVertex
 10
-77.1897727277
 20
1534.888942316
  0
VERTEX
  5
226
100
AcDbEntity
  8
レイヤ1
100
AcDbVertex
100
AcDb2dVertex
 10
-75.21054778596
 20
1535.21881314
  0
VERTEX
  5
227
100
AcDbEntity
  8
レイヤ1
100
AcDbVertex
100
AcDb2dVertex
 10
-74.3858707269
 20
1538.8473922
  0
VERTEX
  5
228
100
AcDbEntity
  8
レイヤ1
100
AcDbVertex
100
AcDb2dVertex
 10
-75.54041860958
 20
1543.46558373
  0
VERTEX
  5
229
100
AcDbEntity
  8
レイヤ1
100
AcDbVertex
100
AcDb2dVertex
 10
-73.23132284422
 20
1541.816229612
  0
VERTEX
  5
22A
100
AcDbEntity
  8
レイヤ1
100
AcDbVertex
100
AcDb2dVertex
 10
-70.75729166705
 20
1543.960389966
  0
VERTEX
  5
22B
100
AcDbEntity
  8
レイヤ1
100
AcDbVertex
100
AcDb2dVertex
 10
-65.47935848909
 20
1544.290260789
  0
VERTEX
  5
22C
100
AcDbEntity
  8
レイヤ1
100
AcDbVertex
100
AcDb2dVertex
 10
-60.86116695838
 20
1543.46558373
  0
VERTEX
  5
22D
100
AcDbEntity
  8
レイヤ1
100
AcDbVertex
100
AcDb2dVertex
 10
-58.38713578121
 20
1544.785067025
  0
VERTEX
  5
22E
100
AcDbEntity
  8
レイヤ1
100
AcDbVertex
100
AcDb2dVertex
 10
-56.24297542766
 20
1545.609744084
  0
VERTEX
  5
22F
100
AcDbEntity
  8
レイヤ1
100
AcDbVertex
100
AcDb2dVertex
 10
-58.55207119302
 20
1551.382483497
  0
VERTEX
  5
230
100
AcDbEntity
  8
レイヤ1
100
AcDbVertex
100
AcDb2dVertex
 10
-58.88194201664
 20
1555.835739616
  0
SEQEND
  5
231
100
AcDbEntity
  8
レイヤ1
  0
POLYLINE
  5
232
100
AcDbEntity
  8
レイヤ1
  6
CONTINUOUS
 62
     0
100
AcDb2dPolyline
 66
     1
 10
0
 20
0
 70
     1
  0
VERTEX
  5
233
100
AcDbEntity
  8
レイヤ1
100
AcDbVertex
100
AcDb2dVertex
 10
-19.29744318192
 20
1461.162813236
  0
VERTEX
  5
234
100
AcDbEntity
  8
レイヤ1
100
AcDbVertex
100
AcDb2dVertex
 10
-19.29744318192
 20
1463.142038178
  0
VERTEX
  5
235
100
AcDbEntity
  8
レイヤ1
100
AcDbVertex
100
AcDb2dVertex
 10
-17.31821824019
 20
1461.657619472
  0
VERTEX
  5
236
100
AcDbEntity
  8
レイヤ1
100
AcDbVertex
100
AcDb2dVertex
 10
-17.64808906381
 20
1461.162813236
  0
SEQEND
  5
237
100
AcDbEntity
  8
レイヤ1
  0
POLYLINE
  5
238
100
AcDbEntity
  8
レイヤ1
  6
CONTINUOUS
 62
     0
100
AcDb2dPolyline
 66
     1
 10
0
 20
0
 70
     1
  0
VERTEX
  5
239
100
AcDbEntity
  8
レイヤ1
100
AcDbVertex
100
AcDb2dVertex
 10
-22.76108682996
 20
1459.183588295
  0
VERTEX
  5
23A
100
AcDbEntity
  8
レイヤ1
100
AcDbVertex
100
AcDb2dVertex
 10
-29.1935678906
 20
1470.234260886
  0
VERTEX
  5
23B
100
AcDbEntity
  8
レイヤ1
100
AcDbVertex
100
AcDb2dVertex
 10
-29.85330953785
 20
1472.873227475
  0
VERTEX
  5
23C
100
AcDbEntity
  8
レイヤ1
100
AcDbVertex
100
AcDb2dVertex
 10
-33.81175942132
 20
1471.223873357
  0
VERTEX
  5
23D
100
AcDbEntity
  8
レイヤ1
100
AcDbVertex
100
AcDb2dVertex
 10
-35.29617812762
 20
1466.93555265
  0
VERTEX
  5
23E
100
AcDbEntity
  8
レイヤ1
100
AcDbVertex
100
AcDb2dVertex
 10
-35.62604895124
 20
1463.471909002
  0
VERTEX
  5
23F
100
AcDbEntity
  8
レイヤ1
100
AcDbVertex
100
AcDb2dVertex
 10
-35.29617812762
 20
1460.668007001
  0
VERTEX
  5
240
100
AcDbEntity
  8
レイヤ1
100
AcDbVertex
100
AcDb2dVertex
 10
-31.66759906777
 20
1459.183588295
  0
VERTEX
  5
241
100
AcDbEntity
  8
レイヤ1
100
AcDbVertex
100
AcDb2dVertex
 10
-27.54421377249
 20
1458.688782059
  0
SEQEND
  5
242
100
AcDbEntity
  8
レイヤ1
  0
POLYLINE
  5
243
100
AcDbEntity
  8
レイヤ1
  6
CONTINUOUS
 62
     0
100
AcDb2dPolyline
 66
     1
 10
0
 20
0
 70
     1
  0
VERTEX
  5
244
100
AcDbEntity
  8
レイヤ1
100
AcDbVertex
100
AcDb2dVertex
 10
-40.7390467174
 20
1471.223873357
  0
VERTEX
  5
245
100
AcDbEntity
  8
レイヤ1
100
AcDbVertex
100
AcDb2dVertex
 10
-45.35723824811
 20
1471.058937945
  0
VERTEX
  5
246
100
AcDbEntity
  8
レイヤ1
100
AcDbVertex
100
AcDb2dVertex
 10
-45.1923028363
 20
1466.93555265
  0
VERTEX
  5
247
100
AcDbEntity
  8
レイヤ1
100
AcDbVertex
100
AcDb2dVertex
 10
-43.37801330638
 20
1463.966715237
  0
VERTEX
  5
248
100
AcDbEntity
  8
レイヤ1
100
AcDbVertex
100
AcDb2dVertex
 10
-41.06891754102
 20
1462.812167355
  0
VERTEX
  5
249
100
AcDbEntity
  8
レイヤ1
100
AcDbVertex
100
AcDb2dVertex
 10
-40.90398212921
 20
1467.925165121
  0
SEQEND
  5
24A
100
AcDbEntity
  8
レイヤ1
  0
POLYLINE
  5
24B
100
AcDbEntity
  8
レイヤ1
  6
CONTINUOUS
 62
     0
100
AcDb2dPolyline
 66
     1
 10
0
 20
0
 70
     1
  0
VERTEX
  5
24C
100
AcDbEntity
  8
レイヤ1
100
AcDbVertex
100
AcDb2dVertex
 10
-41.06891754102
 20
1458.358911236
  0
VERTEX
  5
24D
100
AcDbEntity
  8
レイヤ1
100
AcDbVertex
100
AcDb2dVertex
 10
-45.85204448355
 20
1462.647231943
  0
VERTEX
  5
24E
100
AcDbEntity
  8
レイヤ1
100
AcDbVertex
100
AcDb2dVertex
 10
-47.33646318985
 20
1466.275811003
  0
VERTEX
  5
24F
100
AcDbEntity
  8
レイヤ1
100
AcDbVertex
100
AcDb2dVertex
 10
-48.49101107253
 20
1466.440746414
  0
VERTEX
  5
250
100
AcDbEntity
  8
レイヤ1
100
AcDbVertex
100
AcDb2dVertex
 10
-48.65594648434
 20
1465.12126312
  0
VERTEX
  5
251
100
AcDbEntity
  8
レイヤ1
100
AcDbVertex
100
AcDb2dVertex
 10
-46.51178613079
 20
1460.503071589
  0
VERTEX
  5
252
100
AcDbEntity
  8
レイヤ1
100
AcDbVertex
100
AcDb2dVertex
 10
-41.56372377645
 20
1456.379686294
  0
SEQEND
  5
253
100
AcDbEntity
  8
レイヤ1
  0
POLYLINE
  5
254
100
AcDbEntity
  8
レイヤ1
  6
CONTINUOUS
 62
     0
100
AcDb2dPolyline
 66
     1
 10
0
 20
0
 70
     1
  0
VERTEX
  5
255
100
AcDbEntity
  8
レイヤ1
100
AcDbVertex
100
AcDb2dVertex
 10
-57.39752331034
 20
1465.945940179
  0
VERTEX
  5
256
100
AcDbEntity
  8
レイヤ1
100
AcDbVertex
100
AcDb2dVertex
 10
-58.05726495758
 20
1467.760229709
  0
VERTEX
  5
257
100
AcDbEntity
  8
レイヤ1
100
AcDbVertex
100
AcDb2dVertex
 10
-58.05726495758
 20
1469.904390062
  0
VERTEX
  5
258
100
AcDbEntity
  8
レイヤ1
100
AcDbVertex
100
AcDb2dVertex
 10
-54.09881507411
 20
1469.739454651
  0
VERTEX
  5
259
100
AcDbEntity
  8
レイヤ1
100
AcDbVertex
100
AcDb2dVertex
 10
-55.25336295679
 20
1468.255035944
  0
SEQEND
  5
25A
100
AcDbEntity
  8
レイヤ1
  0
POLYLINE
  5
25B
100
AcDbEntity
  8
レイヤ1
  6
CONTINUOUS
 62
     0
100
AcDb2dPolyline
 66
     1
 10
0
 20
0
 70
     0
  0
VERTEX
  5
25C
100
AcDbEntity
  8
レイヤ1
100
AcDbVertex
100
AcDb2dVertex
 10
-79.33393308124
 20
1506.190180661
  0
VERTEX
  5
25D
100
AcDbEntity
  8
レイヤ1
100
AcDbVertex
100
AcDb2dVertex
 10
-85.10667249464
 20
1504.046020307
  0
VERTEX
  5
25E
100
AcDbEntity
  8
レイヤ1
100
AcDbVertex
100
AcDb2dVertex
 10
-90.71447649622
 20
1497.448603835
  0
VERTEX
  5
25F
100
AcDbEntity
  8
レイヤ1
100
AcDbVertex
100
AcDb2dVertex
 10
-98.63137626317
 20
1481.449868889
  0
VERTEX
  5
260
100
AcDbEntity
  8
レイヤ1
100
AcDbVertex
100
AcDb2dVertex
 10
-107.7028239128
 20
1468.584906768
  0
VERTEX
  5
261
100
AcDbEntity
  8
レイヤ1
100
AcDbVertex
100
AcDb2dVertex
 10
-115.1249174443
 20
1454.565396764
  0
VERTEX
  5
262
100
AcDbEntity
  8
レイヤ1
100
AcDbVertex
100
AcDb2dVertex
 10
-106.5482760301
 20
1469.574519239
  0
VERTEX
  5
263
100
AcDbEntity
  8
レイヤ1
100
AcDbVertex
100
AcDb2dVertex
 10
-97.80669920411
 20
1481.449868889
  0
VERTEX
  5
264
100
AcDbEntity
  8
レイヤ1
100
AcDbVertex
100
AcDb2dVertex
 10
-96.98202214505
 20
1480.790127242
  0
VERTEX
  5
265
100
AcDbEntity
  8
レイヤ1
100
AcDbVertex
100
AcDb2dVertex
 10
-98.30150543954
 20
1476.336871123
  0
VERTEX
  5
266
100
AcDbEntity
  8
レイヤ1
100
AcDbVertex
100
AcDb2dVertex
 10
-100.2807303813
 20
1467.925165121
  0
VERTEX
  5
267
100
AcDbEntity
  8
レイヤ1
100
AcDbVertex
100
AcDb2dVertex
 10
-100.2807303813
 20
1461.49268406
  0
VERTEX
  5
268
100
AcDbEntity
  8
レイヤ1
100
AcDbVertex
100
AcDb2dVertex
 10
-98.63137626317
 20
1459.183588295
  0
VERTEX
  5
269
100
AcDbEntity
  8
レイヤ1
100
AcDbVertex
100
AcDb2dVertex
 10
-95.82747426237
 20
1458.523846647
  0
SEQEND
  5
26A
100
AcDbEntity
  8
レイヤ1
  0
POLYLINE
  5
26B
100
AcDbEntity
  8
レイヤ1
  6
CONTINUOUS
 62
     0
100
AcDb2dPolyline
 66
     1
 10
0
 20
0
 70
     0
  0
VERTEX
  5
26C
100
AcDbEntity
  8
レイヤ1
100
AcDbVertex
100
AcDb2dVertex
 10
-97.5155132208
 20
1483.704842121
  0
VERTEX
  5
26D
100
AcDbEntity
  8
レイヤ1
100
AcDbVertex
100
AcDb2dVertex
 10
-104.5734661854
 20
1481.688284131
  0
VERTEX
  5
26E
100
AcDbEntity
  8
レイヤ1
100
AcDbVertex
100
AcDb2dVertex
 10
-109.5366660154
 20
1479.033549338
  0
VERTEX
  5
26F
100
AcDbEntity
  8
レイヤ1
100
AcDbVertex
100
AcDb2dVertex
 10
-110.1137822747
 20
1477.186777308
  0
VERTEX
  5
270
100
AcDbEntity
  8
レイヤ1
100
AcDbVertex
100
AcDb2dVertex
 10
-110.4600520303
 20
1470.838498456
  0
VERTEX
  5
271
100
AcDbEntity
  8
レイヤ1
100
AcDbVertex
100
AcDb2dVertex
 10
-109.5366660154
 20
1467.491224152
  0
VERTEX
  5
272
100
AcDbEntity
  8
レイヤ1
100
AcDbVertex
100
AcDb2dVertex
 10
-109.074973008
 20
1467.722070656
  0
VERTEX
  5
273
100
AcDbEntity
  8
レイヤ1
100
AcDbVertex
100
AcDb2dVertex
 10
-109.882935771
 20
1471.300191463
  0
VERTEX
  5
274
100
AcDbEntity
  8
レイヤ1
100
AcDbVertex
100
AcDb2dVertex
 10
-109.4212427636
 20
1477.071354056
  0
VERTEX
  5
275
100
AcDbEntity
  8
レイヤ1
100
AcDbVertex
100
AcDb2dVertex
 10
-108.6132800006
 20
1478.687279582
  0
VERTEX
  5
276
100
AcDbEntity
  8
レイヤ1
100
AcDbVertex
100
AcDb2dVertex
 10
-103.7655034224
 20
1480.764898116
  0
VERTEX
  5
277
100
AcDbEntity
  8
レイヤ1
100
AcDbVertex
100
AcDb2dVertex
 10
-98.41268512489
 20
1481.891807231
  0
SEQEND
  5
278
100
AcDbEntity
  8
レイヤ1
  0
LINE
  5
279
100
AcDbEntity
  8
レイヤ1
  6
CONTINUOUS
 62
     0
100
AcDbLine
 10
-96.37841530336
 20
1461.1429453
 11
-98.34061058499
 21
1462.181754566
  0
LINE
  5
27A
100
AcDbEntity
  8
レイヤ1
  6
CONTINUOUS
 62
     0
100
AcDbLine
 10
-98.34061058499
 20
1462.181754566
 11
-98.34061058499
 21
1465.413605619
  0
LINE
  5
27B
100
AcDbEntity
  8
レイヤ1
  6
CONTINUOUS
 62
     0
100
AcDbLine
 10
-98.34061058499
 20
1465.413605619
 11
-97.4172245701
 21
1470.4922287
  0
LINE
  5
27C
100
AcDbEntity
  8
レイヤ1
  6
CONTINUOUS
 62
     0
100
AcDbLine
 10
-97.4172245701
 20
1470.4922287
 11
-96.03214554778
 21
1473.724079752
  0
LINE
  5
27D
100
AcDbEntity
  8
レイヤ1
  6
CONTINUOUS
 62
     0
100
AcDbLine
 10
-96.03214554778
 20
1473.724079752
 11
-96.37841530336
 21
1466.221568382
  0
LINE
  5
27E
100
AcDbEntity
  8
レイヤ1
  6
CONTINUOUS
 62
     0
100
AcDbLine
 10
-96.37841530336
 20
1466.221568382
 11
-96.37841530336
 21
1461.1429453
  0
LINE
  5
27F
100
AcDbEntity
  8
レイヤ1
  6
CONTINUOUS
 62
     0
100
AcDbLine
 10
-95.82747426237
 20
1458.523846647
 11
-95.80129904406
 21
1451.21654564
  0
LINE
  5
280
100
AcDbEntity
  8
レイヤ1
  6
CONTINUOUS
 62
     0
100
AcDbLine
 10
-95.80129904406
 20
1451.21654564
 11
-94.30079676987
 21
1440.020490209
  0
LINE
  5
281
100
AcDbEntity
  8
レイヤ1
  6
CONTINUOUS
 62
     0
100
AcDbLine
 10
-94.30079676987
 20
1440.020490209
 11
-91.06894571779
 21
1433.556788105
  0
LINE
  5
282
100
AcDbEntity
  8
レイヤ1
  6
CONTINUOUS
 62
     0
100
AcDbLine
 10
-91.06894571779
 20
1433.556788105
 11
-85.5541611939
 21
1429.202296088
  0
LINE
  5
283
100
AcDbEntity
  8
レイヤ1
  6
CONTINUOUS
 62
     0
100
AcDbLine
 10
-85.5541611939
 20
1429.202296088
 11
-89.089457111
 21
1425.431313776
  0
LINE
  5
284
100
AcDbEntity
  8
レイヤ1
  6
CONTINUOUS
 62
     0
100
AcDbLine
 10
-89.089457111
 20
1425.431313776
 11
-92.86043942258
 21
1422.838763437
  0
LINE
  5
285
100
AcDbEntity
  8
レイヤ1
  6
CONTINUOUS
 62
     0
100
AcDbLine
 10
-92.86043942258
 20
1422.838763437
 11
-97.1027945231
 21
1421.42464507
  0
LINE
  5
286
100
AcDbEntity
  8
レイヤ1
  6
CONTINUOUS
 62
     0
100
AcDbLine
 10
-97.1027945231
 20
1421.42464507
 11
-93.80318500047
 21
1421.188958676
  0
LINE
  5
287
100
AcDbEntity
  8
レイヤ1
  6
CONTINUOUS
 62
     0
100
AcDbLine
 10
-93.80318500047
 20
1421.188958676
 11
-89.089457111
 21
1422.838763437
  0
LINE
  5
288
100
AcDbEntity
  8
レイヤ1
  6
CONTINUOUS
 62
     0
100
AcDbLine
 10
-89.089457111
 20
1422.838763437
 11
-85.5541611939
 21
1424.724254593
  0
LINE
  5
289
100
AcDbEntity
  8
レイヤ1
  6
CONTINUOUS
 62
     0
100
AcDbLine
 10
-85.5541611939
 20
1424.724254593
 11
-84.611415616
 21
1426.138372959
  0
LINE
  5
28A
100
AcDbEntity
  8
レイヤ1
  6
CONTINUOUS
 62
     0
100
AcDbLine
 10
-84.611415616
 20
1426.138372959
 11
-79.89768772653
 21
1418.360721942
  0
LINE
  5
28B
100
AcDbEntity
  8
レイヤ1
  6
CONTINUOUS
 62
     0
100
AcDbLine
 10
-79.89768772653
 20
1418.360721942
 11
-75.41964623154
 21
1415.061112419
  0
LINE
  5
28C
100
AcDbEntity
  8
レイヤ1
  6
CONTINUOUS
 62
     0
100
AcDbLine
 10
-75.41964623154
 20
1415.061112419
 11
-68.82042718628
 21
1412.232875686
  0
LINE
  5
28D
100
AcDbEntity
  8
レイヤ1
  6
CONTINUOUS
 62
     0
100
AcDbLine
 10
-68.82042718628
 20
1412.232875686
 11
-74.71258704812
 21
1416.239544392
  0
LINE
  5
28E
100
AcDbEntity
  8
レイヤ1
  6
CONTINUOUS
 62
     0
100
AcDbLine
 10
-74.71258704812
 20
1416.239544392
 11
-76.5980782039
 21
1418.832094731
  0
LINE
  5
28F
100
AcDbEntity
  8
レイヤ1
  6
CONTINUOUS
 62
     0
100
AcDbLine
 10
-76.5980782039
 20
1418.832094731
 11
-80.60474690995
 21
1425.195627382
  0
LINE
  5
290
100
AcDbEntity
  8
レイヤ1
  6
CONTINUOUS
 62
     0
100
AcDbLine
 10
-80.60474690995
 20
1425.195627382
 11
-80.13337412101
 21
1426.845432143
  0
LINE
  5
291
100
AcDbEntity
  8
レイヤ1
  6
CONTINUOUS
 62
     0
100
AcDbLine
 10
-80.13337412101
 20
1426.845432143
 11
-75.65533262601
 21
1423.781509015
  0
LINE
  5
292
100
AcDbEntity
  8
レイヤ1
  6
CONTINUOUS
 62
     0
100
AcDbLine
 10
-75.65533262601
 20
1423.781509015
 11
-67.17062242496
 21
1412.939934869
  0
LINE
  5
293
100
AcDbEntity
  8
レイヤ1
  6
CONTINUOUS
 62
     0
100
AcDbLine
 10
-67.17062242496
 20
1412.939934869
 11
-62.92826732444
 21
1409.404638952
  0
LINE
  5
294
100
AcDbEntity
  8
レイヤ1
  6
CONTINUOUS
 62
     0
100
AcDbLine
 10
-62.92826732444
 20
1409.404638952
 11
-68.34905439733
 21
1415.768171603
  0
LINE
  5
295
100
AcDbEntity
  8
レイヤ1
  6
CONTINUOUS
 62
     0
100
AcDbLine
 10
-68.34905439733
 20
1415.768171603
 11
-71.17729113101
 21
1420.953272281
  0
LINE
  5
296
100
AcDbEntity
  8
レイヤ1
  6
CONTINUOUS
 62
     0
100
AcDbLine
 10
-71.17729113101
 20
1420.953272281
 11
-69.99885915864
 21
1420.953272281
  0
LINE
  5
297
100
AcDbEntity
  8
レイヤ1
  6
CONTINUOUS
 62
     0
100
AcDbLine
 10
-69.99885915864
 20
1420.953272281
 11
-66.22787684707
 21
1418.596408336
  0
LINE
  5
298
100
AcDbEntity
  8
レイヤ1
  6
CONTINUOUS
 62
     0
100
AcDbLine
 10
-66.22787684707
 20
1418.596408336
 11
-63.63532650786
 21
1416.475230786
  0
LINE
  5
299
100
AcDbEntity
  8
レイヤ1
  6
CONTINUOUS
 62
     0
100
AcDbLine
 10
-63.63532650786
 20
1416.475230786
 11
-68.82042718628
 21
1422.131704253
  0
LINE
  5
29A
100
AcDbEntity
  8
レイヤ1
  6
CONTINUOUS
 62
     0
100
AcDbLine
 10
-68.82042718628
 20
1422.131704253
 11
-68.5847407918
 21
1423.310136226
  0
LINE
  5
29B
100
AcDbEntity
  8
レイヤ1
  6
CONTINUOUS
 62
     0
100
AcDbLine
 10
-69.13852786433
 20
1425.938853482
 11
-68.5847407918
 21
1423.310136226
  0
LINE
  5
29C
100
AcDbEntity
  8
レイヤ1
  6
CONTINUOUS
 62
     0
100
AcDbLine
 10
-68.5847407918
 20
1423.310136226
 11
-66.13752331596
 21
1421.321923408
  0
LINE
  5
29D
100
AcDbEntity
  8
レイヤ1
  6
CONTINUOUS
 62
     0
100
AcDbLine
 10
-66.13752331596
 20
1421.321923408
 11
-62.55940250829
 21
1418.551765363
  0
LINE
  5
29E
100
AcDbEntity
  8
レイヤ1
  6
CONTINUOUS
 62
     0
100
AcDbLine
 10
-62.55940250829
 20
1418.551765363
 11
-66.48379307154
 21
1423.284118689
  0
LINE
  5
29F
100
AcDbEntity
  8
レイヤ1
  6
CONTINUOUS
 62
     0
100
AcDbLine
 10
-66.48379307154
 20
1423.284118689
 11
-66.94548607898
 21
1425.477160475
  0
LINE
  5
2A0
100
AcDbEntity
  8
レイヤ1
  6
CONTINUOUS
 62
     0
100
AcDbLine
 10
-66.94548607898
 20
1425.477160475
 11
-64.75244429363
 21
1422.591579178
  0
LINE
  5
2A1
100
AcDbEntity
  8
レイヤ1
  6
CONTINUOUS
 62
     0
100
AcDbLine
 10
-64.75244429363
 20
1422.591579178
 11
-62.34558566468
 21
1421.248443578
  0
LINE
  5
2A2
100
AcDbEntity
  8
レイヤ1
  6
CONTINUOUS
 62
     0
100
AcDbLine
 10
-62.34558566468
 20
1421.248443578
 11
-67.29364801902
 21
1426.85624758
  0
LINE
  5
2A3
100
AcDbEntity
  8
レイヤ1
  6
CONTINUOUS
 62
     0
100
AcDbLine
 10
-67.29364801902
 20
1426.85624758
 11
-68.11832507807
 21
1428.67053711
  0
LINE
  5
2A4
100
AcDbEntity
  8
レイヤ1
  6
CONTINUOUS
 62
     0
100
AcDbLine
 10
-75.65533262601
 20
1423.781509015
 11
-74.71574155053
 21
1420.753637343
  0
LINE
  5
2A5
100
AcDbEntity
  8
レイヤ1
  6
CONTINUOUS
 62
     0
100
AcDbLine
 10
-74.71574155053
 20
1420.753637343
 11
-74.71574155053
 21
1419.104283225
  0
LINE
  5
2A6
100
AcDbEntity
  8
レイヤ1
  6
CONTINUOUS
 62
     0
100
AcDbLine
 10
-74.71574155053
 20
1419.104283225
 11
-75.65533262601
 21
1417.535819561
  0
LINE
  5
2A7
100
AcDbEntity
  8
レイヤ1
  6
CONTINUOUS
 62
     0
100
AcDbLine
 10
-73.2937649313
 20
1419.705997882
 11
-73.98630444246
 21
1417.859225852
  0
LINE
  5
2A8
100
AcDbEntity
  8
レイヤ1
  6
CONTINUOUS
 62
     0
100
AcDbLine
 10
-73.98630444246
 20
1417.859225852
 11
-74.71258704812
 21
1416.239544392
  0
LINE
  5
2A9
100
AcDbEntity
  8
レイヤ1
  6
CONTINUOUS
 62
     0
100
AcDbLine
 10
-73.24831590167
 20
1420.705876534
 11
-73.2937649313
 21
1419.705997882
  0
LINE
  5
2AA
100
AcDbEntity
  8
レイヤ1
  6
CONTINUOUS
 62
     0
100
AcDbLine
 10
-91.37421814347
 20
1452.256300999
 11
-91.04434731985
 21
1442.36017629
  0
LINE
  5
2AB
100
AcDbEntity
  8
レイヤ1
  6
CONTINUOUS
 62
     0
100
AcDbLine
 10
-91.04434731985
 20
1442.36017629
 11
-87.91057449543
 21
1435.432888994
  0
LINE
  5
2AC
100
AcDbEntity
  8
レイヤ1
  6
CONTINUOUS
 62
     0
100
AcDbLine
 10
-87.91057449543
 20
1435.432888994
 11
-83.62225378834
 21
1431.47443911
  0
LINE
  5
2AD
100
AcDbEntity
  8
レイヤ1
  6
CONTINUOUS
 62
     0
100
AcDbLine
 10
-83.62225378834
 20
1431.47443911
 11
-80.48848096392
 21
1430.649762051
  0
LINE
  5
2AE
100
AcDbEntity
  8
レイヤ1
  6
CONTINUOUS
 62
     0
100
AcDbLine
 10
-80.48848096392
 20
1430.649762051
 11
-85.43654331826
 21
1435.10301817
  0
LINE
  5
2AF
100
AcDbEntity
  8
レイヤ1
  6
CONTINUOUS
 62
     0
100
AcDbLine
 10
-85.43654331826
 20
1435.10301817
 11
-87.58070367181
 21
1439.061468054
  0
LINE
  5
2B0
100
AcDbEntity
  8
レイヤ1
  6
CONTINUOUS
 62
     0
100
AcDbLine
 10
-87.58070367181
 20
1439.061468054
 11
-88.9001869663
 21
1445.493949114
  0
LINE
  5
2B1
100
AcDbEntity
  8
レイヤ1
  6
CONTINUOUS
 62
     0
100
AcDbLine
 10
-88.9001869663
 20
1445.493949114
 11
-88.9001869663
 21
1448.792657351
  0
LINE
  5
2B2
100
AcDbEntity
  8
レイヤ1
  6
CONTINUOUS
 62
     0
100
AcDbLine
 10
-88.9001869663
 20
1448.792657351
 11
-91.37421814347
 21
1452.256300999
  0
LINE
  5
2B3
100
AcDbEntity
  8
レイヤ1
  6
CONTINUOUS
 62
     0
100
AcDbLine
 10
-84.61186625921
 20
1445.493949114
 11
-84.77680167102
 21
1441.040692995
  0
LINE
  5
2B4
100
AcDbEntity
  8
レイヤ1
  6
CONTINUOUS
 62
     0
100
AcDbLine
 10
-84.77680167102
 20
1441.040692995
 11
-83.1274475529
 21
1436.9173077
  0
LINE
  5
2B5
100
AcDbEntity
  8
レイヤ1
  6
CONTINUOUS
 62
     0
100
AcDbLine
 10
-83.1274475529
 20
1436.9173077
 11
-80.98328719936
 21
1434.278341111
  0
LINE
  5
2B6
100
AcDbEntity
  8
レイヤ1
  6
CONTINUOUS
 62
     0
100
AcDbLine
 10
-80.98328719936
 20
1434.278341111
 11
-81.6430288466
 21
1437.741984759
  0
LINE
  5
2B7
100
AcDbEntity
  8
レイヤ1
  6
CONTINUOUS
 62
     0
100
AcDbLine
 10
-81.6430288466
 20
1437.741984759
 11
-83.29238296471
 21
1440.216015936
  0
LINE
  5
2B8
100
AcDbEntity
  8
レイヤ1
  6
CONTINUOUS
 62
     0
100
AcDbLine
 10
-83.29238296471
 20
1440.216015936
 11
-83.451011095
 21
1441.982685491
  0
LINE
  5
2B9
100
AcDbEntity
  8
レイヤ1
  6
CONTINUOUS
 62
     0
100
AcDbLine
 10
-83.451011095
 20
1441.982685491
 11
-84.61186625921
 21
1445.493949114
  0
LINE
  5
2BA
100
AcDbEntity
  8
レイヤ1
  6
CONTINUOUS
 62
     0
100
AcDbLine
 10
-82.25455167127
 20
1422.249547451
 11
-83.29238296471
 21
1409.867900163
  0
LINE
  5
2BB
100
AcDbEntity
  8
レイヤ1
  6
CONTINUOUS
 62
     0
100
AcDbLine
 10
-83.29238296471
 20
1409.867900163
 11
-82.13783508204
 21
1400.46658169
  0
LINE
  5
2BC
100
AcDbEntity
  8
レイヤ1
  6
CONTINUOUS
 62
     0
100
AcDbLine
 10
-82.13783508204
 20
1400.46658169
 11
-79.99367472849
 21
1394.034100629
  0
LINE
  5
2BD
100
AcDbEntity
  8
レイヤ1
  6
CONTINUOUS
 62
     0
100
AcDbLine
 10
-79.99367472849
 20
1394.034100629
 11
-77.68457896313
 21
1392.054875688
  0
LINE
  5
2BE
100
AcDbEntity
  8
レイヤ1
  6
CONTINUOUS
 62
     0
100
AcDbLine
 10
-77.68457896313
 20
1392.054875688
 11
-79.56259374409
 21
1394.162810176
  0
LINE
  5
2BF
100
AcDbEntity
  8
レイヤ1
  6
CONTINUOUS
 62
     0
100
AcDbLine
 10
-79.56259374409
 20
1394.162810176
 11
-81.66272312211
 21
1400.140101482
  0
LINE
  5
2C0
100
AcDbEntity
  8
レイヤ1
  6
CONTINUOUS
 62
     0
100
AcDbLine
 10
-81.66272312211
 20
1400.140101482
 11
-82.63201360427
 21
1410.156103131
  0
LINE
  5
2C1
100
AcDbEntity
  8
レイヤ1
  6
CONTINUOUS
 62
     0
100
AcDbLine
 10
-82.63201360427
 20
1410.156103131
 11
-81.9858199495
 21
1417.183459127
  0
LINE
  5
2C2
100
AcDbEntity
  8
レイヤ1
  6
CONTINUOUS
 62
     0
100
AcDbLine
 10
-81.9858199495
 20
1417.183459127
 11
-81.33732016588
 21
1420.736115467
  0
LINE
  5
2C3
100
AcDbEntity
  8
レイヤ1
  6
CONTINUOUS
 62
     0
100
AcDbLine
 10
-78.1894322277
 20
1414.517910301
 11
-81.25885208787
 21
1411.690813061
  0
LINE
  5
2C4
100
AcDbEntity
  8
レイヤ1
  6
CONTINUOUS
 62
     0
100
AcDbLine
 10
-81.25885208787
 20
1411.690813061
 11
-82.510852294
 21
1411.20616782
  0
LINE
  5
2C5
100
AcDbEntity
  8
レイヤ1
  6
CONTINUOUS
 62
     0
100
AcDbLine
 10
-76.90353630841
 20
1416.154505107
 11
-78.1894322277
 21
1414.517910301
  0
LINE
  5
2C6
100
AcDbEntity
  8
レイヤ1
  6
CONTINUOUS
 62
     0
100
AcDbLine
 10
-75.41964623154
 20
1415.061112419
 11
-77.54323857292
 21
1413.063974578
  0
LINE
  5
2C7
100
AcDbEntity
  8
レイヤ1
  6
CONTINUOUS
 62
     0
100
AcDbLine
 10
-77.54323857292
 20
1413.063974578
 11
-80.12801319202
 21
1410.721522579
  0
LINE
  5
2C8
100
AcDbEntity
  8
レイヤ1
  6
CONTINUOUS
 62
     0
100
AcDbLine
 10
-80.12801319202
 20
1410.721522579
 11
-81.58194891526
 21
1410.075328924
  0
LINE
  5
2C9
100
AcDbEntity
  8
レイヤ1
  6
CONTINUOUS
 62
     0
100
AcDbLine
 10
-81.58194891526
 20
1410.075328924
 11
-82.63201360427
 21
1410.156103131
  0
LINE
  5
2CA
100
AcDbEntity
  8
レイヤ1
  6
CONTINUOUS
 62
     0
100
AcDbLine
 10
-85.24196259376
 20
1410.901449828
 11
-88.63355261739
 21
1411.071029329
  0
LINE
  5
2CB
100
AcDbEntity
  8
レイヤ1
  6
CONTINUOUS
 62
     0
100
AcDbLine
 10
-88.63355261739
 20
1411.071029329
 11
-89.87713562605
 21
1411.862400334
  0
LINE
  5
2CC
100
AcDbEntity
  8
レイヤ1
  6
CONTINUOUS
 62
     0
100
AcDbLine
 10
-89.87713562605
 20
1411.862400334
 11
-91.06419213432
 21
1413.049456843
  0
LINE
  5
2CD
100
AcDbEntity
  8
レイヤ1
  6
CONTINUOUS
 62
     0
100
AcDbLine
 10
-91.06419213432
 20
1413.049456843
 11
-89.87713562605
 21
1411.523241332
  0
LINE
  5
2CE
100
AcDbEntity
  8
レイヤ1
  6
CONTINUOUS
 62
     0
100
AcDbLine
 10
-89.87713562605
 20
1411.523241332
 11
-88.63355261739
 21
1410.562290825
  0
LINE
  5
2CF
100
AcDbEntity
  8
レイヤ1
  6
CONTINUOUS
 62
     0
100
AcDbLine
 10
-88.63355261739
 20
1410.562290825
 11
-87.38996960872
 21
1410.336184824
  0
LINE
  5
2D0
100
AcDbEntity
  8
レイヤ1
  6
CONTINUOUS
 62
     0
100
AcDbLine
 10
-87.38996960872
 20
1410.336184824
 11
-85.07238309258
 21
1410.110078822
  0
LINE
  5
2D1
100
AcDbEntity
  8
レイヤ1
  6
CONTINUOUS
 62
     0
100
AcDbLine
 10
-83.188460964
 20
1411.10772167
 11
-85.24196259376
 21
1410.901449828
  0
LINE
  5
2D2
100
AcDbEntity
  8
レイヤ1
  6
CONTINUOUS
 62
     0
100
AcDbLine
 10
-85.07238309258
 20
1410.110078822
 11
-83.26388956305
 21
1410.207835229
  0
LINE
  5
2D3
100
AcDbEntity
  8
レイヤ1
  6
CONTINUOUS
 62
     0
100
AcDbLine
 10
-55.74816919222
 20
1436.175098347
 11
-50.9650422497
 21
1435.762759818
  0
LINE
  5
2D4
100
AcDbEntity
  8
レイヤ1
  6
CONTINUOUS
 62
     0
100
AcDbLine
 10
-50.9650422497
 20
1435.762759818
 11
-50.80010683789
 21
1432.628986993
  0
LINE
  5
2D5
100
AcDbEntity
  8
レイヤ1
  6
CONTINUOUS
 62
     0
100
AcDbLine
 10
-50.80010683789
 20
1432.628986993
 11
-48.32607566072
 21
1424.052345579
  0
LINE
  5
2D6
100
AcDbEntity
  8
レイヤ1
  6
CONTINUOUS
 62
     0
100
AcDbLine
 10
-48.32607566072
 20
1424.052345579
 11
-45.95884692234
 21
1419.539153914
  0
LINE
  5
2D7
100
AcDbEntity
  8
レイヤ1
  6
CONTINUOUS
 62
     0
100
AcDbLine
 10
-45.95884692234
 20
1419.539153914
 11
-43.83766937208
 21
1416.946603575
  0
POLYLINE
  5
2D8
100
AcDbEntity
  8
レイヤ1
  6
CONTINUOUS
 62
     0
100
AcDb2dPolyline
 66
     1
 10
0
 20
0
 70
     0
  0
VERTEX
  5
2D9
100
AcDbEntity
  8
レイヤ1
100
AcDbVertex
100
AcDb2dVertex
 10
-21.60653894728
 20
1455.390073823
  0
VERTEX
  5
2DA
100
AcDbEntity
  8
レイヤ1
100
AcDbVertex
100
AcDb2dVertex
 10
-31.66759906777
 20
1428.505601698
  0
VERTEX
  5
2DB
100
AcDbEntity
  8
レイヤ1
100
AcDbVertex
100
AcDb2dVertex
 10
-37.77020930479
 20
1419.764024872
  0
VERTEX
  5
2DC
100
AcDbEntity
  8
レイヤ1
100
AcDbVertex
100
AcDb2dVertex
 10
-45.35723824811
 20
1411.847125105
  0
VERTEX
  5
2DD
100
AcDbEntity
  8
レイヤ1
100
AcDbVertex
100
AcDb2dVertex
 10
-56.24297542766
 20
1403.105548279
  0
VERTEX
  5
2DE
100
AcDbEntity
  8
レイヤ1
100
AcDbVertex
100
AcDb2dVertex
 10
-68.61313131351
 20
1398.487356748
  0
VERTEX
  5
2DF
100
AcDbEntity
  8
レイヤ1
100
AcDbVertex
100
AcDb2dVertex
 10
-62.18065025287
 20
1399.806840043
  0
VERTEX
  5
2E0
100
AcDbEntity
  8
レイヤ1
100
AcDbVertex
100
AcDb2dVertex
 10
-55.08842754498
 20
1401.951000396
  0
VERTEX
  5
2E1
100
AcDbEntity
  8
レイヤ1
100
AcDbVertex
100
AcDb2dVertex
 10
-49.31568813158
 20
1405.744514868
  0
VERTEX
  5
2E2
100
AcDbEntity
  8
レイヤ1
100
AcDbVertex
100
AcDb2dVertex
 10
-42.38840083551
 20
1410.692577222
  0
VERTEX
  5
2E3
100
AcDbEntity
  8
レイヤ1
100
AcDbVertex
100
AcDb2dVertex
 10
-34.47150106857
 20
1416.300381224
  0
VERTEX
  5
2E4
100
AcDbEntity
  8
レイヤ1
100
AcDbVertex
100
AcDb2dVertex
 10
-30.84292200872
 20
1420.588701931
  0
VERTEX
  5
2E5
100
AcDbEntity
  8
レイヤ1
100
AcDbVertex
100
AcDb2dVertex
 10
-44.78041494997
 20
1401.626987934
  0
VERTEX
  5
2E6
100
AcDbEntity
  8
レイヤ1
100
AcDbVertex
100
AcDb2dVertex
 10
-61.04277616865
 20
1380.650898826
  0
VERTEX
  5
2E7
100
AcDbEntity
  8
レイヤ1
100
AcDbVertex
100
AcDb2dVertex
 10
-68.82042718628
 20
1374.051679781
  0
VERTEX
  5
2E8
100
AcDbEntity
  8
レイヤ1
100
AcDbVertex
100
AcDb2dVertex
 10
-59.62865780181
 20
1380.179526037
  0
VERTEX
  5
2E9
100
AcDbEntity
  8
レイヤ1
100
AcDbVertex
100
AcDb2dVertex
 10
-50.43688841734
 20
1390.314040999
  0
VERTEX
  5
2EA
100
AcDbEntity
  8
レイヤ1
100
AcDbVertex
100
AcDb2dVertex
 10
-38.18119590471
 20
1407.283461402
  0
VERTEX
  5
2EB
100
AcDbEntity
  8
レイヤ1
100
AcDbVertex
100
AcDb2dVertex
 10
-33.23178162077
 20
1414.58973963
  0
VERTEX
  5
2EC
100
AcDbEntity
  8
レイヤ1
100
AcDbVertex
100
AcDb2dVertex
 10
-40.0666870605
 20
1396.441887256
  0
VERTEX
  5
2ED
100
AcDbEntity
  8
レイヤ1
100
AcDbVertex
100
AcDb2dVertex
 10
-51.14394760076
 20
1379.001094065
  0
VERTEX
  5
2EE
100
AcDbEntity
  8
レイヤ1
100
AcDbVertex
100
AcDb2dVertex
 10
-59.62865780181
 20
1366.745401552
  0
VERTEX
  5
2EF
100
AcDbEntity
  8
レイヤ1
100
AcDbVertex
100
AcDb2dVertex
 10
-49.0227700505
 20
1379.943839643
  0
VERTEX
  5
2F0
100
AcDbEntity
  8
レイヤ1
100
AcDbVertex
100
AcDb2dVertex
 10
-43.83766937208
 20
1387.957177055
  0
VERTEX
  5
2F1
100
AcDbEntity
  8
レイヤ1
100
AcDbVertex
100
AcDb2dVertex
 10
-38.18119590471
 20
1395.499141678
  0
VERTEX
  5
2F2
100
AcDbEntity
  8
レイヤ1
100
AcDbVertex
100
AcDb2dVertex
 10
-47.84433807813
 20
1379.236780459
  0
VERTEX
  5
2F3
100
AcDbEntity
  8
レイヤ1
100
AcDbVertex
100
AcDb2dVertex
 10
-59.15728501286
 20
1358.967750534
  0
VERTEX
  5
2F4
100
AcDbEntity
  8
レイヤ1
100
AcDbVertex
100
AcDb2dVertex
 10
-73.0627822868
 20
1341.526957343
  0
VERTEX
  5
2F5
100
AcDbEntity
  8
レイヤ1
100
AcDbVertex
100
AcDb2dVertex
 10
-57.97885304049
 20
1358.73206414
  0
VERTEX
  5
2F6
100
AcDbEntity
  8
レイヤ1
100
AcDbVertex
100
AcDb2dVertex
 10
-50.67257481181
 20
1370.752070258
  0
VERTEX
  5
2F7
100
AcDbEntity
  8
レイヤ1
100
AcDbVertex
100
AcDb2dVertex
 10
-38.65256869366
 20
1391.492472972
  0
VERTEX
  5
2F8
100
AcDbEntity
  8
レイヤ1
100
AcDbVertex
100
AcDb2dVertex
 10
-25.21844420867
 20
1418.360721942
  0
VERTEX
  5
2F9
100
AcDbEntity
  8
レイヤ1
100
AcDbVertex
100
AcDb2dVertex
 10
-20.03334353025
 20
1432.737592005
  0
VERTEX
  5
2FA
100
AcDbEntity
  8
レイヤ1
100
AcDbVertex
100
AcDb2dVertex
 10
-12.72706530157
 20
1448.999953223
  0
VERTEX
  5
2FB
100
AcDbEntity
  8
レイヤ1
100
AcDbVertex
100
AcDb2dVertex
 10
-1.178431972368
 20
1471.390160698
  0
VERTEX
  5
2FC
100
AcDbEntity
  8
レイヤ1
100
AcDbVertex
100
AcDb2dVertex
 10
11.31294693473
 20
1489.538013073
  0
VERTEX
  5
2FD
100
AcDbEntity
  8
レイヤ1
100
AcDbVertex
100
AcDb2dVertex
 10
14.84824285183
 20
1493.07330899
  0
SEQEND
  5
2FE
100
AcDbEntity
  8
レイヤ1
  0
POLYLINE
  5
2FF
100
AcDbEntity
  8
レイヤ1
  6
CONTINUOUS
 62
     0
100
AcDb2dPolyline
 66
     1
 10
0
 20
0
 70
     0
  0
VERTEX
  5
300
100
AcDbEntity
  8
レイヤ1
100
AcDbVertex
100
AcDb2dVertex
 10
-40.41442108514
 20
1379.14211953
  0
VERTEX
  5
301
100
AcDbEntity
  8
レイヤ1
100
AcDbVertex
100
AcDb2dVertex
 10
-35.69940529187
 20
1389.582511644
  0
VERTEX
  5
302
100
AcDbEntity
  8
レイヤ1
100
AcDbVertex
100
AcDb2dVertex
 10
-25.93258686296
 20
1405.074706393
  0
VERTEX
  5
303
100
AcDbEntity
  8
レイヤ1
100
AcDbVertex
100
AcDb2dVertex
 10
-22.22793159682
 20
1409.452935344
  0
VERTEX
  5
304
100
AcDbEntity
  8
レイヤ1
100
AcDbVertex
100
AcDb2dVertex
 10
-23.91186580871
 20
1399.349330073
  0
VERTEX
  5
305
100
AcDbEntity
  8
レイヤ1
100
AcDbVertex
100
AcDb2dVertex
 10
-29.97402897148
 20
1381.162840585
  0
VERTEX
  5
306
100
AcDbEntity
  8
レイヤ1
100
AcDbVertex
100
AcDb2dVertex
 10
-22.90150528158
 20
1393.28716691
  0
VERTEX
  5
307
100
AcDbEntity
  8
レイヤ1
100
AcDbVertex
100
AcDb2dVertex
 10
-18.86006317306
 20
1404.737919551
  0
VERTEX
  5
308
100
AcDbEntity
  8
レイヤ1
100
AcDbVertex
100
AcDb2dVertex
 10
-18.18648948831
 20
1412.484016926
  0
VERTEX
  5
309
100
AcDbEntity
  8
レイヤ1
100
AcDbVertex
100
AcDb2dVertex
 10
-16.50255527643
 20
1425.618703778
  0
VERTEX
  5
30A
100
AcDbEntity
  8
レイヤ1
100
AcDbVertex
100
AcDb2dVertex
 10
-16.50255527643
 20
1428.986572202
  0
VERTEX
  5
30B
100
AcDbEntity
  8
レイヤ1
100
AcDbVertex
100
AcDb2dVertex
 10
-6.735736847523
 20
1442.794832739
  0
VERTEX
  5
30C
100
AcDbEntity
  8
レイヤ1
100
AcDbVertex
100
AcDb2dVertex
 10
-8.419671059403
 20
1425.281916936
  0
VERTEX
  5
30D
100
AcDbEntity
  8
レイヤ1
100
AcDbVertex
100
AcDb2dVertex
 10
-15.4921947493
 20
1406.08506692
  0
VERTEX
  5
30E
100
AcDbEntity
  8
レイヤ1
100
AcDbVertex
100
AcDb2dVertex
 10
-21.55435791207
 20
1391.940019541
  0
VERTEX
  5
30F
100
AcDbEntity
  8
レイヤ1
100
AcDbVertex
100
AcDb2dVertex
 10
-38.39370003088
 20
1363.649924781
  0
VERTEX
  5
310
100
AcDbEntity
  8
レイヤ1
100
AcDbVertex
100
AcDb2dVertex
 10
-54.22268162256
 20
1348.157730032
  0
VERTEX
  5
311
100
AcDbEntity
  8
レイヤ1
100
AcDbVertex
100
AcDb2dVertex
 10
-60.95841847008
 20
1338.727698445
  0
VERTEX
  5
312
100
AcDbEntity
  8
レイヤ1
100
AcDbVertex
100
AcDb2dVertex
 10
-61.63199215483
 20
1333.339108967
  0
SEQEND
  5
313
100
AcDbEntity
  8
レイヤ1
  0
POLYLINE
  5
314
100
AcDbEntity
  8
レイヤ1
  6
CONTINUOUS
 62
     0
100
AcDb2dPolyline
 66
     1
 10
0
 20
0
 70
     0
  0
VERTEX
  5
315
100
AcDbEntity
  8
レイヤ1
100
AcDbVertex
100
AcDb2dVertex
 10
-38.39370003088
 20
1363.649924781
  0
VERTEX
  5
316
100
AcDbEntity
  8
レイヤ1
100
AcDbVertex
100
AcDb2dVertex
 10
-13.19843809052
 20
1402.805419907
  0
VERTEX
  5
317
100
AcDbEntity
  8
レイヤ1
100
AcDbVertex
100
AcDb2dVertex
 10
-7.30627822868
 20
1414.354053236
  0
VERTEX
  5
318
100
AcDbEntity
  8
レイヤ1
100
AcDbVertex
100
AcDb2dVertex
 10
-16.49804761315
 20
1394.5563961
  0
VERTEX
  5
319
100
AcDbEntity
  8
レイヤ1
100
AcDbVertex
100
AcDb2dVertex
 10
-26.16118978656
 20
1378.76540767
  0
VERTEX
  5
31A
100
AcDbEntity
  8
レイヤ1
100
AcDbVertex
100
AcDb2dVertex
 10
-7.30627822868
 20
1407.990520585
  0
VERTEX
  5
31B
100
AcDbEntity
  8
レイヤ1
100
AcDbVertex
100
AcDb2dVertex
 10
4.949414283945
 20
1432.50190561
  0
VERTEX
  5
31C
100
AcDbEntity
  8
レイヤ1
100
AcDbVertex
100
AcDb2dVertex
 10
12.79790001029
 20
1450.540930114
  0
VERTEX
  5
31D
100
AcDbEntity
  8
レイヤ1
100
AcDbVertex
100
AcDb2dVertex
 10
20.88078422732
 20
1475.126369607
  0
VERTEX
  5
31E
100
AcDbEntity
  8
レイヤ1
100
AcDbVertex
100
AcDb2dVertex
 10
20.88078422732
 20
1478.831024874
  0
SEQEND
  5
31F
100
AcDbEntity
  8
レイヤ1
  0
POLYLINE
  5
320
100
AcDbEntity
  8
レイヤ1
  6
CONTINUOUS
 62
     0
100
AcDb2dPolyline
 66
     1
 10
0
 20
0
 70
     0
  0
VERTEX
  5
321
100
AcDbEntity
  8
レイヤ1
100
AcDbVertex
100
AcDb2dVertex
 10
15.31961564078
 20
1496.608604907
  0
VERTEX
  5
322
100
AcDbEntity
  8
レイヤ1
100
AcDbVertex
100
AcDb2dVertex
 10
14.84824285183
 20
1493.07330899
  0
VERTEX
  5
323
100
AcDbEntity
  8
レイヤ1
100
AcDbVertex
100
AcDb2dVertex
 10
17.67647958552
 20
1485.059971578
  0
VERTEX
  5
324
100
AcDbEntity
  8
レイヤ1
100
AcDbVertex
100
AcDb2dVertex
 10
20.88078422732
 20
1478.831024874
  0
VERTEX
  5
325
100
AcDbEntity
  8
レイヤ1
100
AcDbVertex
100
AcDb2dVertex
 10
29.46079930919
 20
1472.097219882
  0
VERTEX
  5
326
100
AcDbEntity
  8
レイヤ1
100
AcDbVertex
100
AcDb2dVertex
 10
40.77374624392
 20
1465.969373625
  0
VERTEX
  5
327
100
AcDbEntity
  8
レイヤ1
100
AcDbVertex
100
AcDb2dVertex
 10
45.25178773892
 20
1464.555255259
  0
SEQEND
  5
328
100
AcDbEntity
  8
レイヤ1
  0
POLYLINE
  5
329
100
AcDbEntity
  8
レイヤ1
  6
CONTINUOUS
 62
     0
100
AcDb2dPolyline
 66
     1
 10
0
 20
0
 70
     0
  0
VERTEX
  5
32A
100
AcDbEntity
  8
レイヤ1
100
AcDbVertex
100
AcDb2dVertex
 10
19.27863190642
 20
1481.945498226
  0
VERTEX
  5
32B
100
AcDbEntity
  8
レイヤ1
100
AcDbVertex
100
AcDb2dVertex
 10
16.26236121867
 20
1470.44741512
  0
VERTEX
  5
32C
100
AcDbEntity
  8
レイヤ1
100
AcDbVertex
100
AcDb2dVertex
 10
7.541964623154
 20
1448.29289404
  0
VERTEX
  5
32D
100
AcDbEntity
  8
レイヤ1
100
AcDbVertex
100
AcDb2dVertex
 10
1.414118366841
 20
1430.616414454
  0
VERTEX
  5
32E
100
AcDbEntity
  8
レイヤ1
100
AcDbVertex
100
AcDb2dVertex
 10
-2.828236733683
 20
1418.832094731
  0
SEQEND
  5
32F
100
AcDbEntity
  8
レイヤ1
  0
POLYLINE
  5
330
100
AcDbEntity
  8
レイヤ1
  6
CONTINUOUS
 62
     0
100
AcDb2dPolyline
 66
     1
 10
0
 20
0
 70
     0
  0
VERTEX
  5
331
100
AcDbEntity
  8
レイヤ1
100
AcDbVertex
100
AcDb2dVertex
 10
-46.51178613079
 20
1368.469111798
  0
VERTEX
  5
332
100
AcDbEntity
  8
レイヤ1
100
AcDbVertex
100
AcDb2dVertex
 10
-46.34685071898
 20
1365.335338974
  0
VERTEX
  5
333
100
AcDbEntity
  8
レイヤ1
100
AcDbVertex
100
AcDb2dVertex
 10
-51.95465472056
 20
1361.211953679
  0
VERTEX
  5
334
100
AcDbEntity
  8
レイヤ1
100
AcDbVertex
100
AcDb2dVertex
 10
-60.86116695838
 20
1351.810635206
  0
VERTEX
  5
335
100
AcDbEntity
  8
レイヤ1
100
AcDbVertex
100
AcDb2dVertex
 10
-65.97416472453
 20
1344.223606262
  0
VERTEX
  5
336
100
AcDbEntity
  8
レイヤ1
100
AcDbVertex
100
AcDb2dVertex
 10
-60.20142531113
 20
1351.645699794
  0
VERTEX
  5
337
100
AcDbEntity
  8
レイヤ1
100
AcDbVertex
100
AcDb2dVertex
 10
-54.59362130955
 20
1356.593762148
  0
VERTEX
  5
338
100
AcDbEntity
  8
レイヤ1
100
AcDbVertex
100
AcDb2dVertex
 10
-50.9650422497
 20
1360.38727662
  0
VERTEX
  5
339
100
AcDbEntity
  8
レイヤ1
100
AcDbVertex
100
AcDb2dVertex
 10
-46.34685071898
 20
1362.036630738
  0
VERTEX
  5
33A
100
AcDbEntity
  8
レイヤ1
100
AcDbVertex
100
AcDb2dVertex
 10
-46.34685071898
 20
1360.552212032
  0
VERTEX
  5
33B
100
AcDbEntity
  8
レイヤ1
100
AcDbVertex
100
AcDb2dVertex
 10
-48.49101107253
 20
1358.408051678
  0
VERTEX
  5
33C
100
AcDbEntity
  8
レイヤ1
100
AcDbVertex
100
AcDb2dVertex
 10
-51.78971930875
 20
1356.428826736
  0
VERTEX
  5
33D
100
AcDbEntity
  8
レイヤ1
100
AcDbVertex
100
AcDb2dVertex
 10
-54.42868589773
 20
1356.263891324
  0
VERTEX
  5
33E
100
AcDbEntity
  8
レイヤ1
100
AcDbVertex
100
AcDb2dVertex
 10
-50.9650422497
 20
1356.428826736
  0
VERTEX
  5
33F
100
AcDbEntity
  8
レイヤ1
100
AcDbVertex
100
AcDb2dVertex
 10
-47.83126942528
 20
1357.583374619
  0
VERTEX
  5
340
100
AcDbEntity
  8
レイヤ1
100
AcDbVertex
100
AcDb2dVertex
 10
-46.51178613079
 20
1358.408051678
  0
VERTEX
  5
341
100
AcDbEntity
  8
レイヤ1
100
AcDbVertex
100
AcDb2dVertex
 10
-46.51178613079
 20
1351.975570617
  0
VERTEX
  5
342
100
AcDbEntity
  8
レイヤ1
100
AcDbVertex
100
AcDb2dVertex
 10
-48.98581730796
 20
1349.336604028
  0
VERTEX
  5
343
100
AcDbEntity
  8
レイヤ1
100
AcDbVertex
100
AcDb2dVertex
 10
-51.62478389694
 20
1348.017120734
  0
VERTEX
  5
344
100
AcDbEntity
  8
レイヤ1
100
AcDbVertex
100
AcDb2dVertex
 10
-48.32607566072
 20
1349.336604028
  0
VERTEX
  5
345
100
AcDbEntity
  8
レイヤ1
100
AcDbVertex
100
AcDb2dVertex
 10
-46.6767215426
 20
1350.656087323
  0
VERTEX
  5
346
100
AcDbEntity
  8
レイヤ1
100
AcDbVertex
100
AcDb2dVertex
 10
-47.17152777804
 20
1345.87296038
  0
VERTEX
  5
347
100
AcDbEntity
  8
レイヤ1
100
AcDbVertex
100
AcDb2dVertex
 10
-50.63517142607
 20
1342.904122968
  0
VERTEX
  5
348
100
AcDbEntity
  8
レイヤ1
100
AcDbVertex
100
AcDb2dVertex
 10
-57.06765248672
 20
1339.110608496
  0
VERTEX
  5
349
100
AcDbEntity
  8
レイヤ1
100
AcDbVertex
100
AcDb2dVertex
 10
-52.94426719143
 20
1341.089833438
  0
VERTEX
  5
34A
100
AcDbEntity
  8
レイヤ1
100
AcDbVertex
100
AcDb2dVertex
 10
-47.50139860166
 20
1344.388541674
  0
VERTEX
  5
34B
100
AcDbEntity
  8
レイヤ1
100
AcDbVertex
100
AcDb2dVertex
 10
-47.83126942528
 20
1340.924898026
  0
VERTEX
  5
34C
100
AcDbEntity
  8
レイヤ1
100
AcDbVertex
100
AcDb2dVertex
 10
-51.45984848513
 20
1337.791125202
  0
VERTEX
  5
34D
100
AcDbEntity
  8
レイヤ1
100
AcDbVertex
100
AcDb2dVertex
 10
-53.43907342687
 20
1334.327481554
  0
VERTEX
  5
34E
100
AcDbEntity
  8
レイヤ1
100
AcDbVertex
100
AcDb2dVertex
 10
-53.60400883868
 20
1331.358644141
  0
VERTEX
  5
34F
100
AcDbEntity
  8
レイヤ1
100
AcDbVertex
100
AcDb2dVertex
 10
-52.449460956
 20
1328.059935905
  0
VERTEX
  5
350
100
AcDbEntity
  8
レイヤ1
100
AcDbVertex
100
AcDb2dVertex
 10
-50.63517142607
 20
1327.400194257
  0
VERTEX
  5
351
100
AcDbEntity
  8
レイヤ1
100
AcDbVertex
100
AcDb2dVertex
 10
-51.85704079564
 20
1328.089508975
  0
VERTEX
  5
352
100
AcDbEntity
  8
レイヤ1
100
AcDbVertex
100
AcDb2dVertex
 10
-52.42246024357
 20
1329.058799457
  0
VERTEX
  5
353
100
AcDbEntity
  8
レイヤ1
100
AcDbVertex
100
AcDb2dVertex
 10
-53.23020231204
 20
1331.562799869
  0
VERTEX
  5
354
100
AcDbEntity
  8
レイヤ1
100
AcDbVertex
100
AcDb2dVertex
 10
-52.8263312778
 20
1334.551445523
  0
VERTEX
  5
355
100
AcDbEntity
  8
レイヤ1
100
AcDbVertex
100
AcDb2dVertex
 10
-51.13007293402
 20
1337.216994349
  0
VERTEX
  5
356
100
AcDbEntity
  8
レイヤ1
100
AcDbVertex
100
AcDb2dVertex
 10
-48.70684672862
 20
1338.428607451
  0
VERTEX
  5
357
100
AcDbEntity
  8
レイヤ1
100
AcDbVertex
100
AcDb2dVertex
 10
-47.57600783276
 20
1338.509381658
  0
VERTEX
  5
358
100
AcDbEntity
  8
レイヤ1
100
AcDbVertex
100
AcDb2dVertex
 10
-46.97726350715
 20
1335.331600772
  0
VERTEX
  5
359
100
AcDbEntity
  8
レイヤ1
100
AcDbVertex
100
AcDb2dVertex
 10
-46.63099375156
 20
1327.021126638
  0
VERTEX
  5
35A
100
AcDbEntity
  8
レイヤ1
100
AcDbVertex
100
AcDb2dVertex
 10
-45.59218448482
 20
1319.403192015
  0
VERTEX
  5
35B
100
AcDbEntity
  8
レイヤ1
100
AcDbVertex
100
AcDb2dVertex
 10
-43.21307789456
 20
1314.040425901
  0
VERTEX
  5
35C
100
AcDbEntity
  8
レイヤ1
100
AcDbVertex
100
AcDb2dVertex
 10
-38.59488636385
 20
1309.092363546
  0
VERTEX
  5
35D
100
AcDbEntity
  8
レイヤ1
100
AcDbVertex
100
AcDb2dVertex
 10
-34.47150106857
 20
1307.60794484
  0
VERTEX
  5
35E
100
AcDbEntity
  8
レイヤ1
100
AcDbVertex
100
AcDb2dVertex
 10
-38.59488636385
 20
1310.411846841
  0
VERTEX
  5
35F
100
AcDbEntity
  8
レイヤ1
100
AcDbVertex
100
AcDb2dVertex
 10
-39.74943424653
 20
1312.061200959
  0
VERTEX
  5
360
100
AcDbEntity
  8
レイヤ1
100
AcDbVertex
100
AcDb2dVertex
 10
-36.94553224573
 20
1311.2365239
  0
VERTEX
  5
361
100
AcDbEntity
  8
レイヤ1
100
AcDbVertex
100
AcDb2dVertex
 10
-40.24424048196
 20
1313.875490489
  0
VERTEX
  5
362
100
AcDbEntity
  8
レイヤ1
100
AcDbVertex
100
AcDb2dVertex
 10
-41.56372377645
 20
1317.669004961
  0
VERTEX
  5
363
100
AcDbEntity
  8
レイヤ1
100
AcDbVertex
100
AcDb2dVertex
 10
-40.07930507015
 20
1316.514457078
  0
VERTEX
  5
364
100
AcDbEntity
  8
レイヤ1
100
AcDbVertex
100
AcDb2dVertex
 10
-36.12085518668
 20
1315.689780019
  0
VERTEX
  5
365
100
AcDbEntity
  8
レイヤ1
100
AcDbVertex
100
AcDb2dVertex
 10
-39.4195634229
 20
1318.49368202
  0
VERTEX
  5
366
100
AcDbEntity
  8
レイヤ1
100
AcDbVertex
100
AcDb2dVertex
 10
-40.57411130558
 20
1321.792390256
  0
VERTEX
  5
367
100
AcDbEntity
  8
レイヤ1
100
AcDbVertex
100
AcDb2dVertex
 10
-40.57411130558
 20
1322.617067315
  0
VERTEX
  5
368
100
AcDbEntity
  8
レイヤ1
100
AcDbVertex
100
AcDb2dVertex
 10
-37.77020930479
 20
1320.143036138
  0
VERTEX
  5
369
100
AcDbEntity
  8
レイヤ1
100
AcDbVertex
100
AcDb2dVertex
 10
-33.97669483313
 20
1318.328746608
  0
VERTEX
  5
36A
100
AcDbEntity
  8
レイヤ1
100
AcDbVertex
100
AcDb2dVertex
 10
-38.10008012841
 20
1323.771615198
  0
VERTEX
  5
36B
100
AcDbEntity
  8
レイヤ1
100
AcDbVertex
100
AcDb2dVertex
 10
-39.4195634229
 20
1327.730065081
  0
VERTEX
  5
36C
100
AcDbEntity
  8
レイヤ1
100
AcDbVertex
100
AcDb2dVertex
 10
-35.79098436306
 20
1324.431356845
  0
VERTEX
  5
36D
100
AcDbEntity
  8
レイヤ1
100
AcDbVertex
100
AcDb2dVertex
 10
-27.21434294887
 20
1316.349521666
  0
SEQEND
  5
36E
100
AcDbEntity
  8
レイヤ1
  0
POLYLINE
  5
36F
100
AcDbEntity
  8
レイヤ1
  6
CONTINUOUS
 62
     0
100
AcDb2dPolyline
 66
     1
 10
0
 20
0
 70
     0
  0
VERTEX
  5
370
100
AcDbEntity
  8
レイヤ1
100
AcDbVertex
100
AcDb2dVertex
 10
21.44746189709
 20
1483.410166817
  0
VERTEX
  5
371
100
AcDbEntity
  8
レイヤ1
100
AcDbVertex
100
AcDb2dVertex
 10
31.34629046498
 20
1475.396829404
  0
VERTEX
  5
372
100
AcDbEntity
  8
レイヤ1
100
AcDbVertex
100
AcDb2dVertex
 10
43.60198297761
 20
1468.797610359
  0
VERTEX
  5
373
100
AcDbEntity
  8
レイヤ1
100
AcDbVertex
100
AcDb2dVertex
 10
50.20120202287
 20
1455.12779948
  0
VERTEX
  5
374
100
AcDbEntity
  8
レイヤ1
100
AcDbVertex
100
AcDb2dVertex
 10
63.63532650786
 20
1428.730923299
  0
VERTEX
  5
375
100
AcDbEntity
  8
レイヤ1
100
AcDbVertex
100
AcDb2dVertex
 10
78.48356935969
 20
1398.563064806
  0
VERTEX
  5
376
100
AcDbEntity
  8
レイヤ1
100
AcDbVertex
100
AcDb2dVertex
 10
88.14671153311
 20
1390.078354605
  0
VERTEX
  5
377
100
AcDbEntity
  8
レイヤ1
100
AcDbVertex
100
AcDb2dVertex
 10
78.71925575416
 20
1401.862674329
  0
VERTEX
  5
378
100
AcDbEntity
  8
レイヤ1
100
AcDbVertex
100
AcDb2dVertex
 10
77.5408237818
 20
1406.340715824
  0
VERTEX
  5
379
100
AcDbEntity
  8
レイヤ1
100
AcDbVertex
100
AcDb2dVertex
 10
84.37572922153
 20
1397.856005623
  0
VERTEX
  5
37A
100
AcDbEntity
  8
レイヤ1
100
AcDbVertex
100
AcDb2dVertex
 10
87.91102513863
 20
1395.027768889
  0
VERTEX
  5
37B
100
AcDbEntity
  8
レイヤ1
100
AcDbVertex
100
AcDb2dVertex
 10
90.03220268889
 20
1386.071685899
  0
VERTEX
  5
37C
100
AcDbEntity
  8
レイヤ1
100
AcDbVertex
100
AcDb2dVertex
 10
88.38239792758
 20
1397.384632834
  0
VERTEX
  5
37D
100
AcDbEntity
  8
レイヤ1
100
AcDbVertex
100
AcDb2dVertex
 10
79.89768772653
 20
1411.290130108
  0
VERTEX
  5
37E
100
AcDbEntity
  8
レイヤ1
100
AcDbVertex
100
AcDb2dVertex
 10
74.24121425917
 20
1427.316804932
  0
VERTEX
  5
37F
100
AcDbEntity
  8
レイヤ1
100
AcDbVertex
100
AcDb2dVertex
 10
71.41297752548
 20
1442.872106967
  0
VERTEX
  5
380
100
AcDbEntity
  8
レイヤ1
100
AcDbVertex
100
AcDb2dVertex
 10
77.77651017627
 20
1423.781509015
  0
VERTEX
  5
381
100
AcDbEntity
  8
レイヤ1
100
AcDbVertex
100
AcDb2dVertex
 10
90.26788908337
 20
1410.583070924
  0
VERTEX
  5
382
100
AcDbEntity
  8
レイヤ1
100
AcDbVertex
100
AcDb2dVertex
 10
99.69534486231
 20
1395.027768889
  0
VERTEX
  5
383
100
AcDbEntity
  8
レイヤ1
100
AcDbVertex
100
AcDb2dVertex
 10
106.530250302
 20
1382.772076376
  0
SEQEND
  5
384
100
AcDbEntity
  8
レイヤ1
  0
POLYLINE
  5
385
100
AcDbEntity
  8
レイヤ1
  6
CONTINUOUS
 62
     0
100
AcDb2dPolyline
 66
     1
 10
0
 20
0
 70
     0
  0
VERTEX
  5
386
100
AcDbEntity
  8
レイヤ1
100
AcDbVertex
100
AcDb2dVertex
 10
35.11727277656
 20
1469.033296754
  0
VERTEX
  5
387
100
AcDbEntity
  8
レイヤ1
100
AcDbVertex
100
AcDb2dVertex
 10
40.30237345498
 20
1456.306231452
  0
VERTEX
  5
388
100
AcDbEntity
  8
レイヤ1
100
AcDbVertex
100
AcDb2dVertex
 10
49.96551562839
 20
1443.57916615
  0
VERTEX
  5
389
100
AcDbEntity
  8
レイヤ1
100
AcDbVertex
100
AcDb2dVertex
 10
58.92159861839
 20
1433.208964794
  0
VERTEX
  5
38A
100
AcDbEntity
  8
レイヤ1
100
AcDbVertex
100
AcDb2dVertex
 10
59.15728501286
 20
1426.845432143
  0
VERTEX
  5
38B
100
AcDbEntity
  8
レイヤ1
100
AcDbVertex
100
AcDb2dVertex
 10
64.1066992968
 20
1420.010526703
  0
VERTEX
  5
38C
100
AcDbEntity
  8
レイヤ1
100
AcDbVertex
100
AcDb2dVertex
 10
71.05944793377
 20
1413.646994052
  0
SEQEND
  5
38D
100
AcDbEntity
  8
レイヤ1
  0
POLYLINE
  5
38E
100
AcDbEntity
  8
レイヤ1
  6
CONTINUOUS
 62
     0
100
AcDb2dPolyline
 66
     1
 10
0
 20
0
 70
     0
  0
VERTEX
  5
38F
100
AcDbEntity
  8
レイヤ1
100
AcDbVertex
100
AcDb2dVertex
 10
57.97885304049
 20
1573.206683111
  0
VERTEX
  5
390
100
AcDbEntity
  8
レイヤ1
100
AcDbVertex
100
AcDb2dVertex
 10
46.66590610576
 20
1580.51296134
  0
VERTEX
  5
391
100
AcDbEntity
  8
レイヤ1
100
AcDbVertex
100
AcDb2dVertex
 10
38.65256869366
 20
1589.940417119
  0
VERTEX
  5
392
100
AcDbEntity
  8
レイヤ1
100
AcDbVertex
100
AcDb2dVertex
 10
32.28903604288
 20
1598.660813714
  0
VERTEX
  5
393
100
AcDbEntity
  8
レイヤ1
100
AcDbVertex
100
AcDb2dVertex
 10
29.22511291472
 20
1598.660813714
  0
VERTEX
  5
394
100
AcDbEntity
  8
レイヤ1
100
AcDbVertex
100
AcDb2dVertex
 10
20.74040271367
 20
1594.654145008
  0
VERTEX
  5
395
100
AcDbEntity
  8
レイヤ1
100
AcDbVertex
100
AcDb2dVertex
 10
13.90549727394
 20
1588.290612357
  0
VERTEX
  5
396
100
AcDbEntity
  8
レイヤ1
100
AcDbVertex
100
AcDb2dVertex
 10
13.43412448499
 20
1586.169434807
  0
VERTEX
  5
397
100
AcDbEntity
  8
レイヤ1
100
AcDbVertex
100
AcDb2dVertex
 10
14.37687006289
 20
1587.583553174
  0
VERTEX
  5
398
100
AcDbEntity
  8
レイヤ1
100
AcDbVertex
100
AcDb2dVertex
 10
18.14785237446
 20
1588.526298752
  0
VERTEX
  5
399
100
AcDbEntity
  8
レイヤ1
100
AcDbVertex
100
AcDb2dVertex
 10
20.97608910815
 20
1588.290612357
  0
VERTEX
  5
39A
100
AcDbEntity
  8
レイヤ1
100
AcDbVertex
100
AcDb2dVertex
 10
18.85491155788
 20
1586.169434807
  0
VERTEX
  5
39B
100
AcDbEntity
  8
レイヤ1
100
AcDbVertex
100
AcDb2dVertex
 10
13.66981087947
 20
1583.576884468
  0
VERTEX
  5
39C
100
AcDbEntity
  8
レイヤ1
100
AcDbVertex
100
AcDb2dVertex
 10
9.796558977812
 20
1580.33054525
  0
SEQEND
  5
39D
100
AcDbEntity
  8
レイヤ1
  0
POLYLINE
  5
39E
100
AcDbEntity
  8
レイヤ1
  6
CONTINUOUS
 62
     0
100
AcDb2dPolyline
 66
     1
 10
0
 20
0
 70
     0
  0
VERTEX
  5
39F
100
AcDbEntity
  8
レイヤ1
100
AcDbVertex
100
AcDb2dVertex
 10
8.249023806574
 20
1578.863156578
  0
VERTEX
  5
3A0
100
AcDbEntity
  8
レイヤ1
100
AcDbVertex
100
AcDb2dVertex
 10
5.937674825207
 20
1577.607213975
  0
VERTEX
  5
3A1
100
AcDbEntity
  8
レイヤ1
100
AcDbVertex
100
AcDb2dVertex
 10
3.958449883472
 20
1576.205262975
  0
SEQEND
  5
3A2
100
AcDbEntity
  8
レイヤ1
  0
POLYLINE
  5
3A3
100
AcDbEntity
  8
レイヤ1
  6
CONTINUOUS
 62
     0
100
AcDb2dPolyline
 66
     1
 10
0
 20
0
 70
     0
  0
VERTEX
  5
3A4
100
AcDbEntity
  8
レイヤ1
100
AcDbVertex
100
AcDb2dVertex
 10
53.5008115455
 20
1572.028251139
  0
VERTEX
  5
3A5
100
AcDbEntity
  8
レイヤ1
100
AcDbVertex
100
AcDb2dVertex
 10
57.97885304049
 20
1573.206683111
  0
VERTEX
  5
3A6
100
AcDbEntity
  8
レイヤ1
100
AcDbVertex
100
AcDb2dVertex
 10
62.69258092996
 20
1576.977665423
  0
VERTEX
  5
3A7
100
AcDbEntity
  8
レイヤ1
100
AcDbVertex
100
AcDb2dVertex
 10
61.98552174654
 20
1582.63413889
  0
VERTEX
  5
3A8
100
AcDbEntity
  8
レイヤ1
100
AcDbVertex
100
AcDb2dVertex
 10
54.67924351786
 20
1588.290612357
  0
VERTEX
  5
3A9
100
AcDbEntity
  8
レイヤ1
100
AcDbVertex
100
AcDb2dVertex
 10
48.31571086708
 20
1592.061594669
  0
VERTEX
  5
3AA
100
AcDbEntity
  8
レイヤ1
100
AcDbVertex
100
AcDb2dVertex
 10
38.41688229919
 20
1593.475713036
  0
VERTEX
  5
3AB
100
AcDbEntity
  8
レイヤ1
100
AcDbVertex
100
AcDb2dVertex
 10
37.47413672129
 20
1593.475713036
  0
VERTEX
  5
3AC
100
AcDbEntity
  8
レイヤ1
100
AcDbVertex
100
AcDb2dVertex
 10
36.5313911434
 20
1595.83257698
  0
VERTEX
  5
3AD
100
AcDbEntity
  8
レイヤ1
100
AcDbVertex
100
AcDb2dVertex
 10
45.01610134445
 20
1596.539636164
  0
VERTEX
  5
3AE
100
AcDbEntity
  8
レイヤ1
100
AcDbVertex
100
AcDb2dVertex
 10
59.86434419628
 20
1593.004340247
  0
VERTEX
  5
3AF
100
AcDbEntity
  8
レイヤ1
100
AcDbVertex
100
AcDb2dVertex
 10
70.47023194759
 20
1586.169434807
  0
VERTEX
  5
3B0
100
AcDbEntity
  8
レイヤ1
100
AcDbVertex
100
AcDb2dVertex
 10
76.12670541496
 20
1579.334529367
  0
VERTEX
  5
3B1
100
AcDbEntity
  8
レイヤ1
100
AcDbVertex
100
AcDb2dVertex
 10
79.42631493759
 20
1571.085505561
  0
VERTEX
  5
3B2
100
AcDbEntity
  8
レイヤ1
100
AcDbVertex
100
AcDb2dVertex
 10
82.01886527679
 20
1566.136091277
  0
VERTEX
  5
3B3
100
AcDbEntity
  8
レイヤ1
100
AcDbVertex
100
AcDb2dVertex
 10
87.91102513863
 20
1564.250600121
  0
VERTEX
  5
3B4
100
AcDbEntity
  8
レイヤ1
100
AcDbVertex
100
AcDb2dVertex
 10
92.15338023916
 20
1565.429032093
  0
VERTEX
  5
3B5
100
AcDbEntity
  8
レイヤ1
100
AcDbVertex
100
AcDb2dVertex
 10
92.38906663363
 20
1578.627470184
  0
VERTEX
  5
3B6
100
AcDbEntity
  8
レイヤ1
100
AcDbVertex
100
AcDb2dVertex
 10
87.43965234969
 20
1584.519630046
  0
VERTEX
  5
3B7
100
AcDbEntity
  8
レイヤ1
100
AcDbVertex
100
AcDb2dVertex
 10
79.66200133206
 20
1584.519630046
  0
VERTEX
  5
3B8
100
AcDbEntity
  8
レイヤ1
100
AcDbVertex
100
AcDb2dVertex
 10
74.94827344259
 20
1583.341198073
  0
VERTEX
  5
3B9
100
AcDbEntity
  8
レイヤ1
100
AcDbVertex
100
AcDb2dVertex
 10
77.06945099285
 20
1584.991002835
  0
VERTEX
  5
3BA
100
AcDbEntity
  8
レイヤ1
100
AcDbVertex
100
AcDb2dVertex
 10
82.01886527679
 20
1586.169434807
  0
VERTEX
  5
3BB
100
AcDbEntity
  8
レイヤ1
100
AcDbVertex
100
AcDb2dVertex
 10
85.78984758837
 20
1586.169434807
  0
VERTEX
  5
3BC
100
AcDbEntity
  8
レイヤ1
100
AcDbVertex
100
AcDb2dVertex
 10
80.13337412101
 20
1587.583553174
  0
VERTEX
  5
3BD
100
AcDbEntity
  8
レイヤ1
100
AcDbVertex
100
AcDb2dVertex
 10
74.71258704811
 20
1587.819239568
  0
VERTEX
  5
3BE
100
AcDbEntity
  8
レイヤ1
100
AcDbVertex
100
AcDb2dVertex
 10
70.47023194759
 20
1587.347866779
  0
VERTEX
  5
3BF
100
AcDbEntity
  8
レイヤ1
100
AcDbVertex
100
AcDb2dVertex
 10
73.53415507575
 20
1589.46904433
  0
VERTEX
  5
3C0
100
AcDbEntity
  8
レイヤ1
100
AcDbVertex
100
AcDb2dVertex
 10
82.01886527679
 20
1590.411789907
  0
VERTEX
  5
3C1
100
AcDbEntity
  8
レイヤ1
100
AcDbVertex
100
AcDb2dVertex
 10
88.14671153311
 20
1588.290612357
  0
VERTEX
  5
3C2
100
AcDbEntity
  8
レイヤ1
100
AcDbVertex
100
AcDb2dVertex
 10
96.39573533968
 20
1582.162766101
  0
VERTEX
  5
3C3
100
AcDbEntity
  8
レイヤ1
100
AcDbVertex
100
AcDb2dVertex
 10
99.45965846784
 20
1576.977665423
  0
VERTEX
  5
3C4
100
AcDbEntity
  8
レイヤ1
100
AcDbVertex
100
AcDb2dVertex
 10
100.1667176513
 20
1570.378446377
  0
VERTEX
  5
3C5
100
AcDbEntity
  8
レイヤ1
100
AcDbVertex
100
AcDb2dVertex
 10
100.6380904402
 20
1567.314523249
  0
VERTEX
  5
3C6
100
AcDbEntity
  8
レイヤ1
100
AcDbVertex
100
AcDb2dVertex
 10
105.8231911186
 20
1565.900404882
  0
VERTEX
  5
3C7
100
AcDbEntity
  8
レイヤ1
100
AcDbVertex
100
AcDb2dVertex
 10
103.9376999628
 20
1568.96432801
  0
VERTEX
  5
3C8
100
AcDbEntity
  8
レイヤ1
100
AcDbVertex
100
AcDb2dVertex
 10
101.5808360181
 20
1570.142759983
  0
VERTEX
  5
3C9
100
AcDbEntity
  8
レイヤ1
100
AcDbVertex
100
AcDb2dVertex
 10
101.5808360181
 20
1571.321191955
  0
VERTEX
  5
3CA
100
AcDbEntity
  8
レイヤ1
100
AcDbVertex
100
AcDb2dVertex
 10
107.7086822744
 20
1570.378446377
  0
VERTEX
  5
3CB
100
AcDbEntity
  8
レイヤ1
100
AcDbVertex
100
AcDb2dVertex
 10
109.8298598247
 20
1568.257268827
  0
VERTEX
  5
3CC
100
AcDbEntity
  8
レイヤ1
100
AcDbVertex
100
AcDb2dVertex
 10
111.008291797
 20
1566.607464066
  0
VERTEX
  5
3CD
100
AcDbEntity
  8
レイヤ1
100
AcDbVertex
100
AcDb2dVertex
 10
113.1294693473
 20
1565.900404882
  0
VERTEX
  5
3CE
100
AcDbEntity
  8
レイヤ1
100
AcDbVertex
100
AcDb2dVertex
 10
115.7220196865
 20
1559.301185837
  0
VERTEX
  5
3CF
100
AcDbEntity
  8
レイヤ1
100
AcDbVertex
100
AcDb2dVertex
 10
120.2000611815
 20
1560.950990598
  0
VERTEX
  5
3D0
100
AcDbEntity
  8
レイヤ1
100
AcDbVertex
100
AcDb2dVertex
 10
120.6714339705
 20
1567.078836855
  0
VERTEX
  5
3D1
100
AcDbEntity
  8
レイヤ1
100
AcDbVertex
100
AcDb2dVertex
 10
116.4290788699
 20
1572.499623928
  0
VERTEX
  5
3D2
100
AcDbEntity
  8
レイヤ1
100
AcDbVertex
100
AcDb2dVertex
 10
111.9510373749
 20
1575.327860661
  0
VERTEX
  5
3D3
100
AcDbEntity
  8
レイヤ1
100
AcDbVertex
100
AcDb2dVertex
 10
103.2306407794
 20
1575.092174267
  0
VERTEX
  5
3D4
100
AcDbEntity
  8
レイヤ1
100
AcDbVertex
100
AcDb2dVertex
 10
110.3012326136
 20
1576.741979028
  0
VERTEX
  5
3D5
100
AcDbEntity
  8
レイヤ1
100
AcDbVertex
100
AcDb2dVertex
 10
114.7792741086
 20
1575.79923345
  0
VERTEX
  5
3D6
100
AcDbEntity
  8
レイヤ1
100
AcDbVertex
100
AcDb2dVertex
 10
119.964374787
 20
1571.085505561
  0
VERTEX
  5
3D7
100
AcDbEntity
  8
レイヤ1
100
AcDbVertex
100
AcDb2dVertex
 10
123.9710434931
 20
1565.429032093
  0
VERTEX
  5
3D8
100
AcDbEntity
  8
レイヤ1
100
AcDbVertex
100
AcDb2dVertex
 10
126.0922210433
 20
1560.243931415
  0
VERTEX
  5
3D9
100
AcDbEntity
  8
レイヤ1
100
AcDbVertex
100
AcDb2dVertex
 10
127.0349666212
 20
1557.651381076
  0
VERTEX
  5
3DA
100
AcDbEntity
  8
レイヤ1
100
AcDbVertex
100
AcDb2dVertex
 10
128.920457777
 20
1556.472949103
  0
VERTEX
  5
3DB
100
AcDbEntity
  8
レイヤ1
100
AcDbVertex
100
AcDb2dVertex
 10
133.398499272
 20
1555.058830736
  0
VERTEX
  5
3DC
100
AcDbEntity
  8
レイヤ1
100
AcDbVertex
100
AcDb2dVertex
 10
133.398499272
 20
1549.638043664
  0
VERTEX
  5
3DD
100
AcDbEntity
  8
レイヤ1
100
AcDbVertex
100
AcDb2dVertex
 10
134.1055584554
 20
1543.745883802
  0
VERTEX
  5
3DE
100
AcDbEntity
  8
レイヤ1
100
AcDbVertex
100
AcDb2dVertex
 10
139.0549727394
 20
1538.325096729
  0
VERTEX
  5
3DF
100
AcDbEntity
  8
レイヤ1
100
AcDbVertex
100
AcDb2dVertex
 10
142.1188958675
 20
1530.076072922
  0
VERTEX
  5
3E0
100
AcDbEntity
  8
レイヤ1
100
AcDbVertex
100
AcDb2dVertex
 10
140.9404638952
 20
1521.355676327
  0
VERTEX
  5
3E1
100
AcDbEntity
  8
レイヤ1
100
AcDbVertex
100
AcDb2dVertex
 10
139.5263455283
 20
1527.719208978
  0
VERTEX
  5
3E2
100
AcDbEntity
  8
レイヤ1
100
AcDbVertex
100
AcDb2dVertex
 10
138.1122271615
 20
1530.547445711
  0
VERTEX
  5
3E3
100
AcDbEntity
  8
レイヤ1
100
AcDbVertex
100
AcDb2dVertex
 10
135.9910496112
 20
1530.547445711
  0
VERTEX
  5
3E4
100
AcDbEntity
  8
レイヤ1
100
AcDbVertex
100
AcDb2dVertex
 10
135.5196768223
 20
1527.954895372
  0
VERTEX
  5
3E5
100
AcDbEntity
  8
レイヤ1
100
AcDbVertex
100
AcDb2dVertex
 10
131.7486945107
 20
1525.598031427
  0
VERTEX
  5
3E6
100
AcDbEntity
  8
レイヤ1
100
AcDbVertex
100
AcDb2dVertex
 10
136.9337951891
 20
1523.948226666
  0
VERTEX
  5
3E7
100
AcDbEntity
  8
レイヤ1
100
AcDbVertex
100
AcDb2dVertex
 10
144.7114462068
 20
1518.998812382
  0
VERTEX
  5
3E8
100
AcDbEntity
  8
レイヤ1
100
AcDbVertex
100
AcDb2dVertex
 10
152.2534108299
 20
1510.98547497
  0
VERTEX
  5
3E9
100
AcDbEntity
  8
レイヤ1
100
AcDbVertex
100
AcDb2dVertex
 10
155.0816475636
 20
1502.500764769
  0
VERTEX
  5
3EA
100
AcDbEntity
  8
レイヤ1
100
AcDbVertex
100
AcDb2dVertex
 10
155.788706747
 20
1493.07330899
  0
VERTEX
  5
3EB
100
AcDbEntity
  8
レイヤ1
100
AcDbVertex
100
AcDb2dVertex
 10
155.3173339581
 20
1488.830953889
  0
VERTEX
  5
3EC
100
AcDbEntity
  8
レイヤ1
100
AcDbVertex
100
AcDb2dVertex
 10
154.3745883802
 20
1487.652521917
  0
VERTEX
  5
3ED
100
AcDbEntity
  8
レイヤ1
100
AcDbVertex
100
AcDb2dVertex
 10
152.4890972244
 20
1487.181149128
  0
VERTEX
  5
3EE
100
AcDbEntity
  8
レイヤ1
100
AcDbVertex
100
AcDb2dVertex
 10
160.738121031
 20
1484.117226
  0
VERTEX
  5
3EF
100
AcDbEntity
  8
レイヤ1
100
AcDbVertex
100
AcDb2dVertex
 10
165.9232217094
 20
1479.167811716
  0
VERTEX
  5
3F0
100
AcDbEntity
  8
レイヤ1
100
AcDbVertex
100
AcDb2dVertex
 10
170.6369495988
 20
1473.982711038
  0
VERTEX
  5
3F1
100
AcDbEntity
  8
レイヤ1
100
AcDbVertex
100
AcDb2dVertex
 10
173.700872727
 20
1463.376823286
  0
VERTEX
  5
3F2
100
AcDbEntity
  8
レイヤ1
100
AcDbVertex
100
AcDb2dVertex
 10
172.7581271491
 20
1459.841527369
  0
VERTEX
  5
3F3
100
AcDbEntity
  8
レイヤ1
100
AcDbVertex
100
AcDb2dVertex
 10
170.1655768099
 20
1467.147805598
  0
VERTEX
  5
3F4
100
AcDbEntity
  8
レイヤ1
100
AcDbVertex
100
AcDb2dVertex
 10
164.2734169481
 20
1475.632515799
  0
VERTEX
  5
3F5
100
AcDbEntity
  8
レイヤ1
100
AcDbVertex
100
AcDb2dVertex
 10
154.1389019857
 20
1481.053302872
  0
VERTEX
  5
3F6
100
AcDbEntity
  8
レイヤ1
100
AcDbVertex
100
AcDb2dVertex
 10
152.2534108299
 20
1481.053302872
  0
VERTEX
  5
3F7
100
AcDbEntity
  8
レイヤ1
100
AcDbVertex
100
AcDb2dVertex
 10
160.266748242
 20
1475.16114301
  0
VERTEX
  5
3F8
100
AcDbEntity
  8
レイヤ1
100
AcDbVertex
100
AcDb2dVertex
 10
165.4518489204
 20
1465.498000837
  0
VERTEX
  5
3F9
100
AcDbEntity
  8
レイヤ1
100
AcDbVertex
100
AcDb2dVertex
 10
165.9232217094
 20
1455.599172269
  0
VERTEX
  5
3FA
100
AcDbEntity
  8
レイヤ1
100
AcDbVertex
100
AcDb2dVertex
 10
165.4518489204
 20
1448.528580434
  0
VERTEX
  5
3FB
100
AcDbEntity
  8
レイヤ1
100
AcDbVertex
100
AcDb2dVertex
 10
164.2734169481
 20
1445.700343701
  0
VERTEX
  5
3FC
100
AcDbEntity
  8
レイヤ1
100
AcDbVertex
100
AcDb2dVertex
 10
163.8020441591
 20
1455.12779948
  0
VERTEX
  5
3FD
100
AcDbEntity
  8
レイヤ1
100
AcDbVertex
100
AcDb2dVertex
 10
161.6808666089
 20
1461.255645736
  0
VERTEX
  5
3FE
100
AcDbEntity
  8
レイヤ1
100
AcDbVertex
100
AcDb2dVertex
 10
162.8592985812
 20
1454.892113085
  0
VERTEX
  5
3FF
100
AcDbEntity
  8
レイヤ1
100
AcDbVertex
100
AcDb2dVertex
 10
163.3306713702
 20
1444.993284517
  0
VERTEX
  5
400
100
AcDbEntity
  8
レイヤ1
100
AcDbVertex
100
AcDb2dVertex
 10
160.9738074254
 20
1435.330142344
  0
VERTEX
  5
401
100
AcDbEntity
  8
レイヤ1
100
AcDbVertex
100
AcDb2dVertex
 10
153.4318428023
 20
1419.067781125
  0
VERTEX
  5
402
100
AcDbEntity
  8
レイヤ1
100
AcDbVertex
100
AcDb2dVertex
 10
134.3412448499
 20
1396.206200861
  0
VERTEX
  5
403
100
AcDbEntity
  8
レイヤ1
100
AcDbVertex
100
AcDb2dVertex
 10
132.2200672997
 20
1395.499141678
  0
VERTEX
  5
404
100
AcDbEntity
  8
レイヤ1
100
AcDbVertex
100
AcDb2dVertex
 10
133.869872061
 20
1391.492472972
  0
VERTEX
  5
405
100
AcDbEntity
  8
レイヤ1
100
AcDbVertex
100
AcDb2dVertex
 10
133.1628128776
 20
1387.957177055
  0
VERTEX
  5
406
100
AcDbEntity
  8
レイヤ1
100
AcDbVertex
100
AcDb2dVertex
 10
129.391830566
 20
1385.128940321
  0
VERTEX
  5
407
100
AcDbEntity
  8
レイヤ1
100
AcDbVertex
100
AcDb2dVertex
 10
126.5635938323
 20
1383.950508349
  0
VERTEX
  5
408
100
AcDbEntity
  8
レイヤ1
100
AcDbVertex
100
AcDb2dVertex
 10
130.0988897494
 20
1381.829330798
  0
VERTEX
  5
409
100
AcDbEntity
  8
レイヤ1
100
AcDbVertex
100
AcDb2dVertex
 10
135.5196768223
 20
1379.236780459
  0
VERTEX
  5
40A
100
AcDbEntity
  8
レイヤ1
100
AcDbVertex
100
AcDb2dVertex
 10
132.6914400886
 20
1374.994425359
  0
VERTEX
  5
40B
100
AcDbEntity
  8
レイヤ1
100
AcDbVertex
100
AcDb2dVertex
 10
128.6847713826
 20
1374.051679781
  0
VERTEX
  5
40C
100
AcDbEntity
  8
レイヤ1
100
AcDbVertex
100
AcDb2dVertex
 10
126.7992802268
 20
1374.758738964
  0
VERTEX
  5
40D
100
AcDbEntity
  8
レイヤ1
100
AcDbVertex
100
AcDb2dVertex
 10
123.2639843097
 20
1369.337951891
  0
VERTEX
  5
40E
100
AcDbEntity
  8
レイヤ1
100
AcDbVertex
100
AcDb2dVertex
 10
128.2133985936
 20
1361.560300874
  0
VERTEX
  5
40F
100
AcDbEntity
  8
レイヤ1
100
AcDbVertex
100
AcDb2dVertex
 10
130.0988897494
 20
1348.126176389
  0
VERTEX
  5
410
100
AcDbEntity
  8
レイヤ1
100
AcDbVertex
100
AcDb2dVertex
 10
128.920457777
 20
1344.355194077
  0
VERTEX
  5
411
100
AcDbEntity
  8
レイヤ1
100
AcDbVertex
100
AcDb2dVertex
 10
128.2133985936
 20
1355.196768223
  0
VERTEX
  5
412
100
AcDbEntity
  8
レイヤ1
100
AcDbVertex
100
AcDb2dVertex
 10
125.1494754655
 20
1361.324614479
  0
VERTEX
  5
413
100
AcDbEntity
  8
レイヤ1
100
AcDbVertex
100
AcDb2dVertex
 10
124.913789071
 20
1361.324614479
  0
VERTEX
  5
414
100
AcDbEntity
  8
レイヤ1
100
AcDbVertex
100
AcDb2dVertex
 10
125.8565346489
 20
1348.361862783
  0
VERTEX
  5
415
100
AcDbEntity
  8
レイヤ1
100
AcDbVertex
100
AcDb2dVertex
 10
123.4996707041
 20
1341.291270949
  0
VERTEX
  5
416
100
AcDbEntity
  8
レイヤ1
100
AcDbVertex
100
AcDb2dVertex
 10
119.0216292091
 20
1334.456365509
  0
VERTEX
  5
417
100
AcDbEntity
  8
レイヤ1
100
AcDbVertex
100
AcDb2dVertex
 10
112.4224101639
 20
1329.74263762
  0
VERTEX
  5
418
100
AcDbEntity
  8
レイヤ1
100
AcDbVertex
100
AcDb2dVertex
 10
110.3012326136
 20
1328.564205647
  0
VERTEX
  5
419
100
AcDbEntity
  8
レイヤ1
100
AcDbVertex
100
AcDb2dVertex
 10
116.9004516589
 20
1327.857146464
  0
VERTEX
  5
41A
100
AcDbEntity
  8
レイヤ1
100
AcDbVertex
100
AcDb2dVertex
 10
121.6141795484
 20
1328.092832858
  0
VERTEX
  5
41B
100
AcDbEntity
  8
レイヤ1
100
AcDbVertex
100
AcDb2dVertex
 10
123.9710434931
 20
1330.685383198
  0
VERTEX
  5
41C
100
AcDbEntity
  8
レイヤ1
100
AcDbVertex
100
AcDb2dVertex
 10
125.1494754655
 20
1336.341856665
  0
VERTEX
  5
41D
100
AcDbEntity
  8
レイヤ1
100
AcDbVertex
100
AcDb2dVertex
 10
125.1494754655
 20
1341.055584554
  0
VERTEX
  5
41E
100
AcDbEntity
  8
レイヤ1
100
AcDbVertex
100
AcDb2dVertex
 10
125.1494754655
 20
1341.998330132
  0
VERTEX
  5
41F
100
AcDbEntity
  8
レイヤ1
100
AcDbVertex
100
AcDb2dVertex
 10
126.7992802268
 20
1333.042247142
  0
VERTEX
  5
420
100
AcDbEntity
  8
レイヤ1
100
AcDbVertex
100
AcDb2dVertex
 10
124.913789071
 20
1325.735968914
  0
VERTEX
  5
421
100
AcDbEntity
  8
レイヤ1
100
AcDbVertex
100
AcDb2dVertex
 10
119.2573156036
 20
1322.90773218
  0
VERTEX
  5
422
100
AcDbEntity
  8
レイヤ1
100
AcDbVertex
100
AcDb2dVertex
 10
115.0149605031
 20
1322.90773218
  0
VERTEX
  5
423
100
AcDbEntity
  8
レイヤ1
100
AcDbVertex
100
AcDb2dVertex
 10
110.0655462191
 20
1325.02890973
  0
VERTEX
  5
424
100
AcDbEntity
  8
レイヤ1
100
AcDbVertex
100
AcDb2dVertex
 10
108.1800550634
 20
1323.614791363
  0
VERTEX
  5
425
100
AcDbEntity
  8
レイヤ1
100
AcDbVertex
100
AcDb2dVertex
 10
102.2878952015
 20
1312.773217218
  0
VERTEX
  5
426
100
AcDbEntity
  8
レイヤ1
100
AcDbVertex
100
AcDb2dVertex
 10
98.045540101
 20
1311.359098851
  0
VERTEX
  5
427
100
AcDbEntity
  8
レイヤ1
100
AcDbVertex
100
AcDb2dVertex
 10
98.51691288994
 20
1306.645370961
  0
VERTEX
  5
428
100
AcDbEntity
  8
レイヤ1
100
AcDbVertex
100
AcDb2dVertex
 10
97.1027945231
 20
1304.052820622
  0
VERTEX
  5
429
100
AcDbEntity
  8
レイヤ1
100
AcDbVertex
100
AcDb2dVertex
 10
92.6247530281
 20
1303.345761439
  0
VERTEX
  5
42A
100
AcDbEntity
  8
レイヤ1
100
AcDbVertex
100
AcDb2dVertex
 10
87.43965234969
 20
1305.231252595
  0
VERTEX
  5
42B
100
AcDbEntity
  8
レイヤ1
100
AcDbVertex
100
AcDb2dVertex
 10
89.32514350547
 20
1299.574779127
  0
VERTEX
  5
42C
100
AcDbEntity
  8
レイヤ1
100
AcDbVertex
100
AcDb2dVertex
 10
93.33181221152
 20
1293.682619265
  0
VERTEX
  5
42D
100
AcDbEntity
  8
レイヤ1
100
AcDbVertex
100
AcDb2dVertex
 10
90.26788908337
 20
1289.440264165
  0
VERTEX
  5
42E
100
AcDbEntity
  8
レイヤ1
100
AcDbVertex
100
AcDb2dVertex
 10
87.91102513863
 20
1287.554773009
  0
VERTEX
  5
42F
100
AcDbEntity
  8
レイヤ1
100
AcDbVertex
100
AcDb2dVertex
 10
78.01219657074
 20
1287.554773009
  0
VERTEX
  5
430
100
AcDbEntity
  8
レイヤ1
100
AcDbVertex
100
AcDb2dVertex
 10
65.99219045259
 20
1288.261832192
  0
VERTEX
  5
431
100
AcDbEntity
  8
レイヤ1
100
AcDbVertex
100
AcDb2dVertex
 10
63.16395371891
 20
1289.675950559
  0
SEQEND
  5
432
100
AcDbEntity
  8
レイヤ1
  0
POLYLINE
  5
433
100
AcDbEntity
  8
レイヤ1
  6
CONTINUOUS
 62
     0
100
AcDb2dPolyline
 66
     1
 10
0
 20
0
 70
     0
  0
VERTEX
  5
434
100
AcDbEntity
  8
レイヤ1
100
AcDbVertex
100
AcDb2dVertex
 10
40.53805984945
 20
1591.354535485
  0
VERTEX
  5
435
100
AcDbEntity
  8
レイヤ1
100
AcDbVertex
100
AcDb2dVertex
 10
42.18786461076
 20
1588.526298752
  0
VERTEX
  5
436
100
AcDbEntity
  8
レイヤ1
100
AcDbVertex
100
AcDb2dVertex
 10
48.0800244726
 20
1585.462375624
  0
VERTEX
  5
437
100
AcDbEntity
  8
レイヤ1
100
AcDbVertex
100
AcDb2dVertex
 10
51.85100678418
 20
1585.698062018
  0
VERTEX
  5
438
100
AcDbEntity
  8
レイヤ1
100
AcDbVertex
100
AcDb2dVertex
 10
52.08669317865
 20
1584.991002835
  0
VERTEX
  5
439
100
AcDbEntity
  8
レイヤ1
100
AcDbVertex
100
AcDb2dVertex
 10
54.20787072892
 20
1582.398452495
  0
VERTEX
  5
43A
100
AcDbEntity
  8
レイヤ1
100
AcDbVertex
100
AcDb2dVertex
 10
54.91492991234
 20
1578.863156578
  0
VERTEX
  5
43B
100
AcDbEntity
  8
レイヤ1
100
AcDbVertex
100
AcDb2dVertex
 10
52.32237957313
 20
1576.859822225
  0
SEQEND
  5
43C
100
AcDbEntity
  8
レイヤ1
  0
POLYLINE
  5
43D
100
AcDbEntity
  8
レイヤ1
  6
CONTINUOUS
 62
     0
100
AcDb2dPolyline
 66
     1
 10
0
 20
0
 70
     0
  0
VERTEX
  5
43E
100
AcDbEntity
  8
レイヤ1
100
AcDbVertex
100
AcDb2dVertex
 10
79.42631493759
 20
1571.085505561
  0
VERTEX
  5
43F
100
AcDbEntity
  8
レイヤ1
100
AcDbVertex
100
AcDb2dVertex
 10
84.37572922153
 20
1574.856487872
  0
VERTEX
  5
440
100
AcDbEntity
  8
レイヤ1
100
AcDbVertex
100
AcDb2dVertex
 10
89.91435949166
 20
1581.573550115
  0
SEQEND
  5
441
100
AcDbEntity
  8
レイヤ1
  0
POLYLINE
  5
442
100
AcDbEntity
  8
レイヤ1
  6
CONTINUOUS
 62
     0
100
AcDb2dPolyline
 66
     1
 10
0
 20
0
 70
     0
  0
VERTEX
  5
443
100
AcDbEntity
  8
レイヤ1
100
AcDbVertex
100
AcDb2dVertex
 10
82.01886527679
 20
1566.136091277
  0
VERTEX
  5
444
100
AcDbEntity
  8
レイヤ1
100
AcDbVertex
100
AcDb2dVertex
 10
85.08278840495
 20
1571.55687835
  0
VERTEX
  5
445
100
AcDbEntity
  8
レイヤ1
100
AcDbVertex
100
AcDb2dVertex
 10
89.79651629442
 20
1577.449038211
  0
VERTEX
  5
446
100
AcDbEntity
  8
レイヤ1
100
AcDbVertex
100
AcDb2dVertex
 10
92.38906663363
 20
1578.627470184
  0
SEQEND
  5
447
100
AcDbEntity
  8
レイヤ1
  0
POLYLINE
  5
448
100
AcDbEntity
  8
レイヤ1
  6
CONTINUOUS
 62
     0
100
AcDb2dPolyline
 66
     1
 10
0
 20
0
 70
     1
  0
VERTEX
  5
449
100
AcDbEntity
  8
レイヤ1
100
AcDbVertex
100
AcDb2dVertex
 10
133.1028773317
 20
1522.353851018
  0
VERTEX
  5
44A
100
AcDbEntity
  8
レイヤ1
100
AcDbVertex
100
AcDb2dVertex
 10
134.2574252144
 20
1519.055142782
  0
VERTEX
  5
44B
100
AcDbEntity
  8
レイヤ1
100
AcDbVertex
100
AcDb2dVertex
 10
141.8444541577
 20
1513.942145016
  0
VERTEX
  5
44C
100
AcDbEntity
  8
レイヤ1
100
AcDbVertex
100
AcDb2dVertex
 10
146.9574519239
 20
1508.994082662
  0
VERTEX
  5
44D
100
AcDbEntity
  8
レイヤ1
100
AcDbVertex
100
AcDb2dVertex
 10
149.5964185129
 20
1503.38627866
  0
VERTEX
  5
44E
100
AcDbEntity
  8
レイヤ1
100
AcDbVertex
100
AcDb2dVertex
 10
149.5964185129
 20
1497.94341007
  0
VERTEX
  5
44F
100
AcDbEntity
  8
レイヤ1
100
AcDbVertex
100
AcDb2dVertex
 10
148.2769352184
 20
1494.479766422
  0
VERTEX
  5
450
100
AcDbEntity
  8
レイヤ1
100
AcDbVertex
100
AcDb2dVertex
 10
146.7925165121
 20
1490.686251951
  0
VERTEX
  5
451
100
AcDbEntity
  8
レイヤ1
100
AcDbVertex
100
AcDb2dVertex
 10
143.6587436877
 20
1490.026510303
  0
VERTEX
  5
452
100
AcDbEntity
  8
レイヤ1
100
AcDbVertex
100
AcDb2dVertex
 10
142.9990020404
 20
1490.191445715
  0
VERTEX
  5
453
100
AcDbEntity
  8
レイヤ1
100
AcDbVertex
100
AcDb2dVertex
 10
145.3080978058
 20
1494.149895599
  0
VERTEX
  5
454
100
AcDbEntity
  8
レイヤ1
100
AcDbVertex
100
AcDb2dVertex
 10
146.4626456884
 20
1500.417441248
  0
VERTEX
  5
455
100
AcDbEntity
  8
レイヤ1
100
AcDbVertex
100
AcDb2dVertex
 10
144.6483561585
 20
1504.870697366
  0
VERTEX
  5
456
100
AcDbEntity
  8
レイヤ1
100
AcDbVertex
100
AcDb2dVertex
 10
142.0093895695
 20
1505.695374426
  0
VERTEX
  5
457
100
AcDbEntity
  8
レイヤ1
100
AcDbVertex
100
AcDb2dVertex
 10
142.0093895695
 20
1494.149895599
  0
VERTEX
  5
458
100
AcDbEntity
  8
レイヤ1
100
AcDbVertex
100
AcDb2dVertex
 10
142.3392603932
 20
1489.69663948
  0
VERTEX
  5
459
100
AcDbEntity
  8
レイヤ1
100
AcDbVertex
100
AcDb2dVertex
 10
144.8132915703
 20
1488.377156185
  0
VERTEX
  5
45A
100
AcDbEntity
  8
レイヤ1
100
AcDbVertex
100
AcDb2dVertex
 10
151.5756434546
 20
1490.686251951
  0
VERTEX
  5
45B
100
AcDbEntity
  8
レイヤ1
100
AcDbVertex
100
AcDb2dVertex
 10
152.07044969
 20
1493.655089363
  0
VERTEX
  5
45C
100
AcDbEntity
  8
レイヤ1
100
AcDbVertex
100
AcDb2dVertex
 10
152.7301913373
 20
1501.901859954
  0
VERTEX
  5
45D
100
AcDbEntity
  8
レイヤ1
100
AcDbVertex
100
AcDb2dVertex
 10
150.0912247483
 20
1507.674599367
  0
VERTEX
  5
45E
100
AcDbEntity
  8
レイヤ1
100
AcDbVertex
100
AcDb2dVertex
 10
142.6691312168
 20
1515.921369958
  0
SEQEND
  5
45F
100
AcDbEntity
  8
レイヤ1
  0
POLYLINE
  5
460
100
AcDbEntity
  8
レイヤ1
  6
CONTINUOUS
 62
     0
100
AcDb2dPolyline
 66
     1
 10
0
 20
0
 70
     0
  0
VERTEX
  5
461
100
AcDbEntity
  8
レイヤ1
100
AcDbVertex
100
AcDb2dVertex
 10
155.788706747
 20
1493.07330899
  0
VERTEX
  5
462
100
AcDbEntity
  8
レイヤ1
100
AcDbVertex
100
AcDb2dVertex
 10
162.1522393978
 20
1491.423504229
  0
VERTEX
  5
463
100
AcDbEntity
  8
レイヤ1
100
AcDbVertex
100
AcDb2dVertex
 10
169.4585176265
 20
1483.645853211
  0
VERTEX
  5
464
100
AcDbEntity
  8
レイヤ1
100
AcDbVertex
100
AcDb2dVertex
 10
171.1083223878
 20
1475.632515799
  0
VERTEX
  5
465
100
AcDbEntity
  8
レイヤ1
100
AcDbVertex
100
AcDb2dVertex
 10
168.0443992596
 20
1483.174480422
  0
VERTEX
  5
466
100
AcDbEntity
  8
レイヤ1
100
AcDbVertex
100
AcDb2dVertex
 10
163.5663577646
 20
1486.945462734
  0
VERTEX
  5
467
100
AcDbEntity
  8
レイヤ1
100
AcDbVertex
100
AcDb2dVertex
 10
159.3240026641
 20
1487.888208312
  0
VERTEX
  5
468
100
AcDbEntity
  8
レイヤ1
100
AcDbVertex
100
AcDb2dVertex
 10
156.4957659304
 20
1487.888208312
  0
VERTEX
  5
469
100
AcDbEntity
  8
レイヤ1
100
AcDbVertex
100
AcDb2dVertex
 10
152.4890972244
 20
1487.181149128
  0
SEQEND
  5
46A
100
AcDbEntity
  8
レイヤ1
  0
POLYLINE
  5
46B
100
AcDbEntity
  8
レイヤ1
  6
CONTINUOUS
 62
     0
100
AcDb2dPolyline
 66
     1
 10
0
 20
0
 70
     1
  0
VERTEX
  5
46C
100
AcDbEntity
  8
レイヤ1
100
AcDbVertex
100
AcDb2dVertex
 10
140.1033264285
 20
1423.934769566
  0
VERTEX
  5
46D
100
AcDbEntity
  8
レイヤ1
100
AcDbVertex
100
AcDb2dVertex
 10
132.6940158962
 20
1417.872606404
  0
VERTEX
  5
46E
100
AcDbEntity
  8
レイヤ1
100
AcDbVertex
100
AcDb2dVertex
 10
129.3261474724
 20
1417.535819561
  0
VERTEX
  5
46F
100
AcDbEntity
  8
レイヤ1
100
AcDbVertex
100
AcDb2dVertex
 10
126.9686395758
 20
1412.820803768
  0
VERTEX
  5
470
100
AcDbEntity
  8
レイヤ1
100
AcDbVertex
100
AcDb2dVertex
 10
133.3675895809
 20
1414.50473798
  0
VERTEX
  5
471
100
AcDbEntity
  8
レイヤ1
100
AcDbVertex
100
AcDb2dVertex
 10
137.7458185318
 20
1417.199032719
  0
SEQEND
  5
472
100
AcDbEntity
  8
レイヤ1
  0
POLYLINE
  5
473
100
AcDbEntity
  8
レイヤ1
  6
CONTINUOUS
 62
     0
100
AcDb2dPolyline
 66
     1
 10
0
 20
0
 70
     1
  0
VERTEX
  5
474
100
AcDbEntity
  8
レイヤ1
100
AcDbVertex
100
AcDb2dVertex
 10
135.0515237928
 20
1410.126509029
  0
VERTEX
  5
475
100
AcDbEntity
  8
レイヤ1
100
AcDbVertex
100
AcDb2dVertex
 10
131.6836553691
 20
1407.769001132
  0
VERTEX
  5
476
100
AcDbEntity
  8
レイヤ1
100
AcDbVertex
100
AcDb2dVertex
 10
128.3157869453
 20
1407.43221429
  0
VERTEX
  5
477
100
AcDbEntity
  8
レイヤ1
100
AcDbVertex
100
AcDb2dVertex
 10
125.9582790487
 20
1402.043624812
  0
VERTEX
  5
478
100
AcDbEntity
  8
レイヤ1
100
AcDbVertex
100
AcDb2dVertex
 10
126.2950658911
 20
1400.022903758
  0
VERTEX
  5
479
100
AcDbEntity
  8
レイヤ1
100
AcDbVertex
100
AcDb2dVertex
 10
128.6525737877
 20
1399.349330073
  0
SEQEND
  5
47A
100
AcDbEntity
  8
レイヤ1
  0
POLYLINE
  5
47B
100
AcDbEntity
  8
レイヤ1
  6
CONTINUOUS
 62
     0
100
AcDb2dPolyline
 66
     1
 10
0
 20
0
 70
     0
  0
VERTEX
  5
47C
100
AcDbEntity
  8
レイヤ1
100
AcDbVertex
100
AcDb2dVertex
 10
99.68890534334
 20
1400.3596906
  0
VERTEX
  5
47D
100
AcDbEntity
  8
レイヤ1
100
AcDbVertex
100
AcDb2dVertex
 10
106.530250302
 20
1382.772076376
  0
VERTEX
  5
47E
100
AcDbEntity
  8
レイヤ1
100
AcDbVertex
100
AcDb2dVertex
 10
108.4453632451
 20
1364.323498466
  0
VERTEX
  5
47F
100
AcDbEntity
  8
レイヤ1
100
AcDbVertex
100
AcDb2dVertex
 10
107.001623091
 20
1351.425785911
  0
VERTEX
  5
480
100
AcDbEntity
  8
レイヤ1
100
AcDbVertex
100
AcDb2dVertex
 10
101.5808360181
 20
1336.341856665
  0
VERTEX
  5
481
100
AcDbEntity
  8
レイヤ1
100
AcDbVertex
100
AcDb2dVertex
 10
90.73926187232
 20
1315.837140346
  0
VERTEX
  5
482
100
AcDbEntity
  8
レイヤ1
100
AcDbVertex
100
AcDb2dVertex
 10
82.96161085469
 20
1307.11674375
  0
VERTEX
  5
483
100
AcDbEntity
  8
レイヤ1
100
AcDbVertex
100
AcDb2dVertex
 10
72.35572310338
 20
1296.982228788
  0
VERTEX
  5
484
100
AcDbEntity
  8
レイヤ1
100
AcDbVertex
100
AcDb2dVertex
 10
65.99219045259
 20
1293.211246476
  0
VERTEX
  5
485
100
AcDbEntity
  8
レイヤ1
100
AcDbVertex
100
AcDb2dVertex
 10
57.0361074626
 20
1284.726536275
  0
VERTEX
  5
486
100
AcDbEntity
  8
レイヤ1
100
AcDbVertex
100
AcDb2dVertex
 10
45.72316052787
 20
1279.070062808
  0
VERTEX
  5
487
100
AcDbEntity
  8
レイヤ1
100
AcDbVertex
100
AcDb2dVertex
 10
22.62589386946
 20
1278.834376413
  0
VERTEX
  5
488
100
AcDbEntity
  8
レイヤ1
100
AcDbVertex
100
AcDb2dVertex
 10
17.44079319104
 20
1280.24849478
  0
VERTEX
  5
489
100
AcDbEntity
  8
レイヤ1
100
AcDbVertex
100
AcDb2dVertex
 10
-4.478041494997
 20
1293.682619265
  0
VERTEX
  5
48A
100
AcDbEntity
  8
レイヤ1
100
AcDbVertex
100
AcDb2dVertex
 10
-19.09059795236
 20
1307.588116539
  0
VERTEX
  5
48B
100
AcDbEntity
  8
レイヤ1
100
AcDbVertex
100
AcDb2dVertex
 10
-27.21434294887
 20
1316.349521666
  0
VERTEX
  5
48C
100
AcDbEntity
  8
レイヤ1
100
AcDbVertex
100
AcDb2dVertex
 10
-35.35295917103
 20
1331.86381517
  0
VERTEX
  5
48D
100
AcDbEntity
  8
レイヤ1
100
AcDbVertex
100
AcDb2dVertex
 10
-38.88825508814
 20
1343.176762105
  0
VERTEX
  5
48E
100
AcDbEntity
  8
レイヤ1
100
AcDbVertex
100
AcDb2dVertex
 10
-40.77374624392
 20
1354.489709039
  0
VERTEX
  5
48F
100
AcDbEntity
  8
レイヤ1
100
AcDbVertex
100
AcDb2dVertex
 10
-41.24511903287
 20
1367.923833524
  0
VERTEX
  5
490
100
AcDbEntity
  8
レイヤ1
100
AcDbVertex
100
AcDb2dVertex
 10
-46.51178613079
 20
1368.469111798
  0
VERTEX
  5
491
100
AcDbEntity
  8
レイヤ1
100
AcDbVertex
100
AcDb2dVertex
 10
-50.67257481181
 20
1370.752070258
  0
SEQEND
  5
492
100
AcDbEntity
  8
レイヤ1
  0
LINE
  5
493
100
AcDbEntity
  8
レイヤ1
  6
CONTINUOUS
 62
     0
100
AcDbLine
 10
-51.83955622822
 20
1372.078681274
 11
-53.61275791262
 21
1374.231854748
  0
POLYLINE
  5
494
100
AcDbEntity
  8
レイヤ1
  6
CONTINUOUS
 62
     0
100
AcDb2dPolyline
 66
     1
 10
0
 20
0
 70
     0
  0
VERTEX
  5
495
100
AcDbEntity
  8
レイヤ1
100
AcDbVertex
100
AcDb2dVertex
 10
-53.92257957506
 20
1374.987514546
  0
VERTEX
  5
496
100
AcDbEntity
  8
レイヤ1
100
AcDbVertex
100
AcDb2dVertex
 10
-54.92349213317
 20
1377.540559448
  0
VERTEX
  5
497
100
AcDbEntity
  8
レイヤ1
100
AcDbVertex
100
AcDb2dVertex
 10
-56.57507109428
 20
1383.546301125
  0
SEQEND
  5
498
100
AcDbEntity
  8
レイヤ1
  0
POLYLINE
  5
499
100
AcDbEntity
  8
レイヤ1
  6
CONTINUOUS
 62
     0
100
AcDb2dPolyline
 66
     1
 10
0
 20
0
 70
     0
  0
VERTEX
  5
49A
100
AcDbEntity
  8
レイヤ1
100
AcDbVertex
100
AcDb2dVertex
 10
-61.43799233821
 20
1401.166075299
  0
VERTEX
  5
49B
100
AcDbEntity
  8
レイヤ1
100
AcDbVertex
100
AcDb2dVertex
 10
-61.86686299713
 20
1405.393514651
  0
VERTEX
  5
49C
100
AcDbEntity
  8
レイヤ1
100
AcDbVertex
100
AcDb2dVertex
 10
-62.55940250829
 20
1418.551765363
  0
VERTEX
  5
49D
100
AcDbEntity
  8
レイヤ1
100
AcDbVertex
100
AcDb2dVertex
 10
-61.63601649341
 20
1427.67020226
  0
VERTEX
  5
49E
100
AcDbEntity
  8
レイヤ1
100
AcDbVertex
100
AcDb2dVertex
 10
-59.55839795992
 20
1430.671206809
  0
VERTEX
  5
49F
100
AcDbEntity
  8
レイヤ1
100
AcDbVertex
100
AcDb2dVertex
 10
-56.44197015969
 20
1434.249327616
  0
VERTEX
  5
4A0
100
AcDbEntity
  8
レイヤ1
100
AcDbVertex
100
AcDb2dVertex
 10
-53.35660572096
 20
1435.968929082
  0
SEQEND
  5
4A1
100
AcDbEntity
  8
レイヤ1
  0
POLYLINE
  5
4A2
100
AcDbEntity
  8
レイヤ1
  6
CONTINUOUS
 62
     0
100
AcDb2dPolyline
 66
     1
 10
0
 20
0
 70
     0
  0
VERTEX
  5
4A3
100
AcDbEntity
  8
レイヤ1
100
AcDbVertex
100
AcDb2dVertex
 10
-57.28099321849
 20
1385.503053646
  0
VERTEX
  5
4A4
100
AcDbEntity
  8
レイヤ1
100
AcDbVertex
100
AcDb2dVertex
 10
-59.3275514562
 20
1391.427301176
  0
VERTEX
  5
4A5
100
AcDbEntity
  8
レイヤ1
100
AcDbVertex
100
AcDb2dVertex
 10
-61.0589002341
 20
1397.429310273
  0
VERTEX
  5
4A6
100
AcDbEntity
  8
レイヤ1
100
AcDbVertex
100
AcDb2dVertex
 10
-61.32630236374
 20
1400.065131265
  0
SEQEND
  5
4A7
100
AcDbEntity
  8
レイヤ1
  0
LINE
  5
4A8
100
AcDbEntity
  8
レイヤ1
  6
CONTINUOUS
 62
     0
100
AcDbLine
 10
-43.83766937208
 20
1416.946603575
 11
-43.86776204702
 21
1413.401361141
  0
LINE
  5
4A9
100
AcDbEntity
  8
レイヤ1
  6
CONTINUOUS
 62
     0
100
AcDbLine
 10
-43.89991902602
 20
1409.612921372
 11
-43.95821026756
 21
1402.745582943
  0
POLYLINE
  5
4AA
100
AcDbEntity
  8
レイヤ1
  6
CONTINUOUS
 62
     0
100
AcDb2dPolyline
 66
     1
 10
0
 20
0
 70
     0
  0
VERTEX
  5
4AB
100
AcDbEntity
  8
レイヤ1
100
AcDbVertex
100
AcDb2dVertex
 10
-43.98793780862
 20
1399.243357227
  0
VERTEX
  5
4AC
100
AcDbEntity
  8
レイヤ1
100
AcDbVertex
100
AcDb2dVertex
 10
-44.03775495362
 20
1393.374358982
  0
VERTEX
  5
4AD
100
AcDbEntity
  8
レイヤ1
100
AcDbVertex
100
AcDb2dVertex
 10
-43.73130843446
 20
1390.672057858
  0
SEQEND
  5
4AE
100
AcDbEntity
  8
レイヤ1
  0
LINE
  5
4AF
100
AcDbEntity
  8
レイヤ1
  6
CONTINUOUS
 62
     0
100
AcDbLine
 10
-43.47784220978
 20
1388.436946604
 11
-43.30151100888
 21
1386.882026015
  0
POLYLINE
  5
4B0
100
AcDbEntity
  8
レイヤ1
  6
CONTINUOUS
 62
     0
100
AcDb2dPolyline
 66
     1
 10
0
 20
0
 70
     0
  0
VERTEX
  5
4B1
100
AcDbEntity
  8
レイヤ1
100
AcDbVertex
100
AcDb2dVertex
 10
-42.97797501256
 20
1384.029026775
  0
VERTEX
  5
4B2
100
AcDbEntity
  8
レイヤ1
100
AcDbVertex
100
AcDb2dVertex
 10
-42.2234654237
 20
1377.375624036
  0
VERTEX
  5
4B3
100
AcDbEntity
  8
レイヤ1
100
AcDbVertex
100
AcDb2dVertex
 10
-41.24511903287
 20
1367.923833524
  0
SEQEND
  5
4B4
100
AcDbEntity
  8
レイヤ1
  0
LINE
  5
4B5
100
AcDbEntity
  8
レイヤ1
  6
CONTINUOUS
 62
     0
100
AcDbLine
 10
-40.41442108514
 20
1379.14211953
 11
-41.24511903287
 21
1367.923833524
  0
POLYLINE
  5
4B6
100
AcDbEntity
  8
レイヤ1
  6
CONTINUOUS
 62
     0
100
AcDb2dPolyline
 66
     1
 10
0
 20
0
 70
     0
  0
VERTEX
  5
4B7
100
AcDbEntity
  8
レイヤ1
100
AcDbVertex
100
AcDb2dVertex
 10
-46.63099375156
 20
1327.021126638
  0
VERTEX
  5
4B8
100
AcDbEntity
  8
レイヤ1
100
AcDbVertex
100
AcDb2dVertex
 10
-47.60865168366
 20
1318.66537708
  0
VERTEX
  5
4B9
100
AcDbEntity
  8
レイヤ1
100
AcDbVertex
100
AcDb2dVertex
 10
-49.96551562839
 20
1313.715962796
  0
VERTEX
  5
4BA
100
AcDbEntity
  8
レイヤ1
100
AcDbVertex
100
AcDb2dVertex
 10
-53.02943875655
 20
1309.237921301
  0
SEQEND
  5
4BB
100
AcDbEntity
  8
レイヤ1
  0
POLYLINE
  5
4BC
100
AcDbEntity
  8
レイヤ1
  6
CONTINUOUS
 62
     0
100
AcDb2dPolyline
 66
     1
 10
0
 20
0
 70
     0
  0
VERTEX
  5
4BD
100
AcDbEntity
  8
レイヤ1
100
AcDbVertex
100
AcDb2dVertex
 10
-58.92159861839
 20
1310.416353273
  0
VERTEX
  5
4BE
100
AcDbEntity
  8
レイヤ1
100
AcDbVertex
100
AcDb2dVertex
 10
-54.67924351786
 20
1310.416353273
  0
VERTEX
  5
4BF
100
AcDbEntity
  8
レイヤ1
100
AcDbVertex
100
AcDb2dVertex
 10
-53.02943875655
 20
1309.237921301
  0
VERTEX
  5
4C0
100
AcDbEntity
  8
レイヤ1
100
AcDbVertex
100
AcDb2dVertex
 10
-40.30237345498
 20
1303.345761439
  0
VERTEX
  5
4C1
100
AcDbEntity
  8
レイヤ1
100
AcDbVertex
100
AcDb2dVertex
 10
-28.98942652025
 20
1293.91830566
  0
VERTEX
  5
4C2
100
AcDbEntity
  8
レイヤ1
100
AcDbVertex
100
AcDb2dVertex
 10
-21.44746189709
 20
1287.08340022
  0
VERTEX
  5
4C3
100
AcDbEntity
  8
レイヤ1
100
AcDbVertex
100
AcDb2dVertex
 10
-17.91216597999
 20
1285.904968248
  0
VERTEX
  5
4C4
100
AcDbEntity
  8
レイヤ1
100
AcDbVertex
100
AcDb2dVertex
 10
-1.178431972368
 20
1270.349666212
  0
VERTEX
  5
4C5
100
AcDbEntity
  8
レイヤ1
100
AcDbVertex
100
AcDb2dVertex
 10
13.19843809052
 20
1256.915541727
  0
VERTEX
  5
4C6
100
AcDbEntity
  8
レイヤ1
100
AcDbVertex
100
AcDb2dVertex
 10
15.08392924631
 20
1256.915541727
  0
VERTEX
  5
4C7
100
AcDbEntity
  8
レイヤ1
100
AcDbVertex
100
AcDb2dVertex
 10
21.21177550262
 20
1252.437500232
  0
VERTEX
  5
4C8
100
AcDbEntity
  8
レイヤ1
100
AcDbVertex
100
AcDb2dVertex
 10
22.39020747499
 20
1248.902204315
  0
SEQEND
  5
4C9
100
AcDbEntity
  8
レイヤ1
  0
POLYLINE
  5
4CA
100
AcDbEntity
  8
レイヤ1
  6
CONTINUOUS
 62
     0
100
AcDb2dPolyline
 66
     1
 10
0
 20
0
 70
     0
  0
VERTEX
  5
4CB
100
AcDbEntity
  8
レイヤ1
100
AcDbVertex
100
AcDb2dVertex
 10
41.957624115
 20
1279.031638967
  0
VERTEX
  5
4CC
100
AcDbEntity
  8
レイヤ1
100
AcDbVertex
100
AcDb2dVertex
 10
31.81766325393
 20
1262.807701589
  0
VERTEX
  5
4CD
100
AcDbEntity
  8
レイヤ1
100
AcDbVertex
100
AcDb2dVertex
 10
22.39020747499
 20
1248.902204315
  0
VERTEX
  5
4CE
100
AcDbEntity
  8
レイヤ1
100
AcDbVertex
100
AcDb2dVertex
 10
14.14118366841
 20
1239.239062142
  0
SEQEND
  5
4CF
100
AcDbEntity
  8
レイヤ1
  0
POLYLINE
  5
4D0
100
AcDbEntity
  8
レイヤ1
  6
CONTINUOUS
 62
     0
100
AcDb2dPolyline
 66
     1
 10
0
 20
0
 70
     0
  0
VERTEX
  5
4D1
100
AcDbEntity
  8
レイヤ1
100
AcDbVertex
100
AcDb2dVertex
 10
28.5180537313
 20
1226.040624051
  0
VERTEX
  5
4D2
100
AcDbEntity
  8
レイヤ1
100
AcDbVertex
100
AcDb2dVertex
 10
14.14118366841
 20
1239.239062142
  0
VERTEX
  5
4D3
100
AcDbEntity
  8
レイヤ1
100
AcDbVertex
100
AcDb2dVertex
 10
-16.0266748242
 20
1269.642607029
  0
VERTEX
  5
4D4
100
AcDbEntity
  8
レイヤ1
100
AcDbVertex
100
AcDb2dVertex
 10
-36.76707753787
 20
1293.682619265
  0
VERTEX
  5
4D5
100
AcDbEntity
  8
レイヤ1
100
AcDbVertex
100
AcDb2dVertex
 10
-45.95884692234
 20
1301.460270283
  0
VERTEX
  5
4D6
100
AcDbEntity
  8
レイヤ1
100
AcDbVertex
100
AcDb2dVertex
 10
-58.92159861839
 20
1310.416353273
  0
VERTEX
  5
4D7
100
AcDbEntity
  8
レイヤ1
100
AcDbVertex
100
AcDb2dVertex
 10
-64.34238569128
 20
1312.066158034
  0
VERTEX
  5
4D8
100
AcDbEntity
  8
レイヤ1
100
AcDbVertex
100
AcDb2dVertex
 10
-74.47690065364
 20
1312.066158034
  0
SEQEND
  5
4D9
100
AcDbEntity
  8
レイヤ1
  0
POLYLINE
  5
4DA
100
AcDbEntity
  8
レイヤ1
  6
CONTINUOUS
 62
     0
100
AcDb2dPolyline
 66
     1
 10
0
 20
0
 70
     0
  0
VERTEX
  5
4DB
100
AcDbEntity
  8
レイヤ1
100
AcDbVertex
100
AcDb2dVertex
 10
26.16118978656
 20
1220.855523373
  0
VERTEX
  5
4DC
100
AcDbEntity
  8
レイヤ1
100
AcDbVertex
100
AcDb2dVertex
 10
-6.599219045259
 20
1252.908873021
  0
VERTEX
  5
4DD
100
AcDbEntity
  8
レイヤ1
100
AcDbVertex
100
AcDb2dVertex
 10
-24.51138502525
 20
1274.356334918
  0
VERTEX
  5
4DE
100
AcDbEntity
  8
レイヤ1
100
AcDbVertex
100
AcDb2dVertex
 10
-40.0666870605
 20
1288.261832192
  0
VERTEX
  5
4DF
100
AcDbEntity
  8
レイヤ1
100
AcDbVertex
100
AcDb2dVertex
 10
-48.55139726155
 20
1297.217915182
  0
VERTEX
  5
4E0
100
AcDbEntity
  8
レイヤ1
100
AcDbVertex
100
AcDb2dVertex
 10
-68.5847407918
 20
1310.180666878
  0
VERTEX
  5
4E1
100
AcDbEntity
  8
レイヤ1
100
AcDbVertex
100
AcDb2dVertex
 10
-74.47690065364
 20
1312.066158034
  0
VERTEX
  5
4E2
100
AcDbEntity
  8
レイヤ1
100
AcDbVertex
100
AcDb2dVertex
 10
-86.26122037732
 20
1312.301844429
  0
VERTEX
  5
4E3
100
AcDbEntity
  8
レイヤ1
100
AcDbVertex
100
AcDb2dVertex
 10
-94.98161697284
 20
1305.466938989
  0
VERTEX
  5
4E4
100
AcDbEntity
  8
レイヤ1
100
AcDbVertex
100
AcDb2dVertex
 10
-108.1800550634
 20
1292.739873687
  0
VERTEX
  5
4E5
100
AcDbEntity
  8
レイヤ1
100
AcDbVertex
100
AcDb2dVertex
 10
-119.2573156036
 20
1287.554773009
  0
VERTEX
  5
4E6
100
AcDbEntity
  8
レイヤ1
100
AcDbVertex
100
AcDb2dVertex
 10
-126.0922210433
 20
1278.363003625
  0
VERTEX
  5
4E7
100
AcDbEntity
  8
レイヤ1
100
AcDbVertex
100
AcDb2dVertex
 10
-130.3345761439
 20
1275.534766891
  0
VERTEX
  5
4E8
100
AcDbEntity
  8
レイヤ1
100
AcDbVertex
100
AcDb2dVertex
 10
-136.2267360057
 20
1268.699861451
  0
VERTEX
  5
4E9
100
AcDbEntity
  8
レイヤ1
100
AcDbVertex
100
AcDb2dVertex
 10
-160.5024346365
 20
1259.036719278
  0
VERTEX
  5
4EA
100
AcDbEntity
  8
レイヤ1
100
AcDbVertex
100
AcDb2dVertex
 10
-175.5863638828
 20
1250.552009077
  0
VERTEX
  5
4EB
100
AcDbEntity
  8
レイヤ1
100
AcDbVertex
100
AcDb2dVertex
 10
-186.1922516341
 20
1240.417494114
  0
VERTEX
  5
4EC
100
AcDbEntity
  8
レイヤ1
100
AcDbVertex
100
AcDb2dVertex
 10
-190.6702931291
 20
1238.296316564
  0
VERTEX
  5
4ED
100
AcDbEntity
  8
レイヤ1
100
AcDbVertex
100
AcDb2dVertex
 10
-193.4985298628
 20
1229.811606363
  0
VERTEX
  5
4EE
100
AcDbEntity
  8
レイヤ1
100
AcDbVertex
100
AcDb2dVertex
 10
-193.7342162573
 20
1220.619836979
  0
VERTEX
  5
4EF
100
AcDbEntity
  8
レイヤ1
100
AcDbVertex
100
AcDb2dVertex
 10
-201.5118672749
 20
1201.057866237
  0
VERTEX
  5
4F0
100
AcDbEntity
  8
レイヤ1
100
AcDbVertex
100
AcDb2dVertex
 10
-206.6969679533
 20
1181.967268285
  0
VERTEX
  5
4F1
100
AcDbEntity
  8
レイヤ1
100
AcDbVertex
100
AcDb2dVertex
 10
-209.7608910815
 20
1173.011185295
  0
VERTEX
  5
4F2
100
AcDbEntity
  8
レイヤ1
100
AcDbVertex
100
AcDb2dVertex
 10
-209.7608910815
 20
1156.748824076
  0
VERTEX
  5
4F3
100
AcDbEntity
  8
レイヤ1
100
AcDbVertex
100
AcDb2dVertex
 10
-213.531873393
 20
1137.658226124
  0
VERTEX
  5
4F4
100
AcDbEntity
  8
レイヤ1
100
AcDbVertex
100
AcDb2dVertex
 10
-216.3601101267
 20
1112.439781915
  0
VERTEX
  5
4F5
100
AcDbEntity
  8
レイヤ1
100
AcDbVertex
100
AcDb2dVertex
 10
-227.9087434559
 20
1067.89505336
  0
VERTEX
  5
4F6
100
AcDbEntity
  8
レイヤ1
100
AcDbVertex
100
AcDb2dVertex
 10
-233.5652169233
 20
1057.053479214
  0
VERTEX
  5
4F7
100
AcDbEntity
  8
レイヤ1
100
AcDbVertex
100
AcDb2dVertex
 10
-234.7436488957
 20
1045.033473096
  0
VERTEX
  5
4F8
100
AcDbEntity
  8
レイヤ1
100
AcDbVertex
100
AcDb2dVertex
 10
-234.9793352901
 20
1004.024040457
  0
VERTEX
  5
4F9
100
AcDbEntity
  8
レイヤ1
100
AcDbVertex
100
AcDb2dVertex
 10
-228.8514890338
 20
948.1663649671
  0
VERTEX
  5
4FA
100
AcDbEntity
  8
レイヤ1
100
AcDbVertex
100
AcDb2dVertex
 10
-226.4946250891
 20
922.9479207584
  0
VERTEX
  5
4FB
100
AcDbEntity
  8
レイヤ1
100
AcDbVertex
100
AcDb2dVertex
 10
-205.5185359809
 20
864.7333813235
  0
VERTEX
  5
4FC
100
AcDbEntity
  8
レイヤ1
100
AcDbVertex
100
AcDb2dVertex
 10
-208.5824591091
 20
836.6867003811
  0
VERTEX
  5
4FD
100
AcDbEntity
  8
レイヤ1
100
AcDbVertex
100
AcDb2dVertex
 10
-213.7675597875
 20
797.5627588985
  0
VERTEX
  5
4FE
100
AcDbEntity
  8
レイヤ1
100
AcDbVertex
100
AcDb2dVertex
 10
-216.3601101267
 20
774.2298058456
  0
VERTEX
  5
4FF
100
AcDbEntity
  8
レイヤ1
100
AcDbVertex
100
AcDb2dVertex
 10
-221.0738380162
 20
740.5266514359
  0
VERTEX
  5
500
100
AcDbEntity
  8
レイヤ1
100
AcDbVertex
100
AcDb2dVertex
 10
-223.9020747499
 20
703.759573898
  0
VERTEX
  5
501
100
AcDbEntity
  8
レイヤ1
100
AcDbVertex
100
AcDb2dVertex
 10
-231.6797257675
 20
654.7368038475
  0
VERTEX
  5
502
100
AcDbEntity
  8
レイヤ1
100
AcDbVertex
100
AcDb2dVertex
 10
-238.0432584183
 20
603.1214834578
  0
VERTEX
  5
503
100
AcDbEntity
  8
レイヤ1
100
AcDbVertex
100
AcDb2dVertex
 10
-245.8209094359
 20
550.0920447013
  0
VERTEX
  5
504
100
AcDbEntity
  8
レイヤ1
100
AcDbVertex
100
AcDb2dVertex
 10
-248.8848325641
 20
515.9175175026
  0
VERTEX
  5
505
100
AcDbEntity
  8
レイヤ1
100
AcDbVertex
100
AcDb2dVertex
 10
-247.4707141972
 20
491.4061324773
  0
VERTEX
  5
506
100
AcDbEntity
  8
レイヤ1
100
AcDbVertex
100
AcDb2dVertex
 10
-240.6358087575
 20
458.6457236455
  0
VERTEX
  5
507
100
AcDbEntity
  8
レイヤ1
100
AcDbVertex
100
AcDb2dVertex
 10
-228.8514890338
 20
423.9998236579
  0
VERTEX
  5
508
100
AcDbEntity
  8
レイヤ1
100
AcDbVertex
100
AcDb2dVertex
 10
-223.9020747499
 20
409.3872672006
  0
VERTEX
  5
509
100
AcDbEntity
  8
レイヤ1
100
AcDbVertex
100
AcDb2dVertex
 10
-227.9087434559
 20
370.0276393235
  0
VERTEX
  5
50A
100
AcDbEntity
  8
レイヤ1
100
AcDbVertex
100
AcDb2dVertex
 10
-228.1444298504
 20
333.7319345745
  0
VERTEX
  5
50B
100
AcDbEntity
  8
レイヤ1
100
AcDbVertex
100
AcDb2dVertex
 10
-229.3228618228
 20
267.9754305164
  0
VERTEX
  5
50C
100
AcDbEntity
  8
レイヤ1
100
AcDbVertex
100
AcDb2dVertex
 10
-231.2083529786
 20
225.3161931167
  0
VERTEX
  5
50D
100
AcDbEntity
  8
レイヤ1
100
AcDbVertex
100
AcDb2dVertex
 10
-234.9793352901
 20
214.003246182
  0
VERTEX
  5
50E
100
AcDbEntity
  8
レイヤ1
100
AcDbVertex
100
AcDb2dVertex
 10
-238.2789448128
 20
194.9126482296
  0
VERTEX
  5
50F
100
AcDbEntity
  8
レイヤ1
100
AcDbVertex
100
AcDb2dVertex
 10
-238.9860039962
 20
155.788706747
  0
VERTEX
  5
510
100
AcDbEntity
  8
レイヤ1
100
AcDbVertex
100
AcDb2dVertex
 10
-235.922080868
 20
139.0549727394
  0
VERTEX
  5
511
100
AcDbEntity
  8
レイヤ1
100
AcDbVertex
100
AcDb2dVertex
 10
-225.7875659057
 20
124.6781026765
  0
VERTEX
  5
512
100
AcDbEntity
  8
レイヤ1
100
AcDbVertex
100
AcDb2dVertex
 10
-215.8887373378
 20
118.0788836312
  0
VERTEX
  5
513
100
AcDbEntity
  8
レイヤ1
100
AcDbVertex
100
AcDb2dVertex
 10
-199.8620625136
 20
112.8937829528
  0
VERTEX
  5
514
100
AcDbEntity
  8
レイヤ1
100
AcDbVertex
100
AcDb2dVertex
 10
-191.613038707
 20
111.479664586
  0
VERTEX
  5
515
100
AcDbEntity
  8
レイヤ1
100
AcDbVertex
100
AcDb2dVertex
 10
-174.172245516
 20
125.6208482544
  0
SEQEND
  5
516
100
AcDbEntity
  8
レイヤ1
  0
POLYLINE
  5
517
100
AcDbEntity
  8
レイヤ1
  6
CONTINUOUS
 62
     0
100
AcDb2dPolyline
 66
     1
 10
0
 20
0
 70
     0
  0
VERTEX
  5
518
100
AcDbEntity
  8
レイヤ1
100
AcDbVertex
100
AcDb2dVertex
 10
-153.0392538332
 20
648.2511789726
  0
VERTEX
  5
519
100
AcDbEntity
  8
レイヤ1
100
AcDbVertex
100
AcDb2dVertex
 10
-155.9267869244
 20
519.2747008994
  0
VERTEX
  5
51A
100
AcDbEntity
  8
レイヤ1
100
AcDbVertex
100
AcDb2dVertex
 10
-157.8518089852
 20
453.8239508324
  0
VERTEX
  5
51B
100
AcDbEntity
  8
レイヤ1
100
AcDbVertex
100
AcDb2dVertex
 10
-159.3001764439
 20
407.8488661175
  0
VERTEX
  5
51C
100
AcDbEntity
  8
レイヤ1
100
AcDbVertex
100
AcDb2dVertex
 10
-163.0048317101
 20
365.0769371357
  0
VERTEX
  5
51D
100
AcDbEntity
  8
レイヤ1
100
AcDbVertex
100
AcDb2dVertex
 10
-164.0151922372
 20
332.0718265829
  0
VERTEX
  5
51E
100
AcDbEntity
  8
レイヤ1
100
AcDbVertex
100
AcDb2dVertex
 10
-167.5730264707
 20
261.6118978656
  0
VERTEX
  5
51F
100
AcDbEntity
  8
レイヤ1
100
AcDbVertex
100
AcDb2dVertex
 10
-170.0773553999
 20
196.0099422629
  0
VERTEX
  5
520
100
AcDbEntity
  8
レイヤ1
100
AcDbVertex
100
AcDb2dVertex
 10
-174.172245516
 20
125.6208482544
  0
VERTEX
  5
521
100
AcDbEntity
  8
レイヤ1
100
AcDbVertex
100
AcDb2dVertex
 10
-177.4866659322
 20
57.59055004632
  0
VERTEX
  5
522
100
AcDbEntity
  8
レイヤ1
100
AcDbVertex
100
AcDb2dVertex
 10
-126.9686395758
 20
47.82373161741
  0
VERTEX
  5
523
100
AcDbEntity
  8
レイヤ1
100
AcDbVertex
100
AcDb2dVertex
 10
-110.4660842994
 20
46.13979740553
  0
VERTEX
  5
524
100
AcDbEntity
  8
レイヤ1
100
AcDbVertex
100
AcDb2dVertex
 10
-72.40917111087
 20
36.37297897662
  0
VERTEX
  5
525
100
AcDbEntity
  8
レイヤ1
100
AcDbVertex
100
AcDb2dVertex
 10
-38.0569131885
 20
34.35225792237
  0
VERTEX
  5
526
100
AcDbEntity
  8
レイヤ1
100
AcDbVertex
100
AcDb2dVertex
 10
19.87042370019
 20
30.64760265623
  0
VERTEX
  5
527
100
AcDbEntity
  8
レイヤ1
100
AcDbVertex
100
AcDb2dVertex
 10
60.6216316277
 20
33.00511055286
  0
VERTEX
  5
528
100
AcDbEntity
  8
レイヤ1
100
AcDbVertex
100
AcDb2dVertex
 10
93.28995533819
 20
35.36261844949
  0
VERTEX
  5
529
100
AcDbEntity
  8
レイヤ1
100
AcDbVertex
100
AcDb2dVertex
 10
122.5904106249
 20
41.08799476989
  0
VERTEX
  5
52A
100
AcDbEntity
  8
レイヤ1
100
AcDbVertex
100
AcDb2dVertex
 10
139.4297527437
 20
47.82373161741
  0
VERTEX
  5
52B
100
AcDbEntity
  8
レイヤ1
100
AcDbVertex
100
AcDb2dVertex
 10
169.0669948728
 20
64.99986057859
  0
VERTEX
  5
52C
100
AcDbEntity
  8
レイヤ1
100
AcDbVertex
100
AcDb2dVertex
 10
168.0566343457
 20
101.7096263976
  0
VERTEX
  5
52D
100
AcDbEntity
  8
レイヤ1
100
AcDbVertex
100
AcDb2dVertex
 10
165.3623396067
 20
159.9737501287
  0
VERTEX
  5
52E
100
AcDbEntity
  8
レイヤ1
100
AcDbVertex
100
AcDb2dVertex
 10
167.3830606609
 20
209.481415958
  0
VERTEX
  5
52F
100
AcDbEntity
  8
レイヤ1
100
AcDbVertex
100
AcDb2dVertex
 10
167.0462738186
 20
291.6574054977
  0
VERTEX
  5
530
100
AcDbEntity
  8
レイヤ1
100
AcDbVertex
100
AcDb2dVertex
 10
165.6991264491
 20
355.3101187068
  0
VERTEX
  5
531
100
AcDbEntity
  8
レイヤ1
100
AcDbVertex
100
AcDb2dVertex
 10
163.3416185524
 20
418.6260450735
  0
VERTEX
  5
532
100
AcDbEntity
  8
レイヤ1
100
AcDbVertex
100
AcDb2dVertex
 10
163.6784053948
 20
474.532660908
  0
VERTEX
  5
533
100
AcDbEntity
  8
レイヤ1
100
AcDbVertex
100
AcDb2dVertex
 10
165.6991264491
 20
536.1646530628
  0
VERTEX
  5
534
100
AcDbEntity
  8
レイヤ1
100
AcDbVertex
100
AcDb2dVertex
 10
165.6991264491
 20
619.3510031297
  0
SEQEND
  5
535
100
AcDbEntity
  8
レイヤ1
  0
POLYLINE
  5
536
100
AcDbEntity
  8
レイヤ1
  6
CONTINUOUS
 62
     0
100
AcDb2dPolyline
 66
     1
 10
0
 20
0
 70
     0
  0
VERTEX
  5
537
100
AcDbEntity
  8
レイヤ1
100
AcDbVertex
100
AcDb2dVertex
 10
-163.1456196524
 20
637.6635576383
  0
VERTEX
  5
538
100
AcDbEntity
  8
レイヤ1
100
AcDbVertex
100
AcDb2dVertex
 10
-159.776831046
 20
567.8815079345
  0
VERTEX
  5
539
100
AcDbEntity
  8
レイヤ1
100
AcDbVertex
100
AcDb2dVertex
 10
-158.5759927145
 20
430.8364084749
  0
SEQEND
  5
53A
100
AcDbEntity
  8
レイヤ1
  0
POLYLINE
  5
53B
100
AcDbEntity
  8
レイヤ1
  6
CONTINUOUS
 62
     0
100
AcDb2dPolyline
 66
     1
 10
0
 20
0
 70
     0
  0
VERTEX
  5
53C
100
AcDbEntity
  8
レイヤ1
100
AcDbVertex
100
AcDb2dVertex
 10
-223.9020747499
 20
409.3872672006
  0
VERTEX
  5
53D
100
AcDbEntity
  8
レイヤ1
100
AcDbVertex
100
AcDb2dVertex
 10
-219.4525149306
 20
487.0305813811
  0
VERTEX
  5
53E
100
AcDbEntity
  8
レイヤ1
100
AcDbVertex
100
AcDb2dVertex
 10
-215.1212152938
 20
563.5502082977
  0
SEQEND
  5
53F
100
AcDbEntity
  8
レイヤ1
  0
POLYLINE
  5
540
100
AcDbEntity
  8
レイヤ1
  6
CONTINUOUS
 62
     0
100
AcDb2dPolyline
 66
     1
 10
0
 20
0
 70
     0
  0
VERTEX
  5
541
100
AcDbEntity
  8
レイヤ1
100
AcDbVertex
100
AcDb2dVertex
 10
78.01219657074
 20
1287.554773009
  0
VERTEX
  5
542
100
AcDbEntity
  8
レイヤ1
100
AcDbVertex
100
AcDb2dVertex
 10
86.89100533304
 20
1276.758919448
  0
VERTEX
  5
543
100
AcDbEntity
  8
レイヤ1
100
AcDbVertex
100
AcDb2dVertex
 10
98.34175797383
 20
1270.359969443
  0
VERTEX
  5
544
100
AcDbEntity
  8
レイヤ1
100
AcDbVertex
100
AcDb2dVertex
 10
117.2018211469
 20
1251.163119427
  0
VERTEX
  5
545
100
AcDbEntity
  8
レイヤ1
100
AcDbVertex
100
AcDb2dVertex
 10
152.9012264388
 20
1238.365219417
  0
VERTEX
  5
546
100
AcDbEntity
  8
レイヤ1
100
AcDbVertex
100
AcDb2dVertex
 10
183.2120422526
 20
1222.199450983
  0
VERTEX
  5
547
100
AcDbEntity
  8
レイヤ1
100
AcDbVertex
100
AcDb2dVertex
 10
189.2742054154
 20
1203.676174652
  0
VERTEX
  5
548
100
AcDbEntity
  8
レイヤ1
100
AcDbVertex
100
AcDb2dVertex
 10
193.6524343663
 20
1192.225422012
  0
VERTEX
  5
549
100
AcDbEntity
  8
レイヤ1
100
AcDbVertex
100
AcDb2dVertex
 10
192.9788606815
 20
1185.152898322
  0
VERTEX
  5
54A
100
AcDbEntity
  8
レイヤ1
100
AcDbVertex
100
AcDb2dVertex
 10
190.2845659425
 20
1178.080374632
  0
VERTEX
  5
54B
100
AcDbEntity
  8
レイヤ1
100
AcDbVertex
100
AcDb2dVertex
 10
198.0306633172
 20
1166.292835149
  0
VERTEX
  5
54C
100
AcDbEntity
  8
レイヤ1
100
AcDbVertex
100
AcDb2dVertex
 10
201.7353185833
 20
1152.147787769
  0
VERTEX
  5
54D
100
AcDbEntity
  8
レイヤ1
100
AcDbVertex
100
AcDb2dVertex
 10
201.3985317409
 20
1137.665953547
  0
VERTEX
  5
54E
100
AcDbEntity
  8
レイヤ1
100
AcDbVertex
100
AcDb2dVertex
 10
215.8803659631
 20
1102.303335097
  0
VERTEX
  5
54F
100
AcDbEntity
  8
レイヤ1
100
AcDbVertex
100
AcDb2dVertex
 10
223.6264633378
 20
1065.593569278
  0
VERTEX
  5
550
100
AcDbEntity
  8
レイヤ1
100
AcDbVertex
100
AcDb2dVertex
 10
227.6679054463
 20
1058.857832431
  0
VERTEX
  5
551
100
AcDbEntity
  8
レイヤ1
100
AcDbVertex
100
AcDb2dVertex
 10
231.03577387
 20
1043.028850839
  0
VERTEX
  5
552
100
AcDbEntity
  8
レイヤ1
100
AcDbVertex
100
AcDb2dVertex
 10
231.7093475548
 20
1014.065182395
  0
VERTEX
  5
553
100
AcDbEntity
  8
レイヤ1
100
AcDbVertex
100
AcDb2dVertex
 10
227.3311186039
 20
1003.624790281
  0
VERTEX
  5
554
100
AcDbEntity
  8
レイヤ1
100
AcDbVertex
100
AcDb2dVertex
 10
229.0150528158
 20
958.8321402449
  0
VERTEX
  5
555
100
AcDbEntity
  8
レイヤ1
100
AcDbVertex
100
AcDb2dVertex
 10
222.952889653
 20
908.6509007308
  0
VERTEX
  5
556
100
AcDbEntity
  8
レイヤ1
100
AcDbVertex
100
AcDb2dVertex
 10
211.1653501698
 20
853.4178585811
  0
VERTEX
  5
557
100
AcDbEntity
  8
レイヤ1
100
AcDbVertex
100
AcDb2dVertex
 10
207.7974817461
 20
820.4127480283
  0
VERTEX
  5
558
100
AcDbEntity
  8
レイヤ1
100
AcDbVertex
100
AcDb2dVertex
 10
216.5539396479
 20
761.1382637701
  0
VERTEX
  5
559
100
AcDbEntity
  8
レイヤ1
100
AcDbVertex
100
AcDb2dVertex
 10
229.3518396581
 20
677.6151268608
  0
VERTEX
  5
55A
100
AcDbEntity
  8
レイヤ1
100
AcDbVertex
100
AcDb2dVertex
 10
244.8440344075
 20
580.9573030988
  0
VERTEX
  5
55B
100
AcDbEntity
  8
レイヤ1
100
AcDbVertex
100
AcDb2dVertex
 10
254.274065994
 20
523.0299662101
  0
VERTEX
  5
55C
100
AcDbEntity
  8
レイヤ1
100
AcDbVertex
100
AcDb2dVertex
 10
264.3776712653
 20
478.9108898589
  0
VERTEX
  5
55D
100
AcDbEntity
  8
レイヤ1
100
AcDbVertex
100
AcDb2dVertex
 10
264.3776712653
 20
462.0715477401
  0
VERTEX
  5
55E
100
AcDbEntity
  8
レイヤ1
100
AcDbVertex
100
AcDb2dVertex
 10
252.5901317821
 20
418.9628319159
  0
VERTEX
  5
55F
100
AcDbEntity
  8
レイヤ1
100
AcDbVertex
100
AcDb2dVertex
 10
249.5590502007
 20
392.6934582106
  0
VERTEX
  5
560
100
AcDbEntity
  8
レイヤ1
100
AcDbVertex
100
AcDb2dVertex
 10
246.8647554617
 20
358.0044134458
  0
VERTEX
  5
561
100
AcDbEntity
  8
レイヤ1
100
AcDbVertex
100
AcDb2dVertex
 10
243.4968870379
 20
348.2375950169
  0
VERTEX
  5
562
100
AcDbEntity
  8
レイヤ1
100
AcDbVertex
100
AcDb2dVertex
 10
248.885476516
 20
319.2739265726
  0
VERTEX
  5
563
100
AcDbEntity
  8
レイヤ1
100
AcDbVertex
100
AcDb2dVertex
 10
254.274065994
 20
257.6419344177
  0
VERTEX
  5
564
100
AcDbEntity
  8
レイヤ1
100
AcDbVertex
100
AcDb2dVertex
 10
258.3155081025
 20
201.7353185833
  0
VERTEX
  5
565
100
AcDbEntity
  8
レイヤ1
100
AcDbVertex
100
AcDb2dVertex
 10
257.6419344177
 20
186.243123834
  0
VERTEX
  5
566
100
AcDbEntity
  8
レイヤ1
100
AcDbVertex
100
AcDb2dVertex
 10
252.2533449397
 20
165.3623396067
  0
VERTEX
  5
567
100
AcDbEntity
  8
レイヤ1
100
AcDbVertex
100
AcDb2dVertex
 10
244.5072475651
 20
153.2380132811
  0
VERTEX
  5
568
100
AcDbEntity
  8
レイヤ1
100
AcDbVertex
100
AcDb2dVertex
 10
236.424363348
 20
145.4919159065
  0
VERTEX
  5
569
100
AcDbEntity
  8
レイヤ1
100
AcDbVertex
100
AcDb2dVertex
 10
226.9943317615
 20
140.4401132708
  0
VERTEX
  5
56A
100
AcDbEntity
  8
レイヤ1
100
AcDbVertex
100
AcDb2dVertex
 10
216.5539396479
 20
138.4193922166
  0
VERTEX
  5
56B
100
AcDbEntity
  8
レイヤ1
100
AcDbVertex
100
AcDb2dVertex
 10
205.4399738494
 20
139.7665395861
  0
VERTEX
  5
56C
100
AcDbEntity
  8
レイヤ1
100
AcDbVertex
100
AcDb2dVertex
 10
191.2949264696
 20
145.8287027489
  0
VERTEX
  5
56D
100
AcDbEntity
  8
レイヤ1
100
AcDbVertex
100
AcDb2dVertex
 10
183.8856159374
 20
152.5644395964
  0
VERTEX
  5
56E
100
AcDbEntity
  8
レイヤ1
100
AcDbVertex
100
AcDb2dVertex
 10
165.5696398111
 20
165.052605137
  0
SEQEND
  5
56F
100
AcDbEntity
  8
レイヤ1
  0
POLYLINE
  5
570
100
AcDbEntity
  8
レイヤ1
  6
CONTINUOUS
 62
     0
100
AcDb2dPolyline
 66
     1
 10
0
 20
0
 70
     0
  0
VERTEX
  5
571
100
AcDbEntity
  8
レイヤ1
100
AcDbVertex
100
AcDb2dVertex
 10
-110.4660842994
 20
46.13979740553
  0
VERTEX
  5
572
100
AcDbEntity
  8
レイヤ1
100
AcDbVertex
100
AcDb2dVertex
 10
-96.86710812863
 20
30.63923128156
  0
VERTEX
  5
573
100
AcDbEntity
  8
レイヤ1
100
AcDbVertex
100
AcDb2dVertex
 10
-82.0188652768
 20
18.38353876894
  0
VERTEX
  5
574
100
AcDbEntity
  8
レイヤ1
100
AcDbVertex
100
AcDb2dVertex
 10
-69.99885915864
 20
12.02000611815
  0
VERTEX
  5
575
100
AcDbEntity
  8
レイヤ1
100
AcDbVertex
100
AcDb2dVertex
 10
-59.39297140733
 20
9.663142173416
  0
VERTEX
  5
576
100
AcDbEntity
  8
レイヤ1
100
AcDbVertex
100
AcDb2dVertex
 10
-38.18119590471
 20
9.663142173416
  0
VERTEX
  5
577
100
AcDbEntity
  8
レイヤ1
100
AcDbVertex
100
AcDb2dVertex
 10
-17.67647958552
 20
10.84157414578
  0
VERTEX
  5
578
100
AcDbEntity
  8
レイヤ1
100
AcDbVertex
100
AcDb2dVertex
 10
-5.420787072892
 20
14.84824285183
  0
VERTEX
  5
579
100
AcDbEntity
  8
レイヤ1
100
AcDbVertex
100
AcDb2dVertex
 10
0.2356863944735
 20
17.44079319104
  0
VERTEX
  5
57A
100
AcDbEntity
  8
レイヤ1
100
AcDbVertex
100
AcDb2dVertex
 10
3.063923128156
 20
21.68314829157
  0
VERTEX
  5
57B
100
AcDbEntity
  8
レイヤ1
100
AcDbVertex
100
AcDb2dVertex
 10
4.478041494997
 20
10.37020135684
  0
VERTEX
  5
57C
100
AcDbEntity
  8
レイヤ1
100
AcDbVertex
100
AcDb2dVertex
 10
8.013337412101
 20
4.478041494997
  0
VERTEX
  5
57D
100
AcDbEntity
  8
レイヤ1
100
AcDbVertex
100
AcDb2dVertex
 10
14.37687006289
 20
1.414118366841
  0
VERTEX
  5
57E
100
AcDbEntity
  8
レイヤ1
100
AcDbVertex
100
AcDb2dVertex
 10
20.97608910815
 20
-0.7070591834206
  0
VERTEX
  5
57F
100
AcDbEntity
  8
レイヤ1
100
AcDbVertex
100
AcDb2dVertex
 10
51.61532038971
 20
-2.121177550262
  0
VERTEX
  5
580
100
AcDbEntity
  8
レイヤ1
100
AcDbVertex
100
AcDb2dVertex
 10
67.40630881944
 20
-0.9427455778942
  0
VERTEX
  5
581
100
AcDbEntity
  8
レイヤ1
100
AcDbVertex
100
AcDb2dVertex
 10
71.88435031443
 20
-0.4713727889471
  0
VERTEX
  5
582
100
AcDbEntity
  8
レイヤ1
100
AcDbVertex
100
AcDb2dVertex
 10
79.19062854311
 20
5.420787072892
  0
VERTEX
  5
583
100
AcDbEntity
  8
レイヤ1
100
AcDbVertex
100
AcDb2dVertex
 10
79.89768772653
 20
7.777651017627
  0
VERTEX
  5
584
100
AcDbEntity
  8
レイヤ1
100
AcDbVertex
100
AcDb2dVertex
 10
81.0761196989
 20
21.44746189709
  0
VERTEX
  5
585
100
AcDbEntity
  8
レイヤ1
100
AcDbVertex
100
AcDb2dVertex
 10
80.63784606725
 20
34.44957963613
  0
SEQEND
  5
586
100
AcDbEntity
  8
レイヤ1
  0
POLYLINE
  5
587
100
AcDbEntity
  8
レイヤ1
  6
CONTINUOUS
 62
     0
100
AcDb2dPolyline
 66
     1
 10
0
 20
0
 70
     0
  0
VERTEX
  5
588
100
AcDbEntity
  8
レイヤ1
100
AcDbVertex
100
AcDb2dVertex
 10
-106.6442704757
 20
45.15897792865
  0
VERTEX
  5
589
100
AcDbEntity
  8
レイヤ1
100
AcDbVertex
100
AcDb2dVertex
 10
-97.97163461592
 20
35.13124271581
  0
VERTEX
  5
58A
100
AcDbEntity
  8
レイヤ1
100
AcDbVertex
100
AcDb2dVertex
 10
-83.78718920015
 20
22.59615141815
  0
VERTEX
  5
58B
100
AcDbEntity
  8
レイヤ1
100
AcDbVertex
100
AcDb2dVertex
 10
-69.76767919619
 20
15.00912247483
  0
VERTEX
  5
58C
100
AcDbEntity
  8
レイヤ1
100
AcDbVertex
100
AcDb2dVertex
 10
-61.52090860562
 20
12.53509129766
  0
VERTEX
  5
58D
100
AcDbEntity
  8
レイヤ1
100
AcDbVertex
100
AcDb2dVertex
 10
-31.9974698914
 20
12.86496212128
  0
VERTEX
  5
58E
100
AcDbEntity
  8
レイヤ1
100
AcDbVertex
100
AcDb2dVertex
 10
-19.46237859374
 20
14.67925165121
  0
VERTEX
  5
58F
100
AcDbEntity
  8
レイヤ1
100
AcDbVertex
100
AcDb2dVertex
 10
-5.937674825207
 20
19.13250777011
  0
VERTEX
  5
590
100
AcDbEntity
  8
レイヤ1
100
AcDbVertex
100
AcDb2dVertex
 10
0.3298708236226
 20
23.75069930083
  0
VERTEX
  5
591
100
AcDbEntity
  8
レイヤ1
100
AcDbVertex
100
AcDb2dVertex
 10
1.319483294491
 20
27.21434294887
  0
SEQEND
  5
592
100
AcDbEntity
  8
レイヤ1
  0
POLYLINE
  5
593
100
AcDbEntity
  8
レイヤ1
  6
CONTINUOUS
 62
     0
100
AcDb2dPolyline
 66
     1
 10
0
 20
0
 70
     0
  0
VERTEX
  5
594
100
AcDbEntity
  8
レイヤ1
100
AcDbVertex
100
AcDb2dVertex
 10
4.478041494997
 20
10.37020135684
  0
VERTEX
  5
595
100
AcDbEntity
  8
レイヤ1
100
AcDbVertex
100
AcDb2dVertex
 10
9.401318473245
 20
5.772739413396
  0
VERTEX
  5
596
100
AcDbEntity
  8
レイヤ1
100
AcDbVertex
100
AcDb2dVertex
 10
18.14289529924
 20
2.638966588981
  0
VERTEX
  5
597
100
AcDbEntity
  8
レイヤ1
100
AcDbVertex
100
AcDb2dVertex
 10
28.86369706698
 20
1.979224941736
  0
VERTEX
  5
598
100
AcDbEntity
  8
レイヤ1
100
AcDbVertex
100
AcDb2dVertex
 10
56.24297542766
 20
1.979224941736
  0
VERTEX
  5
599
100
AcDbEntity
  8
レイヤ1
100
AcDbVertex
100
AcDb2dVertex
 10
66.96377719539
 20
3.463643648038
  0
VERTEX
  5
59A
100
AcDbEntity
  8
レイヤ1
100
AcDbVertex
100
AcDb2dVertex
 10
74.3858707269
 20
6.26754564883
  0
VERTEX
  5
59B
100
AcDbEntity
  8
レイヤ1
100
AcDbVertex
100
AcDb2dVertex
 10
80.17955720736
 20
11.04733699521
  0
SEQEND
  5
59C
100
AcDbEntity
  8
レイヤ1
  0
POLYLINE
  5
59D
100
AcDbEntity
  8
レイヤ1
  6
CONTINUOUS
 62
     0
100
AcDb2dPolyline
 66
     1
 10
0
 20
0
 70
     0
  0
VERTEX
  5
59E
100
AcDbEntity
  8
レイヤ1
100
AcDbVertex
100
AcDb2dVertex
 10
-205.5185359809
 20
864.7333813235
  0
VERTEX
  5
59F
100
AcDbEntity
  8
レイヤ1
100
AcDbVertex
100
AcDb2dVertex
 10
-172.2894744411
 20
777.7089125611
  0
VERTEX
  5
5A0
100
AcDbEntity
  8
レイヤ1
100
AcDbVertex
100
AcDb2dVertex
 10
-143.8953990444
 20
706.0018407965
  0
VERTEX
  5
5A1
100
AcDbEntity
  8
レイヤ1
100
AcDbVertex
100
AcDb2dVertex
 10
-141.4891214684
 20
703.1143077053
  0
VERTEX
  5
5A2
100
AcDbEntity
  8
レイヤ1
100
AcDbVertex
100
AcDb2dVertex
 10
-129.4577335884
 20
709.3706294029
  0
VERTEX
  5
5A3
100
AcDbEntity
  8
レイヤ1
100
AcDbVertex
100
AcDb2dVertex
 10
-107.3199798893
 20
721.4020172828
  0
VERTEX
  5
5A4
100
AcDbEntity
  8
レイヤ1
100
AcDbVertex
100
AcDb2dVertex
 10
-81.81343758378
 20
740.1709823756
  0
VERTEX
  5
5A5
100
AcDbEntity
  8
レイヤ1
100
AcDbVertex
100
AcDb2dVertex
 10
-52.93810667186
 20
759.4212029835
  0
SEQEND
  5
5A6
100
AcDbEntity
  8
レイヤ1
  0
POLYLINE
  5
5A7
100
AcDbEntity
  8
レイヤ1
  6
CONTINUOUS
 62
     0
100
AcDb2dPolyline
 66
     1
 10
0
 20
0
 70
     0
  0
VERTEX
  5
5A8
100
AcDbEntity
  8
レイヤ1
100
AcDbVertex
100
AcDb2dVertex
 10
-44.5447285555
 20
746.4188112977
  0
VERTEX
  5
5A9
100
AcDbEntity
  8
レイヤ1
100
AcDbVertex
100
AcDb2dVertex
 10
-70.23454555312
 20
723.5572310338
  0
VERTEX
  5
5AA
100
AcDbEntity
  8
レイヤ1
100
AcDbVertex
100
AcDb2dVertex
 10
-103.2306407794
 20
691.9752541743
  0
VERTEX
  5
5AB
100
AcDbEntity
  8
レイヤ1
100
AcDbVertex
100
AcDb2dVertex
 10
-124.913789071
 20
672.413283433
  0
VERTEX
  5
5AC
100
AcDbEntity
  8
レイヤ1
100
AcDbVertex
100
AcDb2dVertex
 10
-180.1809606712
 20
612.6152662822
  0
VERTEX
  5
5AD
100
AcDbEntity
  8
レイヤ1
100
AcDbVertex
100
AcDb2dVertex
 10
-191.2949264696
 20
599.1437925871
  0
SEQEND
  5
5AE
100
AcDbEntity
  8
レイヤ1
  0
POLYLINE
  5
5AF
100
AcDbEntity
  8
レイヤ1
  6
CONTINUOUS
 62
     0
100
AcDb2dPolyline
 66
     1
 10
0
 20
0
 70
     0
  0
VERTEX
  5
5B0
100
AcDbEntity
  8
レイヤ1
100
AcDbVertex
100
AcDb2dVertex
 10
-47.13727889471
 20
749.4827344259
  0
VERTEX
  5
5B1
100
AcDbEntity
  8
レイヤ1
100
AcDbVertex
100
AcDb2dVertex
 10
-66.46356324154
 20
732.9846868127
  0
VERTEX
  5
5B2
100
AcDbEntity
  8
レイヤ1
100
AcDbVertex
100
AcDb2dVertex
 10
-87.91102513863
 20
715.7795800162
  0
VERTEX
  5
5B3
100
AcDbEntity
  8
レイヤ1
100
AcDbVertex
100
AcDb2dVertex
 10
-113.6008421363
 20
688.9113310462
  0
VERTEX
  5
5B4
100
AcDbEntity
  8
レイヤ1
100
AcDbVertex
100
AcDb2dVertex
 10
-135.5196768223
 20
667.2281827546
  0
VERTEX
  5
5B5
100
AcDbEntity
  8
レイヤ1
100
AcDbVertex
100
AcDb2dVertex
 10
-153.0392538332
 20
648.2511789726
  0
VERTEX
  5
5B6
100
AcDbEntity
  8
レイヤ1
100
AcDbVertex
100
AcDb2dVertex
 10
-163.1456196524
 20
637.6635576383
  0
VERTEX
  5
5B7
100
AcDbEntity
  8
レイヤ1
100
AcDbVertex
100
AcDb2dVertex
 10
-182.1855829281
 20
612.5489392368
  0
VERTEX
  5
5B8
100
AcDbEntity
  8
レイヤ1
100
AcDbVertex
100
AcDb2dVertex
 10
-191.2949264696
 20
599.1437925871
  0
VERTEX
  5
5B9
100
AcDbEntity
  8
レイヤ1
100
AcDbVertex
100
AcDb2dVertex
 10
-215.1212152938
 20
563.5502082977
  0
VERTEX
  5
5BA
100
AcDbEntity
  8
レイヤ1
100
AcDbVertex
100
AcDb2dVertex
 10
-230.0299210062
 20
538.0720385831
  0
VERTEX
  5
5BB
100
AcDbEntity
  8
レイヤ1
100
AcDbVertex
100
AcDb2dVertex
 10
-238.2214800234
 20
512.0558681714
  0
VERTEX
  5
5BC
100
AcDbEntity
  8
レイヤ1
100
AcDbVertex
100
AcDb2dVertex
 10
-241.5902686297
 20
492.3243920483
  0
VERTEX
  5
5BD
100
AcDbEntity
  8
レイヤ1
100
AcDbVertex
100
AcDb2dVertex
 10
-240.6358087575
 20
458.6457236455
  0
SEQEND
  5
5BE
100
AcDbEntity
  8
レイヤ1
  0
POLYLINE
  5
5BF
100
AcDbEntity
  8
レイヤ1
  6
CONTINUOUS
 62
     0
100
AcDb2dPolyline
 66
     1
 10
0
 20
0
 70
     0
  0
VERTEX
  5
5C0
100
AcDbEntity
  8
レイヤ1
100
AcDbVertex
100
AcDb2dVertex
 10
-139.2054875688
 20
703.7794021989
  0
VERTEX
  5
5C1
100
AcDbEntity
  8
レイヤ1
100
AcDbVertex
100
AcDb2dVertex
 10
-136.0717147443
 20
708.3975937296
  0
VERTEX
  5
5C2
100
AcDbEntity
  8
レイヤ1
100
AcDbVertex
100
AcDb2dVertex
 10
-123.8664942703
 20
719.9430725564
  0
VERTEX
  5
5C3
100
AcDbEntity
  8
レイヤ1
100
AcDbVertex
100
AcDb2dVertex
 10
-100.6106012049
 20
733.7976471486
  0
VERTEX
  5
5C4
100
AcDbEntity
  8
レイヤ1
100
AcDbVertex
100
AcDb2dVertex
 10
-77.68457896313
 20
747.6522217407
  0
VERTEX
  5
5C5
100
AcDbEntity
  8
レイヤ1
100
AcDbVertex
100
AcDb2dVertex
 10
-54.26375048592
 20
761.1769255092
  0
VERTEX
  5
5C6
100
AcDbEntity
  8
レイヤ1
100
AcDbVertex
100
AcDb2dVertex
 10
-29.1935678906
 20
775.5263063368
  0
VERTEX
  5
5C7
100
AcDbEntity
  8
レイヤ1
100
AcDbVertex
100
AcDb2dVertex
 10
1.885491155788
 20
790.9635398532
  0
VERTEX
  5
5C8
100
AcDbEntity
  8
レイヤ1
100
AcDbVertex
100
AcDb2dVertex
 10
11.07726054026
 20
792.6133446145
  0
VERTEX
  5
5C9
100
AcDbEntity
  8
レイヤ1
100
AcDbVertex
100
AcDb2dVertex
 10
16.0266748242
 20
792.3776582201
  0
VERTEX
  5
5CA
100
AcDbEntity
  8
レイヤ1
100
AcDbVertex
100
AcDb2dVertex
 10
19.5619707413
 20
791.1992262477
  0
VERTEX
  5
5CB
100
AcDbEntity
  8
レイヤ1
100
AcDbVertex
100
AcDb2dVertex
 10
0.6735736847523
 20
832.5370743538
  0
VERTEX
  5
5CC
100
AcDbEntity
  8
レイヤ1
100
AcDbVertex
100
AcDb2dVertex
 10
-30.9843894986
 20
869.2468401728
  0
VERTEX
  5
5CD
100
AcDbEntity
  8
レイヤ1
100
AcDbVertex
100
AcDb2dVertex
 10
-40.41442108514
 20
879.6872322865
  0
VERTEX
  5
5CE
100
AcDbEntity
  8
レイヤ1
100
AcDbVertex
100
AcDb2dVertex
 10
-50.8548131988
 20
905.9566059918
  0
VERTEX
  5
5CF
100
AcDbEntity
  8
レイヤ1
100
AcDbVertex
100
AcDb2dVertex
 10
-61.63199215483
 20
919.0912928445
  0
VERTEX
  5
5D0
100
AcDbEntity
  8
レイヤ1
100
AcDbVertex
100
AcDb2dVertex
 10
-79.81848164314
 20
934.9202744362
  0
SEQEND
  5
5D1
100
AcDbEntity
  8
レイヤ1
  0
POLYLINE
  5
5D2
100
AcDbEntity
  8
レイヤ1
  6
CONTINUOUS
 62
     0
100
AcDb2dPolyline
 66
     1
 10
0
 20
0
 70
     0
  0
VERTEX
  5
5D3
100
AcDbEntity
  8
レイヤ1
100
AcDbVertex
100
AcDb2dVertex
 10
89.24851322968
 20
719.7134821578
  0
VERTEX
  5
5D4
100
AcDbEntity
  8
レイヤ1
100
AcDbVertex
100
AcDb2dVertex
 10
118.5489685164
 20
682.6669294964
  0
VERTEX
  5
5D5
100
AcDbEntity
  8
レイヤ1
100
AcDbVertex
100
AcDb2dVertex
 10
165.6991264491
 20
619.3510031297
  0
VERTEX
  5
5D6
100
AcDbEntity
  8
レイヤ1
100
AcDbVertex
100
AcDb2dVertex
 10
198.7042370019
 20
573.2112057242
  0
VERTEX
  5
5D7
100
AcDbEntity
  8
レイヤ1
100
AcDbVertex
100
AcDb2dVertex
 10
227.6679054463
 20
531.1128504272
  0
VERTEX
  5
5D8
100
AcDbEntity
  8
レイヤ1
100
AcDbVertex
100
AcDb2dVertex
 10
250.9061975702
 20
497.4341661896
  0
VERTEX
  5
5D9
100
AcDbEntity
  8
レイヤ1
100
AcDbVertex
100
AcDb2dVertex
 10
254.274065994
 20
494.4030846082
  0
VERTEX
  5
5DA
100
AcDbEntity
  8
レイヤ1
100
AcDbVertex
100
AcDb2dVertex
 10
261.2176795555
 20
492.7095203249
  0
SEQEND
  5
5DB
100
AcDbEntity
  8
レイヤ1
  0
POLYLINE
  5
5DC
100
AcDbEntity
  8
レイヤ1
  6
CONTINUOUS
 62
     0
100
AcDb2dPolyline
 66
     1
 10
0
 20
0
 70
     0
  0
VERTEX
  5
5DD
100
AcDbEntity
  8
レイヤ1
100
AcDbVertex
100
AcDb2dVertex
 10
211.1653501698
 20
853.4178585811
  0
VERTEX
  5
5DE
100
AcDbEntity
  8
レイヤ1
100
AcDbVertex
100
AcDb2dVertex
 10
200.6835498379
 20
790.7028114714
  0
VERTEX
  5
5DF
100
AcDbEntity
  8
レイヤ1
100
AcDbVertex
100
AcDb2dVertex
 10
195.3897391707
 20
747.8710706188
  0
VERTEX
  5
5E0
100
AcDbEntity
  8
レイヤ1
100
AcDbVertex
100
AcDb2dVertex
 10
191.0584395339
 20
710.8143959485
  0
VERTEX
  5
5E1
100
AcDbEntity
  8
レイヤ1
100
AcDbVertex
100
AcDb2dVertex
 10
187.2083954123
 20
706.9643518269
  0
VERTEX
  5
5E2
100
AcDbEntity
  8
レイヤ1
100
AcDbVertex
100
AcDb2dVertex
 10
176.6207740779
 20
705.5205852813
  0
VERTEX
  5
5E3
100
AcDbEntity
  8
レイヤ1
100
AcDbVertex
100
AcDb2dVertex
 10
160.7393420764
 20
706.9643518269
  0
VERTEX
  5
5E4
100
AcDbEntity
  8
レイヤ1
100
AcDbVertex
100
AcDb2dVertex
 10
144.3766545596
 20
712.7394180093
  0
VERTEX
  5
5E5
100
AcDbEntity
  8
レイヤ1
100
AcDbVertex
100
AcDb2dVertex
 10
124.1639229213
 20
727.1770834652
  0
VERTEX
  5
5E6
100
AcDbEntity
  8
レイヤ1
100
AcDbVertex
100
AcDb2dVertex
 10
105.3949578285
 20
743.0585154668
  0
SEQEND
  5
5E7
100
AcDbEntity
  8
レイヤ1
  0
POLYLINE
  5
5E8
100
AcDbEntity
  8
レイヤ1
  6
CONTINUOUS
 62
     0
100
AcDb2dPolyline
 66
     1
 10
0
 20
0
 70
     0
  0
VERTEX
  5
5E9
100
AcDbEntity
  8
レイヤ1
100
AcDbVertex
100
AcDb2dVertex
 10
108.4453632451
 20
748.3403637598
  0
VERTEX
  5
5EA
100
AcDbEntity
  8
レイヤ1
100
AcDbVertex
100
AcDb2dVertex
 10
125.6214922063
 20
736.2160374342
  0
VERTEX
  5
5EB
100
AcDbEntity
  8
レイヤ1
100
AcDbVertex
100
AcDb2dVertex
 10
144.144768537
 20
726.112432163
  0
VERTEX
  5
5EC
100
AcDbEntity
  8
レイヤ1
100
AcDbVertex
100
AcDb2dVertex
 10
163.6784053948
 20
720.0502690002
  0
VERTEX
  5
5ED
100
AcDbEntity
  8
レイヤ1
100
AcDbVertex
100
AcDb2dVertex
 10
173.4452238237
 20
719.3766953154
  0
VERTEX
  5
5EE
100
AcDbEntity
  8
レイヤ1
100
AcDbVertex
100
AcDb2dVertex
 10
177.8234527746
 20
720.3870558426
  0
VERTEX
  5
5EF
100
AcDbEntity
  8
レイヤ1
100
AcDbVertex
100
AcDb2dVertex
 10
182.5384685679
 20
724.4284979511
  0
SEQEND
  5
5F0
100
AcDbEntity
  8
レイヤ1
  0
POLYLINE
  5
5F1
100
AcDbEntity
  8
レイヤ1
  6
CONTINUOUS
 62
     0
100
AcDb2dPolyline
 66
     1
 10
0
 20
0
 70
     0
  0
VERTEX
  5
5F2
100
AcDbEntity
  8
レイヤ1
100
AcDbVertex
100
AcDb2dVertex
 10
171.0877159271
 20
708.9363032018
  0
VERTEX
  5
5F3
100
AcDbEntity
  8
レイヤ1
100
AcDbVertex
100
AcDb2dVertex
 10
181.1913211984
 20
709.2730900441
  0
VERTEX
  5
5F4
100
AcDbEntity
  8
レイヤ1
100
AcDbVertex
100
AcDb2dVertex
 10
185.5695501493
 20
711.6305979408
  0
VERTEX
  5
5F5
100
AcDbEntity
  8
レイヤ1
100
AcDbVertex
100
AcDb2dVertex
 10
187.5902712035
 20
717.3559742612
  0
VERTEX
  5
5F6
100
AcDbEntity
  8
レイヤ1
100
AcDbVertex
100
AcDb2dVertex
 10
186.243123834
 20
726.7860058477
  0
VERTEX
  5
5F7
100
AcDbEntity
  8
レイヤ1
100
AcDbVertex
100
AcDb2dVertex
 10
181.1913211984
 20
732.1745953257
  0
VERTEX
  5
5F8
100
AcDbEntity
  8
レイヤ1
100
AcDbVertex
100
AcDb2dVertex
 10
145.8287027489
 20
745.9828558631
  0
VERTEX
  5
5F9
100
AcDbEntity
  8
レイヤ1
100
AcDbVertex
100
AcDb2dVertex
 10
114.8443132503
 20
760.4646900853
  0
VERTEX
  5
5FA
100
AcDbEntity
  8
レイヤ1
100
AcDbVertex
100
AcDb2dVertex
 10
96.99461060433
 20
770.905082199
  0
VERTEX
  5
5FB
100
AcDbEntity
  8
レイヤ1
100
AcDbVertex
100
AcDb2dVertex
 10
75.77703953463
 20
779.9983269431
  0
VERTEX
  5
5FC
100
AcDbEntity
  8
レイヤ1
100
AcDbVertex
100
AcDb2dVertex
 10
57.9273368887
 20
787.070850633
  0
VERTEX
  5
5FD
100
AcDbEntity
  8
レイヤ1
100
AcDbVertex
100
AcDb2dVertex
 10
42.77192898177
 20
787.7444243178
  0
VERTEX
  5
5FE
100
AcDbEntity
  8
レイヤ1
100
AcDbVertex
100
AcDb2dVertex
 10
34.68904476474
 20
786.3972769483
  0
SEQEND
  5
5FF
100
AcDbEntity
  8
レイヤ1
  0
LINE
  5
600
100
AcDbEntity
  8
レイヤ1
  6
CONTINUOUS
 62
     0
100
AcDbLine
 10
42.77192898177
 20
787.7444243178
 11
33.05597425557
 21
775.3061351567
  0
POLYLINE
  5
601
100
AcDbEntity
  8
レイヤ1
  6
CONTINUOUS
 62
     0
100
AcDb2dPolyline
 66
     1
 10
0
 20
0
 70
     0
  0
VERTEX
  5
602
100
AcDbEntity
  8
レイヤ1
100
AcDbVertex
100
AcDb2dVertex
 10
114.8443132503
 20
760.4646900853
  0
VERTEX
  5
603
100
AcDbEntity
  8
レイヤ1
100
AcDbVertex
100
AcDb2dVertex
 10
107.2373094855
 20
747.1258704812
  0
VERTEX
  5
604
100
AcDbEntity
  8
レイヤ1
100
AcDbVertex
100
AcDb2dVertex
 10
95.68867615626
 20
730.8635092625
  0
VERTEX
  5
605
100
AcDbEntity
  8
レイヤ1
100
AcDbVertex
100
AcDb2dVertex
 10
79.30847174035
 20
704.4666330814
  0
SEQEND
  5
606
100
AcDbEntity
  8
レイヤ1
  0
POLYLINE
  5
607
100
AcDbEntity
  8
レイヤ1
  6
CONTINUOUS
 62
     0
100
AcDb2dPolyline
 66
     1
 10
0
 20
0
 70
     0
  0
VERTEX
  5
608
100
AcDbEntity
  8
レイヤ1
100
AcDbVertex
100
AcDb2dVertex
 10
74.24121425917
 20
696.4532956693
  0
VERTEX
  5
609
100
AcDbEntity
  8
レイヤ1
100
AcDbVertex
100
AcDb2dVertex
 10
66.93493603049
 20
687.0258398904
  0
VERTEX
  5
60A
100
AcDbEntity
  8
レイヤ1
100
AcDbVertex
100
AcDb2dVertex
 10
63.87101290233
 20
684.4332895512
  0
VERTEX
  5
60B
100
AcDbEntity
  8
レイヤ1
100
AcDbVertex
100
AcDb2dVertex
 10
58.49147822209
 20
684.0643836096
  0
SEQEND
  5
60C
100
AcDbEntity
  8
レイヤ1
  0
LINE
  5
60D
100
AcDbEntity
  8
レイヤ1
  6
CONTINUOUS
 62
     0
100
AcDbLine
 10
56.44689147642
 20
695.5105500914
 11
63.87101290233
 21
703.759573898
  0
POLYLINE
  5
60E
100
AcDbEntity
  8
レイヤ1
  6
CONTINUOUS
 62
     0
100
AcDb2dPolyline
 66
     1
 10
0
 20
0
 70
     0
  0
VERTEX
  5
60F
100
AcDbEntity
  8
レイヤ1
100
AcDbVertex
100
AcDb2dVertex
 10
73.0627822868
 20
723.3215446393
  0
VERTEX
  5
610
100
AcDbEntity
  8
レイヤ1
100
AcDbVertex
100
AcDb2dVertex
 10
75.89101902048
 20
728.2709589233
  0
VERTEX
  5
611
100
AcDbEntity
  8
レイヤ1
100
AcDbVertex
100
AcDb2dVertex
 10
81.78317888232
 20
733.6917459962
  0
VERTEX
  5
612
100
AcDbEntity
  8
レイヤ1
100
AcDbVertex
100
AcDb2dVertex
 10
73.76984147022
 20
729.6850772901
  0
VERTEX
  5
613
100
AcDbEntity
  8
レイヤ1
100
AcDbVertex
100
AcDb2dVertex
 10
70.42516298917
 20
724.372940879
  0
SEQEND
  5
614
100
AcDbEntity
  8
レイヤ1
  0
LINE
  5
615
100
AcDbEntity
  8
レイヤ1
  6
CONTINUOUS
 62
     0
100
AcDbLine
 10
59.62865780181
 20
713.187029677
 11
53.77671518836
 21
702.6406715604
  0
LINE
  5
616
100
AcDbEntity
  8
レイヤ1
  6
CONTINUOUS
 62
     0
100
AcDbLine
 10
41.19716580677
 20
689.0451198286
 11
37.77465663606
 21
683.9113560725
  0
POLYLINE
  5
617
100
AcDbEntity
  8
レイヤ1
  6
CONTINUOUS
 62
     0
100
AcDb2dPolyline
 66
     1
 10
0
 20
0
 70
     0
  0
VERTEX
  5
618
100
AcDbEntity
  8
レイヤ1
100
AcDbVertex
100
AcDb2dVertex
 10
25.92550339209
 20
674.2987745888
  0
VERTEX
  5
619
100
AcDbEntity
  8
レイヤ1
100
AcDbVertex
100
AcDb2dVertex
 10
23.42082847721
 20
673.7611572492
  0
VERTEX
  5
61A
100
AcDbEntity
  8
レイヤ1
100
AcDbVertex
100
AcDb2dVertex
 10
19.95718482917
 20
674.2559634847
  0
VERTEX
  5
61B
100
AcDbEntity
  8
レイヤ1
100
AcDbVertex
100
AcDb2dVertex
 10
18.30783071106
 20
676.2351884264
  0
VERTEX
  5
61C
100
AcDbEntity
  8
レイヤ1
100
AcDbVertex
100
AcDb2dVertex
 10
17.97795988743
 20
679.204025839
  0
VERTEX
  5
61D
100
AcDbEntity
  8
レイヤ1
100
AcDbVertex
100
AcDb2dVertex
 10
18.30783071106
 20
681.5131216044
  0
VERTEX
  5
61E
100
AcDbEntity
  8
レイヤ1
100
AcDbVertex
100
AcDb2dVertex
 10
19.5958376393
 20
683.2262958681
  0
SEQEND
  5
61F
100
AcDbEntity
  8
レイヤ1
  0
LINE
  5
620
100
AcDbEntity
  8
レイヤ1
  6
CONTINUOUS
 62
     0
100
AcDbLine
 10
30.35794930256
 20
697.5409492455
 11
34.21728605868
 21
702.674241824
  0
POLYLINE
  5
621
100
AcDbEntity
  8
レイヤ1
  6
CONTINUOUS
 62
     0
100
AcDb2dPolyline
 66
     1
 10
0
 20
0
 70
     0
  0
VERTEX
  5
622
100
AcDbEntity
  8
レイヤ1
100
AcDbVertex
100
AcDb2dVertex
 10
18.27416420585
 20
685.5838755062
  0
VERTEX
  5
623
100
AcDbEntity
  8
レイヤ1
100
AcDbVertex
100
AcDb2dVertex
 10
15.55530203525
 20
681.6050528175
  0
VERTEX
  5
624
100
AcDbEntity
  8
レイヤ1
100
AcDbVertex
100
AcDb2dVertex
 10
12.02000611815
 20
679.837404859
  0
SEQEND
  5
625
100
AcDbEntity
  8
レイヤ1
  0
LINE
  5
626
100
AcDbEntity
  8
レイヤ1
  6
CONTINUOUS
 62
     0
100
AcDbLine
 10
32.72622705626
 20
706.7332357751
 11
28.83706857905
 21
701.041784345
  0
LINE
  5
627
100
AcDbEntity
  8
レイヤ1
  6
CONTINUOUS
 62
     0
100
AcDbLine
 10
24.17811895494
 20
718.8316991513
 11
22.12988028429
 21
716.3851918502
  0
LINE
  5
628
100
AcDbEntity
  8
レイヤ1
  6
CONTINUOUS
 62
     0
100
AcDbLine
 10
20.90022564915
 20
718.8072388588
 11
22.60141259857
 21
720.4936328783
  0
LINE
  5
629
100
AcDbEntity
  8
レイヤ1
  6
CONTINUOUS
 62
     0
100
AcDbLine
 10
9.549656366382
 20
701.3588132816
 11
5.382409819281
 21
696.3812687948
  0
LINE
  5
62A
100
AcDbEntity
  8
レイヤ1
  6
CONTINUOUS
 62
     0
100
AcDbLine
 10
2.751805368189
 20
700.8166309281
 11
7.390646687372
 21
705.4151344967
  0
LINE
  5
62B
100
AcDbEntity
  8
レイヤ1
  6
CONTINUOUS
 62
     0
100
AcDbLine
 10
-2.052569716138
 20
722.2004378971
 11
-3.744735083767
 21
720.9129207696
  0
LINE
  5
62C
100
AcDbEntity
  8
レイヤ1
  6
CONTINUOUS
 62
     0
100
AcDbLine
 10
-2.121678158574
 20
717.2958224792
 11
-0.04289689606282
 21
718.7419311835
  0
POLYLINE
  5
62D
100
AcDbEntity
  8
レイヤ1
  6
CONTINUOUS
 62
     0
100
AcDb2dPolyline
 66
     1
 10
0
 20
0
 70
     0
  0
VERTEX
  5
62E
100
AcDbEntity
  8
レイヤ1
100
AcDbVertex
100
AcDb2dVertex
 10
36.58244331408
 20
779.8206932319
  0
VERTEX
  5
62F
100
AcDbEntity
  8
レイヤ1
100
AcDbVertex
100
AcDb2dVertex
 10
32.66832371049
 20
784.7133427364
  0
VERTEX
  5
630
100
AcDbEntity
  8
レイヤ1
100
AcDbVertex
100
AcDb2dVertex
 10
31.65796318336
 20
791.4490795839
  0
VERTEX
  5
631
100
AcDbEntity
  8
レイヤ1
100
AcDbVertex
100
AcDb2dVertex
 10
43.7822895089
 20
810.6459295994
  0
VERTEX
  5
632
100
AcDbEntity
  8
レイヤ1
100
AcDbVertex
100
AcDb2dVertex
 10
56.24340267681
 20
833.2106480386
  0
VERTEX
  5
633
100
AcDbEntity
  8
レイヤ1
100
AcDbVertex
100
AcDb2dVertex
 10
73.75631848037
 20
860.1535954287
  0
VERTEX
  5
634
100
AcDbEntity
  8
レイヤ1
100
AcDbVertex
100
AcDb2dVertex
 10
103.0567737671
 20
901.9151638833
  0
VERTEX
  5
635
100
AcDbEntity
  8
レイヤ1
100
AcDbVertex
100
AcDb2dVertex
 10
125.9582790487
 20
925.1534560072
  0
VERTEX
  5
636
100
AcDbEntity
  8
レイヤ1
100
AcDbVertex
100
AcDb2dVertex
 10
154.5851606506
 20
955.4642718211
  0
VERTEX
  5
637
100
AcDbEntity
  8
レイヤ1
100
AcDbVertex
100
AcDb2dVertex
 10
157.9530290744
 20
966.2414507771
  0
VERTEX
  5
638
100
AcDbEntity
  8
レイヤ1
100
AcDbVertex
100
AcDb2dVertex
 10
163.6784053948
 20
973.6507613094
  0
VERTEX
  5
639
100
AcDbEntity
  8
レイヤ1
100
AcDbVertex
100
AcDb2dVertex
 10
174.4555843508
 20
985.1015139502
  0
VERTEX
  5
63A
100
AcDbEntity
  8
レイヤ1
100
AcDbVertex
100
AcDb2dVertex
 10
179.1706001441
 20
992.5108244825
  0
SEQEND
  5
63B
100
AcDbEntity
  8
レイヤ1
  0
POLYLINE
  5
63C
100
AcDbEntity
  8
レイヤ1
  6
CONTINUOUS
 62
     0
100
AcDb2dPolyline
 66
     1
 10
0
 20
0
 70
     0
  0
VERTEX
  5
63D
100
AcDbEntity
  8
レイヤ1
100
AcDbVertex
100
AcDb2dVertex
 10
-54.03933090149
 20
761.3079134327
  0
VERTEX
  5
63E
100
AcDbEntity
  8
レイヤ1
100
AcDbVertex
100
AcDb2dVertex
 10
-47.13727889471
 20
749.4827344259
  0
VERTEX
  5
63F
100
AcDbEntity
  8
レイヤ1
100
AcDbVertex
100
AcDb2dVertex
 10
-44.5447285555
 20
746.4188112977
  0
VERTEX
  5
640
100
AcDbEntity
  8
レイヤ1
100
AcDbVertex
100
AcDb2dVertex
 10
-32.9960952263
 20
730.3921364735
  0
VERTEX
  5
641
100
AcDbEntity
  8
レイヤ1
100
AcDbVertex
100
AcDb2dVertex
 10
-21.68314829157
 20
716.2509528051
  0
VERTEX
  5
642
100
AcDbEntity
  8
レイヤ1
100
AcDbVertex
100
AcDb2dVertex
 10
-12.25569251262
 20
700.6956507699
  0
VERTEX
  5
643
100
AcDbEntity
  8
レイヤ1
100
AcDbVertex
100
AcDb2dVertex
 10
-4.242355100524
 20
687.7328990738
  0
VERTEX
  5
644
100
AcDbEntity
  8
レイヤ1
100
AcDbVertex
100
AcDb2dVertex
 10
1.414118366841
 20
683.2548575788
  0
VERTEX
  5
645
100
AcDbEntity
  8
レイヤ1
100
AcDbVertex
100
AcDb2dVertex
 10
5.420787072892
 20
678.3054432949
  0
VERTEX
  5
646
100
AcDbEntity
  8
レイヤ1
100
AcDbVertex
100
AcDb2dVertex
 10
7.541964623154
 20
677.362697717
  0
VERTEX
  5
647
100
AcDbEntity
  8
レイヤ1
100
AcDbVertex
100
AcDb2dVertex
 10
9.427455778942
 20
676.6556385336
  0
VERTEX
  5
648
100
AcDbEntity
  8
レイヤ1
100
AcDbVertex
100
AcDb2dVertex
 10
11.78431972368
 20
678.0697569004
  0
VERTEX
  5
649
100
AcDbEntity
  8
レイヤ1
100
AcDbVertex
100
AcDb2dVertex
 10
12.25569251262
 20
681.6050528175
  0
VERTEX
  5
64A
100
AcDbEntity
  8
レイヤ1
100
AcDbVertex
100
AcDb2dVertex
 10
9.663142173416
 20
689.3827038351
  0
VERTEX
  5
64B
100
AcDbEntity
  8
レイヤ1
100
AcDbVertex
100
AcDb2dVertex
 10
8.013337412101
 20
693.6250589357
  0
VERTEX
  5
64C
100
AcDbEntity
  8
レイヤ1
100
AcDbVertex
100
AcDb2dVertex
 10
3.063923128156
 20
698.8101596141
  0
VERTEX
  5
64D
100
AcDbEntity
  8
レイヤ1
100
AcDbVertex
100
AcDb2dVertex
 10
1.414118366841
 20
709.4160473654
  0
VERTEX
  5
64E
100
AcDbEntity
  8
レイヤ1
100
AcDbVertex
100
AcDb2dVertex
 10
-6.834905439733
 20
727.7995861343
  0
VERTEX
  5
64F
100
AcDbEntity
  8
レイヤ1
100
AcDbVertex
100
AcDb2dVertex
 10
-6.127846256312
 20
729.2137045012
  0
VERTEX
  5
650
100
AcDbEntity
  8
レイヤ1
100
AcDbVertex
100
AcDb2dVertex
 10
4.00666870605
 20
711.7729113101
  0
VERTEX
  5
651
100
AcDbEntity
  8
レイヤ1
100
AcDbVertex
100
AcDb2dVertex
 10
11.78431972368
 20
697.1603548528
  0
VERTEX
  5
652
100
AcDbEntity
  8
レイヤ1
100
AcDbVertex
100
AcDb2dVertex
 10
20.5047163192
 20
681.6050528175
  0
VERTEX
  5
653
100
AcDbEntity
  8
レイヤ1
100
AcDbVertex
100
AcDb2dVertex
 10
25.92550339209
 20
674.2987745888
  0
VERTEX
  5
654
100
AcDbEntity
  8
レイヤ1
100
AcDbVertex
100
AcDb2dVertex
 10
28.28236733683
 20
673.8274017999
  0
VERTEX
  5
655
100
AcDbEntity
  8
レイヤ1
100
AcDbVertex
100
AcDb2dVertex
 10
33.23178162077
 20
670.7634786717
  0
VERTEX
  5
656
100
AcDbEntity
  8
レイヤ1
100
AcDbVertex
100
AcDb2dVertex
 10
37.94550951024
 20
670.2921058828
  0
VERTEX
  5
657
100
AcDbEntity
  8
レイヤ1
100
AcDbVertex
100
AcDb2dVertex
 10
40.0666870605
 20
672.6489698275
  0
VERTEX
  5
658
100
AcDbEntity
  8
レイヤ1
100
AcDbVertex
100
AcDb2dVertex
 10
40.0666870605
 20
677.362697717
  0
VERTEX
  5
659
100
AcDbEntity
  8
レイヤ1
100
AcDbVertex
100
AcDb2dVertex
 10
36.76707753787
 20
686.7901534959
  0
VERTEX
  5
65A
100
AcDbEntity
  8
レイヤ1
100
AcDbVertex
100
AcDb2dVertex
 10
29.46079930919
 20
699.0458460085
  0
VERTEX
  5
65B
100
AcDbEntity
  8
レイヤ1
100
AcDbVertex
100
AcDb2dVertex
 10
27.10393536446
 20
706.5878106317
  0
VERTEX
  5
65C
100
AcDbEntity
  8
レイヤ1
100
AcDbVertex
100
AcDb2dVertex
 10
19.32628434683
 20
721.9074262725
  0
VERTEX
  5
65D
100
AcDbEntity
  8
レイヤ1
100
AcDbVertex
100
AcDb2dVertex
 10
13.66981087947
 20
733.2203732072
  0
VERTEX
  5
65E
100
AcDbEntity
  8
レイヤ1
100
AcDbVertex
100
AcDb2dVertex
 10
14.37687006289
 20
734.6344915741
  0
VERTEX
  5
65F
100
AcDbEntity
  8
レイヤ1
100
AcDbVertex
100
AcDb2dVertex
 10
15.31961564078
 20
734.8701779685
  0
VERTEX
  5
660
100
AcDbEntity
  8
レイヤ1
100
AcDbVertex
100
AcDb2dVertex
 10
22.15452108051
 20
720.9646806946
  0
VERTEX
  5
661
100
AcDbEntity
  8
レイヤ1
100
AcDbVertex
100
AcDb2dVertex
 10
30.87491767603
 20
711.7729113101
  0
VERTEX
  5
662
100
AcDbEntity
  8
レイヤ1
100
AcDbVertex
100
AcDb2dVertex
 10
35.11727277656
 20
700.2242779809
  0
VERTEX
  5
663
100
AcDbEntity
  8
レイヤ1
100
AcDbVertex
100
AcDb2dVertex
 10
42.42355100524
 20
686.7901534959
  0
VERTEX
  5
664
100
AcDbEntity
  8
レイヤ1
100
AcDbVertex
100
AcDb2dVertex
 10
43.83766937208
 20
681.1336800286
  0
VERTEX
  5
665
100
AcDbEntity
  8
レイヤ1
100
AcDbVertex
100
AcDb2dVertex
 10
46.66590610576
 20
677.1270113225
  0
VERTEX
  5
666
100
AcDbEntity
  8
レイヤ1
100
AcDbVertex
100
AcDb2dVertex
 10
52.32237957313
 20
675.0058337722
  0
VERTEX
  5
667
100
AcDbEntity
  8
レイヤ1
100
AcDbVertex
100
AcDb2dVertex
 10
55.62198909576
 20
675.4772065612
  0
VERTEX
  5
668
100
AcDbEntity
  8
レイヤ1
100
AcDbVertex
100
AcDb2dVertex
 10
58.45022582944
 20
678.7768160838
  0
VERTEX
  5
669
100
AcDbEntity
  8
レイヤ1
100
AcDbVertex
100
AcDb2dVertex
 10
58.68591222391
 20
682.5477983954
  0
VERTEX
  5
66A
100
AcDbEntity
  8
レイヤ1
100
AcDbVertex
100
AcDb2dVertex
 10
57.50748025155
 20
691.7395677799
  0
VERTEX
  5
66B
100
AcDbEntity
  8
レイヤ1
100
AcDbVertex
100
AcDb2dVertex
 10
55.38630270128
 20
699.281532403
  0
VERTEX
  5
66C
100
AcDbEntity
  8
レイヤ1
100
AcDbVertex
100
AcDb2dVertex
 10
49.96551562839
 20
710.5944793378
  0
VERTEX
  5
66D
100
AcDbEntity
  8
レイヤ1
100
AcDbVertex
100
AcDb2dVertex
 10
48.78708365602
 20
717.193698383
  0
VERTEX
  5
66E
100
AcDbEntity
  8
レイヤ1
100
AcDbVertex
100
AcDb2dVertex
 10
46.19453331682
 20
726.3854677675
  0
VERTEX
  5
66F
100
AcDbEntity
  8
レイヤ1
100
AcDbVertex
100
AcDb2dVertex
 10
40.77374624392
 20
732.2776276293
  0
VERTEX
  5
670
100
AcDbEntity
  8
レイヤ1
100
AcDbVertex
100
AcDb2dVertex
 10
32.28903604288
 20
742.8835153806
  0
VERTEX
  5
671
100
AcDbEntity
  8
レイヤ1
100
AcDbVertex
100
AcDb2dVertex
 10
30.16785849261
 20
748.3043024535
  0
VERTEX
  5
672
100
AcDbEntity
  8
レイヤ1
100
AcDbVertex
100
AcDb2dVertex
 10
36.06001835445
 20
739.583905858
  0
VERTEX
  5
673
100
AcDbEntity
  8
レイヤ1
100
AcDbVertex
100
AcDb2dVertex
 10
46.90159250024
 20
729.2137045012
  0
VERTEX
  5
674
100
AcDbEntity
  8
レイヤ1
100
AcDbVertex
100
AcDb2dVertex
 10
49.49414283945
 20
727.0925269509
  0
VERTEX
  5
675
100
AcDbEntity
  8
レイヤ1
100
AcDbVertex
100
AcDb2dVertex
 10
55.85767549023
 20
716.9580119885
  0
VERTEX
  5
676
100
AcDbEntity
  8
レイヤ1
100
AcDbVertex
100
AcDb2dVertex
 10
59.62865780181
 20
713.187029677
  0
VERTEX
  5
677
100
AcDbEntity
  8
レイヤ1
100
AcDbVertex
100
AcDb2dVertex
 10
63.87101290233
 20
703.759573898
  0
VERTEX
  5
678
100
AcDbEntity
  8
レイヤ1
100
AcDbVertex
100
AcDb2dVertex
 10
69.76317276417
 20
697.3960412472
  0
VERTEX
  5
679
100
AcDbEntity
  8
レイヤ1
100
AcDbVertex
100
AcDb2dVertex
 10
74.24121425917
 20
696.4532956693
  0
VERTEX
  5
67A
100
AcDbEntity
  8
レイヤ1
100
AcDbVertex
100
AcDb2dVertex
 10
79.19062854311
 20
698.1031004307
  0
VERTEX
  5
67B
100
AcDbEntity
  8
レイヤ1
100
AcDbVertex
100
AcDb2dVertex
 10
80.84043330443
 20
699.9885915864
  0
VERTEX
  5
67C
100
AcDbEntity
  8
レイヤ1
100
AcDbVertex
100
AcDb2dVertex
 10
77.77651017627
 20
708.9446745764
  0
VERTEX
  5
67D
100
AcDbEntity
  8
レイヤ1
100
AcDbVertex
100
AcDb2dVertex
 10
75.41964623154
 20
711.0658521267
  0
VERTEX
  5
67E
100
AcDbEntity
  8
レイヤ1
100
AcDbVertex
100
AcDb2dVertex
 10
73.29846868127
 20
720.0219351167
  0
VERTEX
  5
67F
100
AcDbEntity
  8
レイヤ1
100
AcDbVertex
100
AcDb2dVertex
 10
65.0494448747
 20
732.5133140238
  0
VERTEX
  5
680
100
AcDbEntity
  8
レイヤ1
100
AcDbVertex
100
AcDb2dVertex
 10
63.16395371891
 20
740.2909650414
  0
VERTEX
  5
681
100
AcDbEntity
  8
レイヤ1
100
AcDbVertex
100
AcDb2dVertex
 10
41.95217821629
 20
762.6811725164
  0
VERTEX
  5
682
100
AcDbEntity
  8
レイヤ1
100
AcDbVertex
100
AcDb2dVertex
 10
34.41021359314
 20
773.7584330567
  0
VERTEX
  5
683
100
AcDbEntity
  8
レイヤ1
100
AcDbVertex
100
AcDb2dVertex
 10
24.51138502525
 20
785.0713799914
  0
VERTEX
  5
684
100
AcDbEntity
  8
レイヤ1
100
AcDbVertex
100
AcDb2dVertex
 10
16.0266748242
 20
792.3776582201
  0
SEQEND
  5
685
100
AcDbEntity
  8
レイヤ1
  0
POLYLINE
  5
686
100
AcDbEntity
  8
レイヤ1
  6
CONTINUOUS
 62
     0
100
AcDb2dPolyline
 66
     1
 10
0
 20
0
 70
     0
  0
VERTEX
  5
687
100
AcDbEntity
  8
レイヤ1
100
AcDbVertex
100
AcDb2dVertex
 10
-130.3345761439
 20
1275.534766891
  0
VERTEX
  5
688
100
AcDbEntity
  8
レイヤ1
100
AcDbVertex
100
AcDb2dVertex
 10
-123.0418172112
 20
1274.455927066
  0
VERTEX
  5
689
100
AcDbEntity
  8
レイヤ1
100
AcDbVertex
100
AcDb2dVertex
 10
-97.97163461592
 20
1254.663677649
  0
VERTEX
  5
68A
100
AcDbEntity
  8
レイヤ1
100
AcDbVertex
100
AcDb2dVertex
 10
-73.39625825604
 20
1228.933753406
  0
VERTEX
  5
68B
100
AcDbEntity
  8
レイヤ1
100
AcDbVertex
100
AcDb2dVertex
 10
-52.11959013238
 20
1204.523312458
  0
VERTEX
  5
68C
100
AcDbEntity
  8
レイヤ1
100
AcDbVertex
100
AcDb2dVertex
 10
-29.52343871423
 20
1174.67000292
  0
VERTEX
  5
68D
100
AcDbEntity
  8
レイヤ1
100
AcDbVertex
100
AcDb2dVertex
 10
-13.17897948482
 20
1156.826052018
  0
SEQEND
  5
68E
100
AcDbEntity
  8
レイヤ1
  0
POLYLINE
  5
68F
100
AcDbEntity
  8
レイヤ1
  6
CONTINUOUS
 62
     0
100
AcDb2dPolyline
 66
     1
 10
0
 20
0
 70
     0
  0
VERTEX
  5
690
100
AcDbEntity
  8
レイヤ1
100
AcDbVertex
100
AcDb2dVertex
 10
-138.6015883772
 20
1118.437817322
  0
VERTEX
  5
691
100
AcDbEntity
  8
レイヤ1
100
AcDbVertex
100
AcDb2dVertex
 10
-130.3345761439
 20
1107.96174042
  0
VERTEX
  5
692
100
AcDbEntity
  8
レイヤ1
100
AcDbVertex
100
AcDb2dVertex
 10
-127.9777121991
 20
1097.120166274
  0
VERTEX
  5
693
100
AcDbEntity
  8
レイヤ1
100
AcDbVertex
100
AcDb2dVertex
 10
-128.6847713826
 20
1091.699379201
  0
VERTEX
  5
694
100
AcDbEntity
  8
レイヤ1
100
AcDbVertex
100
AcDb2dVertex
 10
-128.2133985936
 20
1082.271923423
  0
VERTEX
  5
695
100
AcDbEntity
  8
レイヤ1
100
AcDbVertex
100
AcDb2dVertex
 10
-130.8059489328
 20
1076.615449955
  0
VERTEX
  5
696
100
AcDbEntity
  8
レイヤ1
100
AcDbVertex
100
AcDb2dVertex
 10
-130.8059489328
 20
1070.01623091
  0
VERTEX
  5
697
100
AcDbEntity
  8
レイヤ1
100
AcDbVertex
100
AcDb2dVertex
 10
-134.8126176389
 20
1064.359757443
  0
VERTEX
  5
698
100
AcDbEntity
  8
レイヤ1
100
AcDbVertex
100
AcDb2dVertex
 10
-134.8126176389
 20
1058.231911186
  0
VERTEX
  5
699
100
AcDbEntity
  8
レイヤ1
100
AcDbVertex
100
AcDb2dVertex
 10
-130.6732948419
 20
1026.526295562
  0
VERTEX
  5
69A
100
AcDbEntity
  8
レイヤ1
100
AcDbVertex
100
AcDb2dVertex
 10
-130.3365079996
 20
1016.422690291
  0
VERTEX
  5
69B
100
AcDbEntity
  8
レイヤ1
100
AcDbVertex
100
AcDb2dVertex
 10
-132.3572290538
 20
1008.003019232
  0
VERTEX
  5
69C
100
AcDbEntity
  8
レイヤ1
100
AcDbVertex
100
AcDb2dVertex
 10
-127.3054264182
 20
999.5833481724
  0
VERTEX
  5
69D
100
AcDbEntity
  8
レイヤ1
100
AcDbVertex
100
AcDb2dVertex
 10
-125.9582790487
 20
987.1222350044
  0
VERTEX
  5
69E
100
AcDbEntity
  8
レイヤ1
100
AcDbVertex
100
AcDb2dVertex
 10
-123.2639843097
 20
974.6611218365
  0
VERTEX
  5
69F
100
AcDbEntity
  8
レイヤ1
100
AcDbVertex
100
AcDb2dVertex
 10
-94.30031586532
 20
957.4849928753
  0
VERTEX
  5
6A0
100
AcDbEntity
  8
レイヤ1
100
AcDbVertex
100
AcDb2dVertex
 10
-88.57493954492
 20
949.0653218159
  0
VERTEX
  5
6A1
100
AcDbEntity
  8
レイヤ1
100
AcDbVertex
100
AcDb2dVertex
 10
-79.81848164314
 20
934.9202744362
  0
SEQEND
  5
6A2
100
AcDbEntity
  8
レイヤ1
  0
POLYLINE
  5
6A3
100
AcDbEntity
  8
レイヤ1
  6
CONTINUOUS
 62
     0
100
AcDb2dPolyline
 66
     1
 10
0
 20
0
 70
     0
  0
VERTEX
  5
6A4
100
AcDbEntity
  8
レイヤ1
100
AcDbVertex
100
AcDb2dVertex
 10
142.4516324988
 20
1143.463104112
  0
VERTEX
  5
6A5
100
AcDbEntity
  8
レイヤ1
100
AcDbVertex
100
AcDb2dVertex
 10
140.526610438
 20
1108.331451503
  0
VERTEX
  5
6A6
100
AcDbEntity
  8
レイヤ1
100
AcDbVertex
100
AcDb2dVertex
 10
144.8579100748
 20
1103.037640835
  0
VERTEX
  5
6A7
100
AcDbEntity
  8
レイヤ1
100
AcDbVertex
100
AcDb2dVertex
 10
148.2266986812
 20
1092.450019501
  0
VERTEX
  5
6A8
100
AcDbEntity
  8
レイヤ1
100
AcDbVertex
100
AcDb2dVertex
 10
150.151720742
 20
1074.643565439
  0
VERTEX
  5
6A9
100
AcDbEntity
  8
レイヤ1
100
AcDbVertex
100
AcDb2dVertex
 10
151.5954872876
 20
1073.199798893
  0
VERTEX
  5
6AA
100
AcDbEntity
  8
レイヤ1
100
AcDbVertex
100
AcDb2dVertex
 10
154.4830203788
 20
1053.46832277
  0
VERTEX
  5
6AB
100
AcDbEntity
  8
レイヤ1
100
AcDbVertex
100
AcDb2dVertex
 10
157.8518089852
 20
1033.255591132
  0
VERTEX
  5
6AC
100
AcDbEntity
  8
レイヤ1
100
AcDbVertex
100
AcDb2dVertex
 10
164.3519790796
 20
1033.598819252
  0
VERTEX
  5
6AD
100
AcDbEntity
  8
レイヤ1
100
AcDbVertex
100
AcDb2dVertex
 10
170.4141422423
 20
1030.904524513
  0
VERTEX
  5
6AE
100
AcDbEntity
  8
レイヤ1
100
AcDbVertex
100
AcDb2dVertex
 10
173.1084369813
 20
1024.505574508
  0
VERTEX
  5
6AF
100
AcDbEntity
  8
レイヤ1
100
AcDbVertex
100
AcDb2dVertex
 10
172.771650139
 20
1002.951216596
  0
VERTEX
  5
6B0
100
AcDbEntity
  8
レイヤ1
100
AcDbVertex
100
AcDb2dVertex
 10
172.771650139
 20
996.2154797486
  0
VERTEX
  5
6B1
100
AcDbEntity
  8
レイヤ1
100
AcDbVertex
100
AcDb2dVertex
 10
170.0773553999
 20
996.2154797486
  0
VERTEX
  5
6B2
100
AcDbEntity
  8
レイヤ1
100
AcDbVertex
100
AcDb2dVertex
 10
170.0773553999
 20
991.5004639553
  0
VERTEX
  5
6B3
100
AcDbEntity
  8
レイヤ1
100
AcDbVertex
100
AcDb2dVertex
 10
169.0669948728
 20
979.3761376298
  0
SEQEND
  5
6B4
100
AcDbEntity
  8
レイヤ1
  0
POLYLINE
  5
6B5
100
AcDbEntity
  8
レイヤ1
  6
CONTINUOUS
 62
     0
100
AcDb2dPolyline
 66
     1
 10
0
 20
0
 70
     0
  0
VERTEX
  5
6B6
100
AcDbEntity
  8
レイヤ1
100
AcDbVertex
100
AcDb2dVertex
 10
-19.79000741807
 20
856.2661205262
  0
VERTEX
  5
6B7
100
AcDbEntity
  8
レイヤ1
100
AcDbVertex
100
AcDb2dVertex
 10
6.834905439733
 20
856.4843575169
  0
VERTEX
  5
6B8
100
AcDbEntity
  8
レイヤ1
100
AcDbVertex
100
AcDb2dVertex
 10
50.20120202287
 20
858.1341622782
  0
VERTEX
  5
6B9
100
AcDbEntity
  8
レイヤ1
100
AcDbVertex
100
AcDb2dVertex
 10
73.54732168
 20
859.8320618896
  0
SEQEND
  5
6BA
100
AcDbEntity
  8
レイヤ1
  0
LINE
  5
6BB
100
AcDbEntity
  8
レイヤ1
  6
CONTINUOUS
 62
     0
100
AcDbLine
 10
-47.77239709307
 20
898.2008493387
 11
-38.41688229919
 21
898.2008493387
  0
POLYLINE
  5
6BC
100
AcDbEntity
  8
レイヤ1
  6
CONTINUOUS
 62
     0
100
AcDb2dPolyline
 66
     1
 10
0
 20
0
 70
     0
  0
VERTEX
  5
6BD
100
AcDbEntity
  8
レイヤ1
100
AcDbVertex
100
AcDb2dVertex
 10
-14.37687006289
 20
898.4365357332
  0
VERTEX
  5
6BE
100
AcDbEntity
  8
レイヤ1
100
AcDbVertex
100
AcDb2dVertex
 10
42.65923739971
 20
898.2008493387
  0
VERTEX
  5
6BF
100
AcDbEntity
  8
レイヤ1
100
AcDbVertex
100
AcDb2dVertex
 10
89.32514350547
 20
900.5577132834
  0
VERTEX
  5
6C0
100
AcDbEntity
  8
レイヤ1
100
AcDbVertex
100
AcDb2dVertex
 10
97.57416731205
 20
901.7361452558
  0
VERTEX
  5
6C1
100
AcDbEntity
  8
レイヤ1
100
AcDbVertex
100
AcDb2dVertex
 10
103.0567737671
 20
901.9151638833
  0
SEQEND
  5
6C2
100
AcDbEntity
  8
レイヤ1
  0
POLYLINE
  5
6C3
100
AcDbEntity
  8
レイヤ1
  6
CONTINUOUS
 62
     0
100
AcDb2dPolyline
 66
     1
 10
0
 20
0
 70
     0
  0
VERTEX
  5
6C4
100
AcDbEntity
  8
レイヤ1
100
AcDbVertex
100
AcDb2dVertex
 10
-127.9777121991
 20
1097.120166274
  0
VERTEX
  5
6C5
100
AcDbEntity
  8
レイヤ1
100
AcDbVertex
100
AcDb2dVertex
 10
-86.49690677179
 20
1101.598207769
  0
VERTEX
  5
6C6
100
AcDbEntity
  8
レイヤ1
100
AcDbVertex
100
AcDb2dVertex
 10
-48.78708365602
 20
1106.547622053
  0
VERTEX
  5
6C7
100
AcDbEntity
  8
レイヤ1
100
AcDbVertex
100
AcDb2dVertex
 10
-32.9960952263
 20
1105.369190081
  0
VERTEX
  5
6C8
100
AcDbEntity
  8
レイヤ1
100
AcDbVertex
100
AcDb2dVertex
 10
2.121177550262
 20
1099.712716614
  0
VERTEX
  5
6C9
100
AcDbEntity
  8
レイヤ1
100
AcDbVertex
100
AcDb2dVertex
 10
21.68314829157
 20
1093.584870357
  0
VERTEX
  5
6CA
100
AcDbEntity
  8
レイヤ1
100
AcDbVertex
100
AcDb2dVertex
 10
25.68981699762
 20
1090.756633624
  0
VERTEX
  5
6CB
100
AcDbEntity
  8
レイヤ1
100
AcDbVertex
100
AcDb2dVertex
 10
33.46746801524
 20
1090.756633624
  0
VERTEX
  5
6CC
100
AcDbEntity
  8
レイヤ1
100
AcDbVertex
100
AcDb2dVertex
 10
35.82433195998
 20
1089.813888046
  0
VERTEX
  5
6CD
100
AcDbEntity
  8
レイヤ1
100
AcDbVertex
100
AcDb2dVertex
 10
66.68379479047
 20
1102.640121939
  0
VERTEX
  5
6CE
100
AcDbEntity
  8
レイヤ1
100
AcDbVertex
100
AcDb2dVertex
 10
94.30031586532
 20
1112.743727211
  0
VERTEX
  5
6CF
100
AcDbEntity
  8
レイヤ1
100
AcDbVertex
100
AcDb2dVertex
 10
111.4764448265
 20
1114.764448265
  0
VERTEX
  5
6D0
100
AcDbEntity
  8
レイヤ1
100
AcDbVertex
100
AcDb2dVertex
 10
126.9686395758
 20
1113.417300895
  0
VERTEX
  5
6D1
100
AcDbEntity
  8
レイヤ1
100
AcDbVertex
100
AcDb2dVertex
 10
140.526610438
 20
1108.331451503
  0
SEQEND
  5
6D2
100
AcDbEntity
  8
レイヤ1
  0
POLYLINE
  5
6D3
100
AcDbEntity
  8
レイヤ1
  6
CONTINUOUS
 62
     0
100
AcDb2dPolyline
 66
     1
 10
0
 20
0
 70
     0
  0
VERTEX
  5
6D4
100
AcDbEntity
  8
レイヤ1
100
AcDbVertex
100
AcDb2dVertex
 10
52.91779783285
 20
1282.66738146
  0
VERTEX
  5
6D5
100
AcDbEntity
  8
レイヤ1
100
AcDbVertex
100
AcDb2dVertex
 10
44.5447285555
 20
1262.572015195
  0
VERTEX
  5
6D6
100
AcDbEntity
  8
レイヤ1
100
AcDbVertex
100
AcDb2dVertex
 10
28.5180537313
 20
1226.040624051
  0
VERTEX
  5
6D7
100
AcDbEntity
  8
レイヤ1
100
AcDbVertex
100
AcDb2dVertex
 10
26.16118978656
 20
1220.855523373
  0
VERTEX
  5
6D8
100
AcDbEntity
  8
レイヤ1
100
AcDbVertex
100
AcDb2dVertex
 10
4.242355100524
 20
1184.088445835
  0
VERTEX
  5
6D9
100
AcDbEntity
  8
レイヤ1
100
AcDbVertex
100
AcDb2dVertex
 10
-26.63256257551
 20
1135.772734968
  0
VERTEX
  5
6DA
100
AcDbEntity
  8
レイヤ1
100
AcDbVertex
100
AcDb2dVertex
 10
-43.62222258821
 20
1106.16218466
  0
SEQEND
  5
6DB
100
AcDbEntity
  8
レイヤ1
  0
POLYLINE
  5
6DC
100
AcDbEntity
  8
レイヤ1
  6
CONTINUOUS
 62
     0
100
AcDb2dPolyline
 66
     1
 10
0
 20
0
 70
     0
  0
VERTEX
  5
6DD
100
AcDbEntity
  8
レイヤ1
100
AcDbVertex
100
AcDb2dVertex
 10
57.0361074626
 20
1284.726536275
  0
VERTEX
  5
6DE
100
AcDbEntity
  8
レイヤ1
100
AcDbVertex
100
AcDb2dVertex
 10
47.84433807813
 20
1264.221819956
  0
VERTEX
  5
6DF
100
AcDbEntity
  8
レイヤ1
100
AcDbVertex
100
AcDb2dVertex
 10
31.58197685946
 20
1227.219056024
  0
VERTEX
  5
6E0
100
AcDbEntity
  8
レイヤ1
100
AcDbVertex
100
AcDb2dVertex
 10
16.49804761315
 20
1195.40139277
  0
VERTEX
  5
6E1
100
AcDbEntity
  8
レイヤ1
100
AcDbVertex
100
AcDb2dVertex
 10
-14.14118366841
 20
1146.614309114
  0
VERTEX
  5
6E2
100
AcDbEntity
  8
レイヤ1
100
AcDbVertex
100
AcDb2dVertex
 10
-39.4348887383
 20
1105.849697059
  0
SEQEND
  5
6E3
100
AcDbEntity
  8
レイヤ1
  0
POLYLINE
  5
6E4
100
AcDbEntity
  8
レイヤ1
  6
CONTINUOUS
 62
     0
100
AcDb2dPolyline
 66
     1
 10
0
 20
0
 70
     0
  0
VERTEX
  5
6E5
100
AcDbEntity
  8
レイヤ1
100
AcDbVertex
100
AcDb2dVertex
 10
63.16395371891
 20
1289.675950559
  0
VERTEX
  5
6E6
100
AcDbEntity
  8
レイヤ1
100
AcDbVertex
100
AcDb2dVertex
 10
60.5714033797
 20
1285.669281853
  0
VERTEX
  5
6E7
100
AcDbEntity
  8
レイヤ1
100
AcDbVertex
100
AcDb2dVertex
 10
58.45022582944
 20
1271.528098185
  0
VERTEX
  5
6E8
100
AcDbEntity
  8
レイヤ1
100
AcDbVertex
100
AcDb2dVertex
 10
45.25178773892
 20
1233.111215886
  0
VERTEX
  5
6E9
100
AcDbEntity
  8
レイヤ1
100
AcDbVertex
100
AcDb2dVertex
 10
30.16785849261
 20
1205.535907732
  0
VERTEX
  5
6EA
100
AcDbEntity
  8
レイヤ1
100
AcDbVertex
100
AcDb2dVertex
 10
27.57530815341
 20
1197.758256715
  0
VERTEX
  5
6EB
100
AcDbEntity
  8
レイヤ1
100
AcDbVertex
100
AcDb2dVertex
 10
6.363532650786
 20
1160.991179177
  0
VERTEX
  5
6EC
100
AcDbEntity
  8
レイヤ1
100
AcDbVertex
100
AcDb2dVertex
 10
-13.90549727394
 20
1132.473125445
  0
VERTEX
  5
6ED
100
AcDbEntity
  8
レイヤ1
100
AcDbVertex
100
AcDb2dVertex
 10
-34.64103285256
 20
1105.49194662
  0
SEQEND
  5
6EE
100
AcDbEntity
  8
レイヤ1
  0
POLYLINE
  5
6EF
100
AcDbEntity
  8
レイヤ1
  6
CONTINUOUS
 62
     0
100
AcDb2dPolyline
 66
     1
 10
0
 20
0
 70
     0
  0
VERTEX
  5
6F0
100
AcDbEntity
  8
レイヤ1
100
AcDbVertex
100
AcDb2dVertex
 10
-130.8059489328
 20
1070.01623091
  0
VERTEX
  5
6F1
100
AcDbEntity
  8
レイヤ1
100
AcDbVertex
100
AcDb2dVertex
 10
-90.50357547784
 20
1069.544858121
  0
VERTEX
  5
6F2
100
AcDbEntity
  8
レイヤ1
100
AcDbVertex
100
AcDb2dVertex
 10
-52.5580659676
 20
1072.373094855
  0
VERTEX
  5
6F3
100
AcDbEntity
  8
レイヤ1
100
AcDbVertex
100
AcDb2dVertex
 10
-15.31961564078
 20
1079.915059478
  0
VERTEX
  5
6F4
100
AcDbEntity
  8
レイヤ1
100
AcDbVertex
100
AcDb2dVertex
 10
2.121177550262
 20
1083.686041789
  0
VERTEX
  5
6F5
100
AcDbEntity
  8
レイヤ1
100
AcDbVertex
100
AcDb2dVertex
 10
15.31961564078
 20
1088.871142468
  0
VERTEX
  5
6F6
100
AcDbEntity
  8
レイヤ1
100
AcDbVertex
100
AcDb2dVertex
 10
25.68981699762
 20
1090.756633624
  0
SEQEND
  5
6F7
100
AcDbEntity
  8
レイヤ1
  0
POLYLINE
  5
6F8
100
AcDbEntity
  8
レイヤ1
  6
CONTINUOUS
 62
     0
100
AcDb2dPolyline
 66
     1
 10
0
 20
0
 70
     0
  0
VERTEX
  5
6F9
100
AcDbEntity
  8
レイヤ1
100
AcDbVertex
100
AcDb2dVertex
 10
-134.8126176389
 20
1058.231911186
  0
VERTEX
  5
6FA
100
AcDbEntity
  8
レイヤ1
100
AcDbVertex
100
AcDb2dVertex
 10
-119.4930019981
 20
1058.93897037
  0
VERTEX
  5
6FB
100
AcDbEntity
  8
レイヤ1
100
AcDbVertex
100
AcDb2dVertex
 10
-102.7592679905
 20
1061.295834314
  0
VERTEX
  5
6FC
100
AcDbEntity
  8
レイヤ1
100
AcDbVertex
100
AcDb2dVertex
 10
-60.80708977417
 20
1063.18132547
  0
VERTEX
  5
6FD
100
AcDbEntity
  8
レイヤ1
100
AcDbVertex
100
AcDb2dVertex
 10
-12.02000611815
 20
1064.359757443
  0
VERTEX
  5
6FE
100
AcDbEntity
  8
レイヤ1
100
AcDbVertex
100
AcDb2dVertex
 10
18.14785237446
 20
1064.595443837
  0
VERTEX
  5
6FF
100
AcDbEntity
  8
レイヤ1
100
AcDbVertex
100
AcDb2dVertex
 10
57.0361074626
 20
1065.30250302
  0
VERTEX
  5
700
100
AcDbEntity
  8
レイヤ1
100
AcDbVertex
100
AcDb2dVertex
 10
99.93103125678
 20
1066.245248598
  0
VERTEX
  5
701
100
AcDbEntity
  8
レイヤ1
100
AcDbVertex
100
AcDb2dVertex
 10
138.5835999504
 20
1068.130739754
  0
VERTEX
  5
702
100
AcDbEntity
  8
レイヤ1
100
AcDbVertex
100
AcDb2dVertex
 10
147.7753693349
 20
1070.251917304
  0
VERTEX
  5
703
100
AcDbEntity
  8
レイヤ1
100
AcDbVertex
100
AcDb2dVertex
 10
150.8736040148
 20
1073.921682166
  0
SEQEND
  5
704
100
AcDbEntity
  8
レイヤ1
  0
POLYLINE
  5
705
100
AcDbEntity
  8
レイヤ1
  6
CONTINUOUS
 62
     0
100
AcDb2dPolyline
 66
     1
 10
0
 20
0
 70
     0
  0
VERTEX
  5
706
100
AcDbEntity
  8
レイヤ1
100
AcDbVertex
100
AcDb2dVertex
 10
-12.02000611815
 20
1064.359757443
  0
VERTEX
  5
707
100
AcDbEntity
  8
レイヤ1
100
AcDbVertex
100
AcDb2dVertex
 10
3.29960952263
 20
1068.130739754
  0
VERTEX
  5
708
100
AcDbEntity
  8
レイヤ1
100
AcDbVertex
100
AcDb2dVertex
 10
16.49804761315
 20
1077.558195533
  0
VERTEX
  5
709
100
AcDbEntity
  8
レイヤ1
100
AcDbVertex
100
AcDb2dVertex
 10
35.82433195998
 20
1089.813888046
  0
SEQEND
  5
70A
100
AcDbEntity
  8
レイヤ1
  0
POLYLINE
  5
70B
100
AcDbEntity
  8
レイヤ1
  6
CONTINUOUS
 62
     0
100
AcDb2dPolyline
 66
     1
 10
0
 20
0
 70
     0
  0
VERTEX
  5
70C
100
AcDbEntity
  8
レイヤ1
100
AcDbVertex
100
AcDb2dVertex
 10
57.0361074626
 20
1065.30250302
  0
VERTEX
  5
70D
100
AcDbEntity
  8
レイヤ1
100
AcDbVertex
100
AcDb2dVertex
 10
71.88435031443
 20
1075.672704377
  0
VERTEX
  5
70E
100
AcDbEntity
  8
レイヤ1
100
AcDbVertex
100
AcDb2dVertex
 10
98.045540101
 20
1085.335846551
  0
VERTEX
  5
70F
100
AcDbEntity
  8
レイヤ1
100
AcDbVertex
100
AcDb2dVertex
 10
128.4490849881
 20
1092.406438385
  0
VERTEX
  5
710
100
AcDbEntity
  8
レイヤ1
100
AcDbVertex
100
AcDb2dVertex
 10
138.1122271615
 20
1091.463692807
  0
VERTEX
  5
711
100
AcDbEntity
  8
レイヤ1
100
AcDbVertex
100
AcDb2dVertex
 10
144.2400734178
 20
1088.399769679
  0
VERTEX
  5
712
100
AcDbEntity
  8
レイヤ1
100
AcDbVertex
100
AcDb2dVertex
 10
149.1892097116
 20
1083.54679247
  0
SEQEND
  5
713
100
AcDbEntity
  8
レイヤ1
  0
CIRCLE
  5
714
100
AcDbEntity
  8
レイヤ1
  6
CONTINUOUS
 62
     0
100
AcDbCircle
 10
-27.61652107484
 20
966.2414507771
 40
8.625951973068
  0
POLYLINE
  5
715
100
AcDbEntity
  8
レイヤ1
  6
CONTINUOUS
 62
     0
100
AcDb2dPolyline
 66
     1
 10
0
 20
0
 70
     0
  0
VERTEX
  5
716
100
AcDbEntity
  8
レイヤ1
100
AcDbVertex
100
AcDb2dVertex
 10
-126.3570785243
 20
990.8111301539
  0
VERTEX
  5
717
100
AcDbEntity
  8
レイヤ1
100
AcDbVertex
100
AcDb2dVertex
 10
-103.7303474518
 20
987.4590218468
  0
VERTEX
  5
718
100
AcDbEntity
  8
レイヤ1
100
AcDbVertex
100
AcDb2dVertex
 10
-62.97913952434
 20
986.4486613197
  0
VERTEX
  5
719
100
AcDbEntity
  8
レイヤ1
100
AcDbVertex
100
AcDb2dVertex
 10
-15.15540790693
 20
987.7958086892
  0
VERTEX
  5
71A
100
AcDbEntity
  8
レイヤ1
100
AcDbVertex
100
AcDb2dVertex
 10
-10.10360527128
 20
990.8268902706
  0
VERTEX
  5
71B
100
AcDbEntity
  8
レイヤ1
100
AcDbVertex
100
AcDb2dVertex
 10
29.97402897148
 20
993.857971852
  0
VERTEX
  5
71C
100
AcDbEntity
  8
レイヤ1
100
AcDbVertex
100
AcDb2dVertex
 10
61.29520531246
 20
998.9097744876
  0
VERTEX
  5
71D
100
AcDbEntity
  8
レイヤ1
100
AcDbVertex
100
AcDb2dVertex
 10
86.21743164829
 20
1001.267282384
  0
SEQEND
  5
71E
100
AcDbEntity
  8
レイヤ1
  0
POLYLINE
  5
71F
100
AcDbEntity
  8
レイヤ1
  6
CONTINUOUS
 62
     0
100
AcDb2dPolyline
 66
     1
 10
0
 20
0
 70
     0
  0
VERTEX
  5
720
100
AcDbEntity
  8
レイヤ1
100
AcDbVertex
100
AcDb2dVertex
 10
-36.94553224573
 20
986.3137626317
  0
VERTEX
  5
721
100
AcDbEntity
  8
レイヤ1
100
AcDbVertex
100
AcDb2dVertex
 10
-38.10008012841
 20
985.6540209844
  0
VERTEX
  5
722
100
AcDbEntity
  8
レイヤ1
100
AcDbVertex
100
AcDb2dVertex
 10
-38.26501554023
 20
978.8916691002
  0
VERTEX
  5
723
100
AcDbEntity
  8
レイヤ1
100
AcDbVertex
100
AcDb2dVertex
 10
-37.60527389298
 20
977.9020566293
  0
VERTEX
  5
724
100
AcDbEntity
  8
レイヤ1
100
AcDbVertex
100
AcDb2dVertex
 10
-30.18318036147
 20
977.9020566293
  0
VERTEX
  5
725
100
AcDbEntity
  8
レイヤ1
100
AcDbVertex
100
AcDb2dVertex
 10
-30.0577247662
 20
974.5147555569
  0
SEQEND
  5
726
100
AcDbEntity
  8
レイヤ1
  0
POLYLINE
  5
727
100
AcDbEntity
  8
レイヤ1
  6
CONTINUOUS
 62
     0
100
AcDb2dPolyline
 66
     1
 10
0
 20
0
 70
     0
  0
VERTEX
  5
728
100
AcDbEntity
  8
レイヤ1
100
AcDbVertex
100
AcDb2dVertex
 10
-25.25331794808
 20
974.5373725718
  0
VERTEX
  5
729
100
AcDbEntity
  8
レイヤ1
100
AcDbVertex
100
AcDb2dVertex
 10
-24.90524718351
 20
977.9020566293
  0
VERTEX
  5
72A
100
AcDbEntity
  8
レイヤ1
100
AcDbVertex
100
AcDb2dVertex
 10
-20.4519910646
 20
978.2319274529
  0
VERTEX
  5
72B
100
AcDbEntity
  8
レイヤ1
100
AcDbVertex
100
AcDb2dVertex
 10
-19.46237859374
 20
979.881281571
  0
VERTEX
  5
72C
100
AcDbEntity
  8
レイヤ1
100
AcDbVertex
100
AcDb2dVertex
 10
-19.13250777011
 20
985.3241501608
  0
VERTEX
  5
72D
100
AcDbEntity
  8
レイヤ1
100
AcDbVertex
100
AcDb2dVertex
 10
-20.28705565279
 20
986.8085688671
  0
SEQEND
  5
72E
100
AcDbEntity
  8
レイヤ1
  0
POLYLINE
  5
72F
100
AcDbEntity
  8
レイヤ1
  6
CONTINUOUS
 62
     0
100
AcDb2dPolyline
 66
     1
 10
0
 20
0
 70
     0
  0
VERTEX
  5
730
100
AcDbEntity
  8
レイヤ1
100
AcDbVertex
100
AcDb2dVertex
 10
-24.99996414719
 20
976.9864593137
  0
VERTEX
  5
731
100
AcDbEntity
  8
レイヤ1
100
AcDbVertex
100
AcDb2dVertex
 10
-13.80826053742
 20
977.3554165755
  0
VERTEX
  5
732
100
AcDbEntity
  8
レイヤ1
100
AcDbVertex
100
AcDb2dVertex
 10
-11.45075264079
 20
979.7129244722
  0
VERTEX
  5
733
100
AcDbEntity
  8
レイヤ1
100
AcDbVertex
100
AcDb2dVertex
 10
32.66832371048
 20
979.0393507874
  0
VERTEX
  5
734
100
AcDbEntity
  8
レイヤ1
100
AcDbVertex
100
AcDb2dVertex
 10
58.93769741582
 20
981.7336455264
  0
VERTEX
  5
735
100
AcDbEntity
  8
レイヤ1
100
AcDbVertex
100
AcDb2dVertex
 10
79.48169480077
 20
985.7750876349
  0
VERTEX
  5
736
100
AcDbEntity
  8
レイヤ1
100
AcDbVertex
100
AcDb2dVertex
 10
88.9117263873
 20
987.7958086892
  0
SEQEND
  5
737
100
AcDbEntity
  8
レイヤ1
  0
POLYLINE
  5
738
100
AcDbEntity
  8
レイヤ1
  6
CONTINUOUS
 62
     0
100
AcDb2dPolyline
 66
     1
 10
0
 20
0
 70
     0
  0
VERTEX
  5
739
100
AcDbEntity
  8
レイヤ1
100
AcDbVertex
100
AcDb2dVertex
 10
-27.60662753396
 20
865.3300736393
  0
VERTEX
  5
73A
100
AcDbEntity
  8
レイヤ1
100
AcDbVertex
100
AcDb2dVertex
 10
-17.20510679657
 20
865.2047541124
  0
VERTEX
  5
73B
100
AcDbEntity
  8
レイヤ1
100
AcDbVertex
100
AcDb2dVertex
 10
-3.063923128156
 20
870.1541683963
  0
VERTEX
  5
73C
100
AcDbEntity
  8
レイヤ1
100
AcDbVertex
100
AcDb2dVertex
 10
-10.13451496236
 20
885.0024112482
  0
VERTEX
  5
73D
100
AcDbEntity
  8
レイヤ1
100
AcDbVertex
100
AcDb2dVertex
 10
-13.43412448499
 20
895.372612605
  0
VERTEX
  5
73E
100
AcDbEntity
  8
レイヤ1
100
AcDbVertex
100
AcDb2dVertex
 10
-18.85491155788
 20
904.328695595
  0
VERTEX
  5
73F
100
AcDbEntity
  8
レイヤ1
100
AcDbVertex
100
AcDb2dVertex
 10
-21.44746189709
 20
926.9545894645
  0
VERTEX
  5
740
100
AcDbEntity
  8
レイヤ1
100
AcDbVertex
100
AcDb2dVertex
 10
-22.26628059453
 20
939.3071702654
  0
VERTEX
  5
741
100
AcDbEntity
  8
レイヤ1
100
AcDbVertex
100
AcDb2dVertex
 10
-22.39020747499
 20
949.3447969394
  0
VERTEX
  5
742
100
AcDbEntity
  8
レイヤ1
100
AcDbVertex
100
AcDb2dVertex
 10
-29.52343871423
 20
949.2032949741
  0
VERTEX
  5
743
100
AcDbEntity
  8
レイヤ1
100
AcDbVertex
100
AcDb2dVertex
 10
-29.85330953785
 20
948.2136825033
  0
VERTEX
  5
744
100
AcDbEntity
  8
レイヤ1
100
AcDbVertex
100
AcDb2dVertex
 10
-30.51305118509
 20
939.4721056773
  0
VERTEX
  5
745
100
AcDbEntity
  8
レイヤ1
100
AcDbVertex
100
AcDb2dVertex
 10
-33.23178162077
 20
931.6683173539
  0
VERTEX
  5
746
100
AcDbEntity
  8
レイヤ1
100
AcDbVertex
100
AcDb2dVertex
 10
-36.06001835445
 20
911.3992874292
  0
VERTEX
  5
747
100
AcDbEntity
  8
レイヤ1
100
AcDbVertex
100
AcDb2dVertex
 10
-38.41688229919
 20
898.2008493387
  0
VERTEX
  5
748
100
AcDbEntity
  8
レイヤ1
100
AcDbVertex
100
AcDb2dVertex
 10
-37.99299261341
 20
877.0063650499
  0
SEQEND
  5
749
100
AcDbEntity
  8
レイヤ1
  0
POLYLINE
  5
74A
100
AcDbEntity
  8
レイヤ1
  6
CONTINUOUS
 62
     0
100
AcDb2dPolyline
 66
     1
 10
0
 20
0
 70
     0
  0
VERTEX
  5
74B
100
AcDbEntity
  8
レイヤ1
100
AcDbVertex
100
AcDb2dVertex
 10
-28.75374012577
 20
957.6907911375
  0
VERTEX
  5
74C
100
AcDbEntity
  8
レイヤ1
100
AcDbVertex
100
AcDb2dVertex
 10
-28.75374012577
 20
955.0012704068
  0
VERTEX
  5
74D
100
AcDbEntity
  8
レイヤ1
100
AcDbVertex
100
AcDb2dVertex
 10
-26.86824896998
 20
953.115779251
  0
VERTEX
  5
74E
100
AcDbEntity
  8
レイヤ1
100
AcDbVertex
100
AcDb2dVertex
 10
-26.46279945931
 20
949.2640088996
  0
SEQEND
  5
74F
100
AcDbEntity
  8
レイヤ1
  0
POLYLINE
  5
750
100
AcDbEntity
  8
レイヤ1
  6
CONTINUOUS
 62
     0
100
AcDb2dPolyline
 66
     1
 10
0
 20
0
 70
     0
  0
VERTEX
  5
751
100
AcDbEntity
  8
レイヤ1
100
AcDbVertex
100
AcDb2dVertex
 10
-22.39020747499
 20
949.3447969394
  0
VERTEX
  5
752
100
AcDbEntity
  8
レイヤ1
100
AcDbVertex
100
AcDb2dVertex
 10
-22.39020747499
 20
952.1730336731
  0
VERTEX
  5
753
100
AcDbEntity
  8
レイヤ1
100
AcDbVertex
100
AcDb2dVertex
 10
-25.21844420867
 20
955.0012704068
  0
VERTEX
  5
754
100
AcDbEntity
  8
レイヤ1
100
AcDbVertex
100
AcDb2dVertex
 10
-25.60728464587
 20
957.8527669463
  0
SEQEND
  5
755
100
AcDbEntity
  8
レイヤ1
  0
POLYLINE
  5
756
100
AcDbEntity
  8
レイヤ1
  6
CONTINUOUS
 62
     0
100
AcDb2dPolyline
 66
     1
 10
0
 20
0
 70
     0
  0
VERTEX
  5
757
100
AcDbEntity
  8
レイヤ1
100
AcDbVertex
100
AcDb2dVertex
 10
157.8518089852
 20
1033.255591132
  0
VERTEX
  5
758
100
AcDbEntity
  8
レイヤ1
100
AcDbVertex
100
AcDb2dVertex
 10
151.5540790693
 20
1030.230950829
  0
VERTEX
  5
759
100
AcDbEntity
  8
レイヤ1
100
AcDbVertex
100
AcDb2dVertex
 10
145.8287027489
 20
1025.852721878
  0
VERTEX
  5
75A
100
AcDbEntity
  8
レイヤ1
100
AcDbVertex
100
AcDb2dVertex
 10
143.4711948522
 20
1020.127345557
  0
VERTEX
  5
75B
100
AcDbEntity
  8
レイヤ1
100
AcDbVertex
100
AcDb2dVertex
 10
143.8079816946
 20
1014.738756079
  0
VERTEX
  5
75C
100
AcDbEntity
  8
レイヤ1
100
AcDbVertex
100
AcDb2dVertex
 10
147.5126369607
 20
1011.034100813
  0
VERTEX
  5
75D
100
AcDbEntity
  8
レイヤ1
100
AcDbVertex
100
AcDb2dVertex
 10
148.8597843303
 20
1006.992658705
  0
VERTEX
  5
75E
100
AcDbEntity
  8
レイヤ1
100
AcDbVertex
100
AcDb2dVertex
 10
148.8597843303
 20
1002.614429754
  0
VERTEX
  5
75F
100
AcDbEntity
  8
レイヤ1
100
AcDbVertex
100
AcDb2dVertex
 10
147.5126369607
 20
998.2362008029
  0
VERTEX
  5
760
100
AcDbEntity
  8
レイヤ1
100
AcDbVertex
100
AcDb2dVertex
 10
146.5022764336
 20
997.5626271181
  0
VERTEX
  5
761
100
AcDbEntity
  8
レイヤ1
100
AcDbVertex
100
AcDb2dVertex
 10
148.5229974879
 20
989.4797429011
  0
VERTEX
  5
762
100
AcDbEntity
  8
レイヤ1
100
AcDbVertex
100
AcDb2dVertex
 10
149.1965711726
 20
983.7543665807
  0
VERTEX
  5
763
100
AcDbEntity
  8
レイヤ1
100
AcDbVertex
100
AcDb2dVertex
 10
148.1862106455
 20
979.3761376298
  0
VERTEX
  5
764
100
AcDbEntity
  8
レイヤ1
100
AcDbVertex
100
AcDb2dVertex
 10
146.1654895912
 20
975.6714823637
  0
VERTEX
  5
765
100
AcDbEntity
  8
レイヤ1
100
AcDbVertex
100
AcDb2dVertex
 10
144.144768537
 20
974.9979086789
  0
VERTEX
  5
766
100
AcDbEntity
  8
レイヤ1
100
AcDbVertex
100
AcDb2dVertex
 10
148.1862106455
 20
971.9668270975
  0
VERTEX
  5
767
100
AcDbEntity
  8
レイヤ1
100
AcDbVertex
100
AcDb2dVertex
 10
150.5437185421
 20
966.9150244619
  0
VERTEX
  5
768
100
AcDbEntity
  8
レイヤ1
100
AcDbVertex
100
AcDb2dVertex
 10
151.5540790693
 20
963.2103691957
  0
VERTEX
  5
769
100
AcDbEntity
  8
レイヤ1
100
AcDbVertex
100
AcDb2dVertex
 10
152.227652754
 20
957.8217797177
  0
VERTEX
  5
76A
100
AcDbEntity
  8
レイヤ1
100
AcDbVertex
100
AcDb2dVertex
 10
154.5851606506
 20
955.4642718211
  0
SEQEND
  5
76B
100
AcDbEntity
  8
レイヤ1
  0
POLYLINE
  5
76C
100
AcDbEntity
  8
レイヤ1
  6
CONTINUOUS
 62
     0
100
AcDb2dPolyline
 66
     1
 10
0
 20
0
 70
     0
  0
VERTEX
  5
76D
100
AcDbEntity
  8
レイヤ1
100
AcDbVertex
100
AcDb2dVertex
 10
144.144768537
 20
974.9979086789
  0
VERTEX
  5
76E
100
AcDbEntity
  8
レイヤ1
100
AcDbVertex
100
AcDb2dVertex
 10
141.7872606404
 20
971.6300402551
  0
VERTEX
  5
76F
100
AcDbEntity
  8
レイヤ1
100
AcDbVertex
100
AcDb2dVertex
 10
136.3986711623
 20
969.2725323585
  0
VERTEX
  5
770
100
AcDbEntity
  8
レイヤ1
100
AcDbVertex
100
AcDb2dVertex
 10
132.0204422114
 20
969.6093192009
  0
VERTEX
  5
771
100
AcDbEntity
  8
レイヤ1
100
AcDbVertex
100
AcDb2dVertex
 10
127.9790001029
 20
970.619679728
  0
SEQEND
  5
772
100
AcDbEntity
  8
レイヤ1
  0
POLYLINE
  5
773
100
AcDbEntity
  8
レイヤ1
  6
CONTINUOUS
 62
     0
100
AcDb2dPolyline
 66
     1
 10
0
 20
0
 70
     0
  0
VERTEX
  5
774
100
AcDbEntity
  8
レイヤ1
100
AcDbVertex
100
AcDb2dVertex
 10
141.7872606404
 20
971.6300402551
  0
VERTEX
  5
775
100
AcDbEntity
  8
レイヤ1
100
AcDbVertex
100
AcDb2dVertex
 10
146.1654895912
 20
966.9150244619
  0
VERTEX
  5
776
100
AcDbEntity
  8
レイヤ1
100
AcDbVertex
100
AcDb2dVertex
 10
147.8494238031
 20
962.8735823534
  0
VERTEX
  5
777
100
AcDbEntity
  8
レイヤ1
100
AcDbVertex
100
AcDb2dVertex
 10
147.8494238031
 20
952.7699770821
  0
VERTEX
  5
778
100
AcDbEntity
  8
レイヤ1
100
AcDbVertex
100
AcDb2dVertex
 10
146.4105089016
 20
946.8087582045
  0
SEQEND
  5
779
100
AcDbEntity
  8
レイヤ1
  0
POLYLINE
  5
77A
100
AcDbEntity
  8
レイヤ1
  6
CONTINUOUS
 62
     0
100
AcDb2dPolyline
 66
     1
 10
0
 20
0
 70
     0
  0
VERTEX
  5
77B
100
AcDbEntity
  8
レイヤ1
100
AcDbVertex
100
AcDb2dVertex
 10
143.4711948522
 20
1020.127345557
  0
VERTEX
  5
77C
100
AcDbEntity
  8
レイヤ1
100
AcDbVertex
100
AcDb2dVertex
 10
141.450473798
 20
1029.220590301
  0
VERTEX
  5
77D
100
AcDbEntity
  8
レイヤ1
100
AcDbVertex
100
AcDb2dVertex
 10
137.0722448471
 20
1034.945966622
  0
VERTEX
  5
77E
100
AcDbEntity
  8
レイヤ1
100
AcDbVertex
100
AcDb2dVertex
 10
128.9893606301
 20
1037.303474518
  0
VERTEX
  5
77F
100
AcDbEntity
  8
レイヤ1
100
AcDbVertex
100
AcDb2dVertex
 10
124.2743448368
 20
1037.977048203
  0
VERTEX
  5
780
100
AcDbEntity
  8
レイヤ1
100
AcDbVertex
100
AcDb2dVertex
 10
118.8857553588
 20
1051.111735056
  0
VERTEX
  5
781
100
AcDbEntity
  8
レイヤ1
100
AcDbVertex
100
AcDb2dVertex
 10
111.8132316689
 20
1058.184258746
  0
VERTEX
  5
782
100
AcDbEntity
  8
レイヤ1
100
AcDbVertex
100
AcDb2dVertex
 10
104.4039211366
 20
1061.55212717
  0
VERTEX
  5
783
100
AcDbEntity
  8
レイヤ1
100
AcDbVertex
100
AcDb2dVertex
 10
99.01533165858
 20
1061.55212717
  0
VERTEX
  5
784
100
AcDbEntity
  8
レイヤ1
100
AcDbVertex
100
AcDb2dVertex
 10
91.94280796868
 20
1057.510685061
  0
VERTEX
  5
785
100
AcDbEntity
  8
レイヤ1
100
AcDbVertex
100
AcDb2dVertex
 10
88.23815270255
 20
1051.448521898
  0
VERTEX
  5
786
100
AcDbEntity
  8
レイヤ1
100
AcDbVertex
100
AcDb2dVertex
 10
87.56457901779
 20
1044.712785051
  0
VERTEX
  5
787
100
AcDbEntity
  8
レイヤ1
100
AcDbVertex
100
AcDb2dVertex
 10
89.24851322968
 20
1035.619540307
  0
VERTEX
  5
788
100
AcDbEntity
  8
レイヤ1
100
AcDbVertex
100
AcDb2dVertex
 10
90.2588737568
 20
1029.557377144
  0
VERTEX
  5
789
100
AcDbEntity
  8
レイヤ1
100
AcDbVertex
100
AcDb2dVertex
 10
85.88064480591
 20
1024.168787666
  0
VERTEX
  5
78A
100
AcDbEntity
  8
レイヤ1
100
AcDbVertex
100
AcDb2dVertex
 10
84.19671059403
 20
1018.443411345
  0
VERTEX
  5
78B
100
AcDbEntity
  8
レイヤ1
100
AcDbVertex
100
AcDb2dVertex
 10
83.85992375166
 20
1010.360527128
  0
VERTEX
  5
78C
100
AcDbEntity
  8
レイヤ1
100
AcDbVertex
100
AcDb2dVertex
 10
86.21743164829
 20
1001.267282384
  0
VERTEX
  5
78D
100
AcDbEntity
  8
レイヤ1
100
AcDbVertex
100
AcDb2dVertex
 10
90.59566059918
 20
997.5626271181
  0
VERTEX
  5
78E
100
AcDbEntity
  8
レイヤ1
100
AcDbVertex
100
AcDb2dVertex
 10
89.24851322968
 20
994.5315455367
  0
VERTEX
  5
78F
100
AcDbEntity
  8
レイヤ1
100
AcDbVertex
100
AcDb2dVertex
 10
88.9117263873
 20
987.7958086892
  0
VERTEX
  5
790
100
AcDbEntity
  8
レイヤ1
100
AcDbVertex
100
AcDb2dVertex
 10
92.61638165344
 20
975.3346955213
  0
VERTEX
  5
791
100
AcDbEntity
  8
レイヤ1
100
AcDbVertex
100
AcDb2dVertex
 10
96.99461060433
 20
968.9357455161
  0
VERTEX
  5
792
100
AcDbEntity
  8
レイヤ1
100
AcDbVertex
100
AcDb2dVertex
 10
101.0360527128
 20
967.5885981466
  0
VERTEX
  5
793
100
AcDbEntity
  8
レイヤ1
100
AcDbVertex
100
AcDb2dVertex
 10
106.0878553485
 20
960.5160744567
  0
VERTEX
  5
794
100
AcDbEntity
  8
レイヤ1
100
AcDbVertex
100
AcDb2dVertex
 10
113.1603790384
 20
954.7906981363
  0
VERTEX
  5
795
100
AcDbEntity
  8
レイヤ1
100
AcDbVertex
100
AcDb2dVertex
 10
117.2018211469
 20
953.7803376092
  0
VERTEX
  5
796
100
AcDbEntity
  8
レイヤ1
100
AcDbVertex
100
AcDb2dVertex
 10
123.9375579944
 20
953.7803376092
  0
VERTEX
  5
797
100
AcDbEntity
  8
レイヤ1
100
AcDbVertex
100
AcDb2dVertex
 10
128.3157869453
 20
942.6663718108
  0
VERTEX
  5
798
100
AcDbEntity
  8
レイヤ1
100
AcDbVertex
100
AcDb2dVertex
 10
128.0210012334
 20
927.3375147911
  0
SEQEND
  5
799
100
AcDbEntity
  8
レイヤ1
  0
POLYLINE
  5
79A
100
AcDbEntity
  8
レイヤ1
  6
CONTINUOUS
 62
     0
100
AcDb2dPolyline
 66
     1
 10
0
 20
0
 70
     0
  0
VERTEX
  5
79B
100
AcDbEntity
  8
レイヤ1
100
AcDbVertex
100
AcDb2dVertex
 10
132.3390440191
 20
931.9095600936
  0
VERTEX
  5
79C
100
AcDbEntity
  8
レイヤ1
100
AcDbVertex
100
AcDb2dVertex
 10
134.0411632657
 20
937.2777823328
  0
VERTEX
  5
79D
100
AcDbEntity
  8
レイヤ1
100
AcDbVertex
100
AcDb2dVertex
 10
133.3675895809
 20
947.3813876041
  0
VERTEX
  5
79E
100
AcDbEntity
  8
レイヤ1
100
AcDbVertex
100
AcDb2dVertex
 10
130.3365079996
 20
956.1378455058
  0
VERTEX
  5
79F
100
AcDbEntity
  8
レイヤ1
100
AcDbVertex
100
AcDb2dVertex
 10
127.3054264182
 20
960.1792876144
  0
VERTEX
  5
7A0
100
AcDbEntity
  8
レイヤ1
100
AcDbVertex
100
AcDb2dVertex
 10
127.6422132606
 20
967.2518113043
  0
VERTEX
  5
7A1
100
AcDbEntity
  8
レイヤ1
100
AcDbVertex
100
AcDb2dVertex
 10
127.9790001029
 20
970.619679728
  0
VERTEX
  5
7A2
100
AcDbEntity
  8
レイヤ1
100
AcDbVertex
100
AcDb2dVertex
 10
126.9686395758
 20
982.7440060536
  0
VERTEX
  5
7A3
100
AcDbEntity
  8
レイヤ1
100
AcDbVertex
100
AcDb2dVertex
 10
124.9479185215
 20
989.1429560587
  0
VERTEX
  5
7A4
100
AcDbEntity
  8
レイヤ1
100
AcDbVertex
100
AcDb2dVertex
 10
125.2847053639
 20
992.1740376401
  0
VERTEX
  5
7A5
100
AcDbEntity
  8
レイヤ1
100
AcDbVertex
100
AcDb2dVertex
 10
125.6214922063
 20
997.8994139605
  0
VERTEX
  5
7A6
100
AcDbEntity
  8
レイヤ1
100
AcDbVertex
100
AcDb2dVertex
 10
127.6422132606
 20
997.2258402757
  0
VERTEX
  5
7A7
100
AcDbEntity
  8
レイヤ1
100
AcDbVertex
100
AcDb2dVertex
 10
129.9997211572
 20
999.5833481724
  0
VERTEX
  5
7A8
100
AcDbEntity
  8
レイヤ1
100
AcDbVertex
100
AcDb2dVertex
 10
129.6629343148
 20
1002.277642911
  0
VERTEX
  5
7A9
100
AcDbEntity
  8
レイヤ1
100
AcDbVertex
100
AcDb2dVertex
 10
131.6836553691
 20
1002.277642911
  0
VERTEX
  5
7AA
100
AcDbEntity
  8
レイヤ1
100
AcDbVertex
100
AcDb2dVertex
 10
132.0204422114
 20
1007.666232389
  0
VERTEX
  5
7AB
100
AcDbEntity
  8
レイヤ1
100
AcDbVertex
100
AcDb2dVertex
 10
130.3365079996
 20
1010.697313971
  0
VERTEX
  5
7AC
100
AcDbEntity
  8
レイヤ1
100
AcDbVertex
100
AcDb2dVertex
 10
133.7043764233
 20
1012.04446134
  0
VERTEX
  5
7AD
100
AcDbEntity
  8
レイヤ1
100
AcDbVertex
100
AcDb2dVertex
 10
140.4401132708
 20
1011.370887656
  0
VERTEX
  5
7AE
100
AcDbEntity
  8
レイヤ1
100
AcDbVertex
100
AcDb2dVertex
 10
143.4711948522
 20
1006.655871862
  0
VERTEX
  5
7AF
100
AcDbEntity
  8
レイヤ1
100
AcDbVertex
100
AcDb2dVertex
 10
143.8079816946
 20
1004.635150808
  0
VERTEX
  5
7B0
100
AcDbEntity
  8
レイヤ1
100
AcDbVertex
100
AcDb2dVertex
 10
141.450473798
 20
1000.256921857
  0
VERTEX
  5
7B1
100
AcDbEntity
  8
レイヤ1
100
AcDbVertex
100
AcDb2dVertex
 10
139.7665395861
 20
998.9097744876
  0
VERTEX
  5
7B2
100
AcDbEntity
  8
レイヤ1
100
AcDbVertex
100
AcDb2dVertex
 10
139.7665395861
 20
996.8890534334
  0
VERTEX
  5
7B3
100
AcDbEntity
  8
レイヤ1
100
AcDbVertex
100
AcDb2dVertex
 10
142.1240474827
 20
996.552266591
  0
VERTEX
  5
7B4
100
AcDbEntity
  8
レイヤ1
100
AcDbVertex
100
AcDb2dVertex
 10
146.5022764336
 20
997.5626271181
  0
SEQEND
  5
7B5
100
AcDbEntity
  8
レイヤ1
  0
POLYLINE
  5
7B6
100
AcDbEntity
  8
レイヤ1
  6
CONTINUOUS
 62
     0
100
AcDb2dPolyline
 66
     1
 10
0
 20
0
 70
     0
  0
VERTEX
  5
7B7
100
AcDbEntity
  8
レイヤ1
100
AcDbVertex
100
AcDb2dVertex
 10
134.2095566869
 20
969.4409257797
  0
VERTEX
  5
7B8
100
AcDbEntity
  8
レイヤ1
100
AcDbVertex
100
AcDb2dVertex
 10
135.0515237928
 20
962.2000086686
  0
VERTEX
  5
7B9
100
AcDbEntity
  8
レイヤ1
100
AcDbVertex
100
AcDb2dVertex
 10
136.06188432
 20
948.0549612888
  0
VERTEX
  5
7BA
100
AcDbEntity
  8
レイヤ1
100
AcDbVertex
100
AcDb2dVertex
 10
135.7962496274
 20
935.5701307376
  0
SEQEND
  5
7BB
100
AcDbEntity
  8
レイヤ1
  0
POLYLINE
  5
7BC
100
AcDbEntity
  8
レイヤ1
  6
CONTINUOUS
 62
     0
100
AcDb2dPolyline
 66
     1
 10
0
 20
0
 70
     0
  0
VERTEX
  5
7BD
100
AcDbEntity
  8
レイヤ1
100
AcDbVertex
100
AcDb2dVertex
 10
142.0163624194
 20
942.1561325174
  0
VERTEX
  5
7BE
100
AcDbEntity
  8
レイヤ1
100
AcDbVertex
100
AcDb2dVertex
 10
142.4608343251
 20
950.7492560278
  0
VERTEX
  5
7BF
100
AcDbEntity
  8
レイヤ1
100
AcDbVertex
100
AcDb2dVertex
 10
142.1240474827
 20
964.2207297229
  0
VERTEX
  5
7C0
100
AcDbEntity
  8
レイヤ1
100
AcDbVertex
100
AcDb2dVertex
 10
139.0929659013
 20
970.4512863068
  0
SEQEND
  5
7C1
100
AcDbEntity
  8
レイヤ1
  0
POLYLINE
  5
7C2
100
AcDbEntity
  8
レイヤ1
  6
CONTINUOUS
 62
     0
100
AcDb2dPolyline
 66
     1
 10
0
 20
0
 70
     0
  0
VERTEX
  5
7C3
100
AcDbEntity
  8
レイヤ1
100
AcDbVertex
100
AcDb2dVertex
 10
125.9582790487
 20
985.9434810561
  0
VERTEX
  5
7C4
100
AcDbEntity
  8
レイヤ1
100
AcDbVertex
100
AcDb2dVertex
 10
131.0100816843
 20
986.4486613197
  0
VERTEX
  5
7C5
100
AcDbEntity
  8
レイヤ1
100
AcDbVertex
100
AcDb2dVertex
 10
138.756179059
 20
988.8061692163
  0
VERTEX
  5
7C6
100
AcDbEntity
  8
レイヤ1
100
AcDbVertex
100
AcDb2dVertex
 10
139.7665395861
 20
989.8165297435
  0
VERTEX
  5
7C7
100
AcDbEntity
  8
レイヤ1
100
AcDbVertex
100
AcDb2dVertex
 10
139.4297527437
 20
985.4383007926
  0
VERTEX
  5
7C8
100
AcDbEntity
  8
レイヤ1
100
AcDbVertex
100
AcDb2dVertex
 10
137.4090316895
 20
982.4072192112
  0
VERTEX
  5
7C9
100
AcDbEntity
  8
レイヤ1
100
AcDbVertex
100
AcDb2dVertex
 10
133.0308027386
 20
981.3968586841
  0
VERTEX
  5
7CA
100
AcDbEntity
  8
レイヤ1
100
AcDbVertex
100
AcDb2dVertex
 10
128.6525737877
 20
983.4175797383
  0
VERTEX
  5
7CB
100
AcDbEntity
  8
レイヤ1
100
AcDbVertex
100
AcDb2dVertex
 10
126.9686395758
 20
982.7440060536
  0
SEQEND
  5
7CC
100
AcDbEntity
  8
レイヤ1
  0
POLYLINE
  5
7CD
100
AcDbEntity
  8
レイヤ1
  6
CONTINUOUS
 62
     0
100
AcDb2dPolyline
 66
     1
 10
0
 20
0
 70
     0
  0
VERTEX
  5
7CE
100
AcDbEntity
  8
レイヤ1
100
AcDbVertex
100
AcDb2dVertex
 10
125.6214922063
 20
997.8994139605
  0
VERTEX
  5
7CF
100
AcDbEntity
  8
レイヤ1
100
AcDbVertex
100
AcDb2dVertex
 10
123.2067526231
 20
999.0137893411
  0
VERTEX
  5
7D0
100
AcDbEntity
  8
レイヤ1
100
AcDbVertex
100
AcDb2dVertex
 10
117.9288194451
 20
998.1891122821
  0
VERTEX
  5
7D1
100
AcDbEntity
  8
レイヤ1
100
AcDbVertex
100
AcDb2dVertex
 10
113.8054341498
 20
996.3748227522
  0
VERTEX
  5
7D2
100
AcDbEntity
  8
レイヤ1
100
AcDbVertex
100
AcDb2dVertex
 10
108.6924363837
 20
990.9319541624
  0
VERTEX
  5
7D3
100
AcDbEntity
  8
レイヤ1
100
AcDbVertex
100
AcDb2dVertex
 10
107.2080176774
 20
984.6644085136
  0
VERTEX
  5
7D4
100
AcDbEntity
  8
レイヤ1
100
AcDbVertex
100
AcDb2dVertex
 10
107.2080176774
 20
976.0877670994
  0
VERTEX
  5
7D5
100
AcDbEntity
  8
レイヤ1
100
AcDbVertex
100
AcDb2dVertex
 10
107.3729530892
 20
971.7994463923
  0
VERTEX
  5
7D6
100
AcDbEntity
  8
レイヤ1
100
AcDbVertex
100
AcDb2dVertex
 10
110.5067259136
 20
964.212417449
  0
VERTEX
  5
7D7
100
AcDbEntity
  8
レイヤ1
100
AcDbVertex
100
AcDb2dVertex
 10
114.7950466207
 20
960.0890321537
  0
VERTEX
  5
7D8
100
AcDbEntity
  8
レイヤ1
100
AcDbVertex
100
AcDb2dVertex
 10
118.5885610923
 20
959.5942259182
  0
VERTEX
  5
7D9
100
AcDbEntity
  8
レイヤ1
100
AcDbVertex
100
AcDb2dVertex
 10
121.0625922695
 20
961.2435800363
  0
VERTEX
  5
7DA
100
AcDbEntity
  8
レイヤ1
100
AcDbVertex
100
AcDb2dVertex
 10
122.2171401522
 20
966.8513840379
  0
VERTEX
  5
7DB
100
AcDbEntity
  8
レイヤ1
100
AcDbVertex
100
AcDb2dVertex
 10
122.8768817994
 20
970.8098339214
  0
VERTEX
  5
7DC
100
AcDbEntity
  8
レイヤ1
100
AcDbVertex
100
AcDb2dVertex
 10
122.2171401522
 20
974.1085421576
  0
VERTEX
  5
7DD
100
AcDbEntity
  8
レイヤ1
100
AcDbVertex
100
AcDb2dVertex
 10
120.5677860341
 20
975.7578962757
  0
SEQEND
  5
7DE
100
AcDbEntity
  8
レイヤ1
  0
POLYLINE
  5
7DF
100
AcDbEntity
  8
レイヤ1
  6
CONTINUOUS
 62
     0
100
AcDb2dPolyline
 66
     1
 10
0
 20
0
 70
     0
  0
VERTEX
  5
7E0
100
AcDbEntity
  8
レイヤ1
100
AcDbVertex
100
AcDb2dVertex
 10
129.6629343148
 20
1002.277642911
  0
VERTEX
  5
7E1
100
AcDbEntity
  8
レイヤ1
100
AcDbVertex
100
AcDb2dVertex
 10
125.6807838002
 20
1005.776141225
  0
VERTEX
  5
7E2
100
AcDbEntity
  8
レイヤ1
100
AcDbVertex
100
AcDb2dVertex
 10
122.0522047404
 20
1006.106012049
  0
VERTEX
  5
7E3
100
AcDbEntity
  8
レイヤ1
100
AcDbVertex
100
AcDb2dVertex
 10
118.7534965041
 20
1004.456657931
  0
VERTEX
  5
7E4
100
AcDbEntity
  8
レイヤ1
100
AcDbVertex
100
AcDb2dVertex
 10
115.7846590915
 20
1001.487820518
  0
VERTEX
  5
7E5
100
AcDbEntity
  8
レイヤ1
100
AcDbVertex
100
AcDb2dVertex
 10
113.3106279144
 20
998.3540476939
  0
VERTEX
  5
7E6
100
AcDbEntity
  8
レイヤ1
100
AcDbVertex
100
AcDb2dVertex
 10
108.6924363837
 20
990.9319541624
  0
SEQEND
  5
7E7
100
AcDbEntity
  8
レイヤ1
  0
POLYLINE
  5
7E8
100
AcDbEntity
  8
レイヤ1
  6
CONTINUOUS
 62
     0
100
AcDb2dPolyline
 66
     1
 10
0
 20
0
 70
     0
  0
VERTEX
  5
7E9
100
AcDbEntity
  8
レイヤ1
100
AcDbVertex
100
AcDb2dVertex
 10
130.3365079996
 20
1010.697313971
  0
VERTEX
  5
7EA
100
AcDbEntity
  8
レイヤ1
100
AcDbVertex
100
AcDb2dVertex
 10
126.3405254475
 20
1013.033299345
  0
VERTEX
  5
7EB
100
AcDbEntity
  8
レイヤ1
100
AcDbVertex
100
AcDb2dVertex
 10
122.7119463876
 20
1013.198234757
  0
VERTEX
  5
7EC
100
AcDbEntity
  8
レイヤ1
100
AcDbVertex
100
AcDb2dVertex
 10
116.9392069742
 20
1011.548880639
  0
VERTEX
  5
7ED
100
AcDbEntity
  8
レイヤ1
100
AcDbVertex
100
AcDb2dVertex
 10
111.1664675608
 20
1005.28133499
  0
VERTEX
  5
7EE
100
AcDbEntity
  8
レイヤ1
100
AcDbVertex
100
AcDb2dVertex
 10
104.0742448529
 20
994.8904040459
  0
VERTEX
  5
7EF
100
AcDbEntity
  8
レイヤ1
100
AcDbVertex
100
AcDb2dVertex
 10
101.1054074403
 20
985.3241501608
  0
VERTEX
  5
7F0
100
AcDbEntity
  8
レイヤ1
100
AcDbVertex
100
AcDb2dVertex
 10
100.4456657931
 20
979.056604512
  0
VERTEX
  5
7F1
100
AcDbEntity
  8
レイヤ1
100
AcDbVertex
100
AcDb2dVertex
 10
100.4456657931
 20
973.1189296868
  0
VERTEX
  5
7F2
100
AcDbEntity
  8
レイヤ1
100
AcDbVertex
100
AcDb2dVertex
 10
101.0360527128
 20
967.5885981466
  0
SEQEND
  5
7F3
100
AcDbEntity
  8
レイヤ1
  0
POLYLINE
  5
7F4
100
AcDbEntity
  8
レイヤ1
  6
CONTINUOUS
 62
     0
100
AcDb2dPolyline
 66
     1
 10
0
 20
0
 70
     0
  0
VERTEX
  5
7F5
100
AcDbEntity
  8
レイヤ1
100
AcDbVertex
100
AcDb2dVertex
 10
124.9479185215
 20
989.1429560587
  0
VERTEX
  5
7F6
100
AcDbEntity
  8
レイヤ1
100
AcDbVertex
100
AcDb2dVertex
 10
123.3716880349
 20
983.3449252191
  0
VERTEX
  5
7F7
100
AcDbEntity
  8
レイヤ1
100
AcDbVertex
100
AcDb2dVertex
 10
120.5677860341
 20
975.7578962757
  0
VERTEX
  5
7F8
100
AcDbEntity
  8
レイヤ1
100
AcDbVertex
100
AcDb2dVertex
 10
115.7846590915
 20
969.9851568623
  0
VERTEX
  5
7F9
100
AcDbEntity
  8
レイヤ1
100
AcDbVertex
100
AcDb2dVertex
 10
112.4859508553
 20
967.5111256852
  0
VERTEX
  5
7FA
100
AcDbEntity
  8
レイヤ1
100
AcDbVertex
100
AcDb2dVertex
 10
109.6820488545
 20
966.6864486261
  0
VERTEX
  5
7FB
100
AcDbEntity
  8
レイヤ1
100
AcDbVertex
100
AcDb2dVertex
 10
109.4848434708
 20
966.6864486261
  0
SEQEND
  5
7FC
100
AcDbEntity
  8
レイヤ1
  0
POLYLINE
  5
7FD
100
AcDbEntity
  8
レイヤ1
  6
CONTINUOUS
 62
     0
100
AcDb2dPolyline
 66
     1
 10
0
 20
0
 70
     0
  0
VERTEX
  5
7FE
100
AcDbEntity
  8
レイヤ1
100
AcDbVertex
100
AcDb2dVertex
 10
107.3184147985
 20
973.2174419503
  0
VERTEX
  5
7FF
100
AcDbEntity
  8
レイヤ1
100
AcDbVertex
100
AcDb2dVertex
 10
110.5067259136
 20
973.2838650986
  0
VERTEX
  5
800
100
AcDbEntity
  8
レイヤ1
100
AcDbVertex
100
AcDb2dVertex
 10
114.1353049734
 20
975.7578962757
  0
VERTEX
  5
801
100
AcDbEntity
  8
レイヤ1
100
AcDbVertex
100
AcDb2dVertex
 10
116.9392069742
 20
982.3553127482
  0
VERTEX
  5
802
100
AcDbEntity
  8
レイヤ1
100
AcDbVertex
100
AcDb2dVertex
 10
119.5781735632
 20
989.7774062797
  0
VERTEX
  5
803
100
AcDbEntity
  8
レイヤ1
100
AcDbVertex
100
AcDb2dVertex
 10
120.2379152104
 20
996.2098873403
  0
VERTEX
  5
804
100
AcDbEntity
  8
レイヤ1
100
AcDbVertex
100
AcDb2dVertex
 10
119.328433304
 20
998.4078019475
  0
SEQEND
  5
805
100
AcDbEntity
  8
レイヤ1
  0
POLYLINE
  5
806
100
AcDbEntity
  8
レイヤ1
  6
CONTINUOUS
 62
     0
100
AcDb2dPolyline
 66
     1
 10
0
 20
0
 70
     0
  0
VERTEX
  5
807
100
AcDbEntity
  8
レイヤ1
100
AcDbVertex
100
AcDb2dVertex
 10
124.2743448368
 20
1037.977048203
  0
VERTEX
  5
808
100
AcDbEntity
  8
レイヤ1
100
AcDbVertex
100
AcDb2dVertex
 10
125.5158483884
 20
1028.537228055
  0
VERTEX
  5
809
100
AcDbEntity
  8
レイヤ1
100
AcDbVertex
100
AcDb2dVertex
 10
126.3405254475
 20
1020.455392877
  0
VERTEX
  5
80A
100
AcDbEntity
  8
レイヤ1
100
AcDbVertex
100
AcDb2dVertex
 10
126.3405254475
 20
1013.033299345
  0
SEQEND
  5
80B
100
AcDbEntity
  8
レイヤ1
  0
POLYLINE
  5
80C
100
AcDbEntity
  8
レイヤ1
  6
CONTINUOUS
 62
     0
100
AcDb2dPolyline
 66
     1
 10
0
 20
0
 70
     0
  0
VERTEX
  5
80D
100
AcDbEntity
  8
レイヤ1
100
AcDbVertex
100
AcDb2dVertex
 10
126.3405254475
 20
1013.033299345
  0
VERTEX
  5
80E
100
AcDbEntity
  8
レイヤ1
100
AcDbVertex
100
AcDb2dVertex
 10
129.1444274483
 20
1015.012524287
  0
VERTEX
  5
80F
100
AcDbEntity
  8
レイヤ1
100
AcDbVertex
100
AcDb2dVertex
 10
132.9379419199
 20
1015.34239511
  0
VERTEX
  5
810
100
AcDbEntity
  8
レイヤ1
100
AcDbVertex
100
AcDb2dVertex
 10
134.9171668617
 20
1015.507330522
  0
VERTEX
  5
811
100
AcDbEntity
  8
レイヤ1
100
AcDbVertex
100
AcDb2dVertex
 10
134.2574252144
 20
1021.939811583
  0
VERTEX
  5
812
100
AcDbEntity
  8
レイヤ1
100
AcDbVertex
100
AcDb2dVertex
 10
132.1132648609
 20
1024.908648996
  0
VERTEX
  5
813
100
AcDbEntity
  8
レイヤ1
100
AcDbVertex
100
AcDb2dVertex
 10
128.6496212128
 20
1025.898261466
  0
VERTEX
  5
814
100
AcDbEntity
  8
レイヤ1
100
AcDbVertex
100
AcDb2dVertex
 10
125.7963288581
 20
1025.788519453
  0
SEQEND
  5
815
100
AcDbEntity
  8
レイヤ1
  0
POLYLINE
  5
816
100
AcDbEntity
  8
レイヤ1
  6
CONTINUOUS
 62
     0
100
AcDb2dPolyline
 66
     1
 10
0
 20
0
 70
     0
  0
VERTEX
  5
817
100
AcDbEntity
  8
レイヤ1
100
AcDbVertex
100
AcDb2dVertex
 10
119.7192248853
 20
1012.343171471
  0
VERTEX
  5
818
100
AcDbEntity
  8
レイヤ1
100
AcDbVertex
100
AcDb2dVertex
 10
117.1361380534
 20
1017.693851337
  0
VERTEX
  5
819
100
AcDbEntity
  8
レイヤ1
100
AcDbVertex
100
AcDb2dVertex
 10
112.6580965584
 20
1022.643265621
  0
VERTEX
  5
81A
100
AcDbEntity
  8
レイヤ1
100
AcDbVertex
100
AcDb2dVertex
 10
105.8231911186
 20
1026.178561538
  0
VERTEX
  5
81B
100
AcDbEntity
  8
レイヤ1
100
AcDbVertex
100
AcDb2dVertex
 10
100.6380904402
 20
1026.885620721
  0
VERTEX
  5
81C
100
AcDbEntity
  8
レイヤ1
100
AcDbVertex
100
AcDb2dVertex
 10
96.63142173415
 20
1025.707188749
  0
VERTEX
  5
81D
100
AcDbEntity
  8
レイヤ1
100
AcDbVertex
100
AcDb2dVertex
 10
93.567498606
 20
1022.407579226
  0
VERTEX
  5
81E
100
AcDbEntity
  8
レイヤ1
100
AcDbVertex
100
AcDb2dVertex
 10
90.97494826679
 20
1017.693851337
  0
VERTEX
  5
81F
100
AcDbEntity
  8
レイヤ1
100
AcDbVertex
100
AcDb2dVertex
 10
90.97494826679
 20
1009.916200319
  0
VERTEX
  5
820
100
AcDbEntity
  8
レイヤ1
100
AcDbVertex
100
AcDb2dVertex
 10
94.67209577392
 20
1003.300252148
  0
SEQEND
  5
821
100
AcDbEntity
  8
レイヤ1
  0
POLYLINE
  5
822
100
AcDbEntity
  8
レイヤ1
  6
CONTINUOUS
 62
     0
100
AcDb2dPolyline
 66
     1
 10
0
 20
0
 70
     0
  0
VERTEX
  5
823
100
AcDbEntity
  8
レイヤ1
100
AcDbVertex
100
AcDb2dVertex
 10
125.1374902537
 20
1013.087982763
  0
VERTEX
  5
824
100
AcDbEntity
  8
レイヤ1
100
AcDbVertex
100
AcDb2dVertex
 10
121.6141795484
 20
1021.700520043
  0
VERTEX
  5
825
100
AcDbEntity
  8
レイヤ1
100
AcDbVertex
100
AcDb2dVertex
 10
114.7792741086
 20
1028.064052694
  0
VERTEX
  5
826
100
AcDbEntity
  8
レイヤ1
100
AcDbVertex
100
AcDb2dVertex
 10
107.7086822744
 20
1031.599348611
  0
VERTEX
  5
827
100
AcDbEntity
  8
レイヤ1
100
AcDbVertex
100
AcDb2dVertex
 10
100.1667176513
 20
1033.013466978
  0
VERTEX
  5
828
100
AcDbEntity
  8
レイヤ1
100
AcDbVertex
100
AcDb2dVertex
 10
95.92436255073
 20
1032.0707214
  0
VERTEX
  5
829
100
AcDbEntity
  8
レイヤ1
100
AcDbVertex
100
AcDb2dVertex
 10
90.2588737568
 20
1029.557377144
  0
SEQEND
  5
82A
100
AcDbEntity
  8
レイヤ1
  0
POLYLINE
  5
82B
100
AcDbEntity
  8
レイヤ1
  6
CONTINUOUS
 62
     0
100
AcDb2dPolyline
 66
     1
 10
0
 20
0
 70
     0
  0
VERTEX
  5
82C
100
AcDbEntity
  8
レイヤ1
100
AcDbVertex
100
AcDb2dVertex
 10
90.59566059918
 20
997.5626271181
  0
VERTEX
  5
82D
100
AcDbEntity
  8
レイヤ1
100
AcDbVertex
100
AcDb2dVertex
 10
95.68867615626
 20
1004.731099641
  0
VERTEX
  5
82E
100
AcDbEntity
  8
レイヤ1
100
AcDbVertex
100
AcDb2dVertex
 10
99.69534486231
 20
1009.209141136
  0
VERTEX
  5
82F
100
AcDbEntity
  8
レイヤ1
100
AcDbVertex
100
AcDb2dVertex
 10
107.9443686689
 20
1012.980123447
  0
VERTEX
  5
830
100
AcDbEntity
  8
レイヤ1
100
AcDbVertex
100
AcDb2dVertex
 10
114.5435877141
 20
1014.865614603
  0
VERTEX
  5
831
100
AcDbEntity
  8
レイヤ1
100
AcDbVertex
100
AcDb2dVertex
 10
118.6331105446
 20
1014.592979748
  0
SEQEND
  5
832
100
AcDbEntity
  8
レイヤ1
  0
POLYLINE
  5
833
100
AcDbEntity
  8
レイヤ1
  6
CONTINUOUS
 62
     0
100
AcDb2dPolyline
 66
     1
 10
0
 20
0
 70
     0
  0
VERTEX
  5
834
100
AcDbEntity
  8
レイヤ1
100
AcDbVertex
100
AcDb2dVertex
 10
114.9548278009
 20
1009.394411822
  0
VERTEX
  5
835
100
AcDbEntity
  8
レイヤ1
100
AcDbVertex
100
AcDb2dVertex
 10
111.1664675608
 20
1008.744978638
  0
VERTEX
  5
836
100
AcDbEntity
  8
レイヤ1
100
AcDbVertex
100
AcDb2dVertex
 10
104.7339865002
 20
1005.28133499
  0
VERTEX
  5
837
100
AcDbEntity
  8
レイヤ1
100
AcDbVertex
100
AcDb2dVertex
 10
97.31189296868
 20
997.8592414585
  0
VERTEX
  5
838
100
AcDbEntity
  8
レイヤ1
100
AcDbVertex
100
AcDb2dVertex
 10
94.6729263797
 20
989.7774062797
  0
VERTEX
  5
839
100
AcDbEntity
  8
レイヤ1
100
AcDbVertex
100
AcDb2dVertex
 10
95.33266802694
 20
982.1903773364
  0
VERTEX
  5
83A
100
AcDbEntity
  8
レイヤ1
100
AcDbVertex
100
AcDb2dVertex
 10
98.46644085136
 20
975.9228316876
  0
VERTEX
  5
83B
100
AcDbEntity
  8
レイヤ1
100
AcDbVertex
100
AcDb2dVertex
 10
100.4456657931
 20
974.5769587272
  0
SEQEND
  5
83C
100
AcDbEntity
  8
レイヤ1
  0
LINE
  5
83D
100
AcDbEntity
  8
レイヤ1
  6
CONTINUOUS
 62
     0
100
AcDbLine
 10
110.7678306298
 20
1004.697285533
 11
107.0571193219
 21
1006.532252663
  0
POLYLINE
  5
83E
100
AcDbEntity
  8
レイヤ1
  6
CONTINUOUS
 62
     0
100
AcDb2dPolyline
 66
     1
 10
0
 20
0
 70
     0
  0
VERTEX
  5
83F
100
AcDbEntity
  8
レイヤ1
100
AcDbVertex
100
AcDb2dVertex
 10
101.6307393271
 20
1010.093892891
  0
VERTEX
  5
840
100
AcDbEntity
  8
レイヤ1
100
AcDbVertex
100
AcDb2dVertex
 10
98.79631167498
 20
1013.033299345
  0
VERTEX
  5
841
100
AcDbEntity
  8
レイヤ1
100
AcDbVertex
100
AcDb2dVertex
 10
94.51024418389
 20
1018.872283309
  0
VERTEX
  5
842
100
AcDbEntity
  8
レイヤ1
100
AcDbVertex
100
AcDb2dVertex
 10
93.567498606
 20
1022.407579226
  0
SEQEND
  5
843
100
AcDbEntity
  8
レイヤ1
  0
POLYLINE
  5
844
100
AcDbEntity
  8
レイヤ1
  6
CONTINUOUS
 62
     0
100
AcDb2dPolyline
 66
     1
 10
0
 20
0
 70
     0
  0
VERTEX
  5
845
100
AcDbEntity
  8
レイヤ1
100
AcDbVertex
100
AcDb2dVertex
 10
97.34488005104
 20
998.090151035
  0
VERTEX
  5
846
100
AcDbEntity
  8
レイヤ1
100
AcDbVertex
100
AcDb2dVertex
 10
102.4248907348
 20
997.364435223
  0
VERTEX
  5
847
100
AcDbEntity
  8
レイヤ1
100
AcDbVertex
100
AcDb2dVertex
 10
106.392676585
 20
998.2871761184
  0
SEQEND
  5
848
100
AcDbEntity
  8
レイヤ1
  0
POLYLINE
  5
849
100
AcDbEntity
  8
レイヤ1
  6
CONTINUOUS
 62
     0
100
AcDb2dPolyline
 66
     1
 10
0
 20
0
 70
     0
  0
VERTEX
  5
84A
100
AcDbEntity
  8
レイヤ1
100
AcDbVertex
100
AcDb2dVertex
 10
102.9431024389
 20
991.2456118228
  0
VERTEX
  5
84B
100
AcDbEntity
  8
レイヤ1
100
AcDbVertex
100
AcDb2dVertex
 10
98.79631167498
 20
990.1072771033
  0
VERTEX
  5
84C
100
AcDbEntity
  8
レイヤ1
100
AcDbVertex
100
AcDb2dVertex
 10
94.78063930169
 20
990.1072771033
  0
SEQEND
  5
84D
100
AcDbEntity
  8
レイヤ1
  0
POLYLINE
  5
84E
100
AcDbEntity
  8
レイヤ1
  6
CONTINUOUS
 62
     0
100
AcDb2dPolyline
 66
     1
 10
0
 20
0
 70
     0
  0
VERTEX
  5
84F
100
AcDbEntity
  8
レイヤ1
100
AcDbVertex
100
AcDb2dVertex
 10
134.9171668617
 20
1015.507330522
  0
VERTEX
  5
850
100
AcDbEntity
  8
レイヤ1
100
AcDbVertex
100
AcDb2dVertex
 10
139.5353583924
 20
1016.002136758
  0
VERTEX
  5
851
100
AcDbEntity
  8
レイヤ1
100
AcDbVertex
100
AcDb2dVertex
 10
143.8079816946
 20
1014.738756079
  0
SEQEND
  5
852
100
AcDbEntity
  8
レイヤ1
  0
POLYLINE
  5
853
100
AcDbEntity
  8
レイヤ1
  6
CONTINUOUS
 62
     0
100
AcDb2dPolyline
 66
     1
 10
0
 20
0
 70
     0
  0
VERTEX
  5
854
100
AcDbEntity
  8
レイヤ1
100
AcDbVertex
100
AcDb2dVertex
 10
117.1229680634
 20
1037.388949143
  0
VERTEX
  5
855
100
AcDbEntity
  8
レイヤ1
100
AcDbVertex
100
AcDb2dVertex
 10
113.3106279144
 20
1035.959321587
  0
VERTEX
  5
856
100
AcDbEntity
  8
レイヤ1
100
AcDbVertex
100
AcDb2dVertex
 10
110.3417905018
 20
1033.980096645
  0
VERTEX
  5
857
100
AcDbEntity
  8
レイヤ1
100
AcDbVertex
100
AcDb2dVertex
 10
107.6225109533
 20
1031.615505733
  0
SEQEND
  5
858
100
AcDbEntity
  8
レイヤ1
  0
POLYLINE
  5
859
100
AcDbEntity
  8
レイヤ1
  6
CONTINUOUS
 62
     0
100
AcDb2dPolyline
 66
     1
 10
0
 20
0
 70
     0
  0
VERTEX
  5
85A
100
AcDbEntity
  8
レイヤ1
100
AcDbVertex
100
AcDb2dVertex
 10
103.4730194718
 20
1026.49903949
  0
VERTEX
  5
85B
100
AcDbEntity
  8
レイヤ1
100
AcDbVertex
100
AcDb2dVertex
 10
102.4248907348
 20
1025.073584407
  0
VERTEX
  5
85C
100
AcDbEntity
  8
レイヤ1
100
AcDbVertex
100
AcDb2dVertex
 10
101.4966196525
 20
1021.244466193
  0
SEQEND
  5
85D
100
AcDbEntity
  8
レイヤ1
  0
POLYLINE
  5
85E
100
AcDbEntity
  8
レイヤ1
  6
CONTINUOUS
 62
     0
100
AcDb2dPolyline
 66
     1
 10
0
 20
0
 70
     0
  0
VERTEX
  5
85F
100
AcDbEntity
  8
レイヤ1
100
AcDbVertex
100
AcDb2dVertex
 10
96.3452614542
 20
1032.164254489
  0
VERTEX
  5
860
100
AcDbEntity
  8
レイヤ1
100
AcDbVertex
100
AcDb2dVertex
 10
95.16773261513
 20
1034.804773704
  0
VERTEX
  5
861
100
AcDbEntity
  8
レイヤ1
100
AcDbVertex
100
AcDb2dVertex
 10
93.84824932064
 20
1044.041156766
  0
VERTEX
  5
862
100
AcDbEntity
  8
レイヤ1
100
AcDbVertex
100
AcDb2dVertex
 10
94.01318473245
 20
1049.978831591
  0
VERTEX
  5
863
100
AcDbEntity
  8
レイヤ1
100
AcDbVertex
100
AcDb2dVertex
 10
96.48721590962
 20
1053.607410651
  0
VERTEX
  5
864
100
AcDbEntity
  8
レイヤ1
100
AcDbVertex
100
AcDb2dVertex
 10
100.9404720285
 20
1055.091829357
  0
VERTEX
  5
865
100
AcDbEntity
  8
レイヤ1
100
AcDbVertex
100
AcDb2dVertex
 10
105.8885343829
 20
1054.597023122
  0
VERTEX
  5
866
100
AcDbEntity
  8
レイヤ1
100
AcDbVertex
100
AcDb2dVertex
 10
110.8365967372
 20
1049.978831591
  0
VERTEX
  5
867
100
AcDbEntity
  8
レイヤ1
100
AcDbVertex
100
AcDb2dVertex
 10
115.6197236797
 20
1041.237254765
  0
VERTEX
  5
868
100
AcDbEntity
  8
レイヤ1
100
AcDbVertex
100
AcDb2dVertex
 10
119.743108975
 20
1030.681388409
  0
VERTEX
  5
869
100
AcDbEntity
  8
レイヤ1
100
AcDbVertex
100
AcDb2dVertex
 10
120.4741348966
 20
1022.761940926
  0
SEQEND
  5
86A
100
AcDbEntity
  8
レイヤ1
  0
POLYLINE
  5
86B
100
AcDbEntity
  8
レイヤ1
  6
CONTINUOUS
 62
     0
100
AcDb2dPolyline
 66
     1
 10
0
 20
0
 70
     0
  0
VERTEX
  5
86C
100
AcDbEntity
  8
レイヤ1
100
AcDbVertex
100
AcDb2dVertex
 10
109.4895104668
 20
1013.421592532
  0
VERTEX
  5
86D
100
AcDbEntity
  8
レイヤ1
100
AcDbVertex
100
AcDb2dVertex
 10
103.4145032057
 20
1018.311232523
  0
VERTEX
  5
86E
100
AcDbEntity
  8
レイヤ1
100
AcDbVertex
100
AcDb2dVertex
 10
100.6106012049
 20
1022.59955323
  0
VERTEX
  5
86F
100
AcDbEntity
  8
レイヤ1
100
AcDbVertex
100
AcDb2dVertex
 10
98.92405999712
 20
1026.38149412
  0
SEQEND
  5
870
100
AcDbEntity
  8
レイヤ1
  0
LINE
  5
871
100
AcDbEntity
  8
レイヤ1
  6
CONTINUOUS
 62
     0
100
AcDbLine
 10
98.78443234077
 20
1013.033994935
 11
98.48099876183
 21
1007.851930788
  0
LINE
  5
872
100
AcDbEntity
  8
レイヤ1
  6
CONTINUOUS
 62
     0
100
AcDbLine
 10
98.81044899599
 20
999.3577974858
 11
98.95079868966
 21
997.8607340866
  0
LINE
  5
873
100
AcDbEntity
  8
レイヤ1
  6
CONTINUOUS
 62
     0
100
AcDbLine
 10
100.0817129212
 20
990.4601323474
 11
101.1371597121
 21
985.4264630366
  0
LINE
  5
874
100
AcDbEntity
  8
レイヤ1
  6
CONTINUOUS
 62
     0
100
AcDbLine
 10
107.3001568797
 20
973.6921478393
 11
107.6834197467
 21
973.2250462201
  0
POLYLINE
  5
875
100
AcDbEntity
  8
レイヤ1
  6
CONTINUOUS
 62
     0
100
AcDb2dPolyline
 66
     1
 10
0
 20
0
 70
     0
  0
VERTEX
  5
876
100
AcDbEntity
  8
レイヤ1
100
AcDbVertex
100
AcDb2dVertex
 10
112.3939637909
 20
967.4840706662
  0
VERTEX
  5
877
100
AcDbEntity
  8
レイヤ1
100
AcDbVertex
100
AcDb2dVertex
 10
115.6197236797
 20
963.5526758017
  0
VERTEX
  5
878
100
AcDbEntity
  8
レイヤ1
100
AcDbVertex
100
AcDb2dVertex
 10
117.9288194451
 20
962.7279987427
  0
VERTEX
  5
879
100
AcDbEntity
  8
レイヤ1
100
AcDbVertex
100
AcDb2dVertex
 10
121.3270528102
 20
962.5281026624
  0
SEQEND
  5
87A
100
AcDbEntity
  8
レイヤ1
  0
POLYLINE
  5
87B
100
AcDbEntity
  8
レイヤ1
  6
CONTINUOUS
 62
     0
100
AcDb2dPolyline
 66
     1
 10
0
 20
0
 70
     0
  0
VERTEX
  5
87C
100
AcDbEntity
  8
レイヤ1
100
AcDbVertex
100
AcDb2dVertex
 10
127.3856290938
 20
961.8635438014
  0
VERTEX
  5
87D
100
AcDbEntity
  8
レイヤ1
100
AcDbVertex
100
AcDb2dVertex
 10
129.4742982719
 20
961.57345086
  0
VERTEX
  5
87E
100
AcDbEntity
  8
レイヤ1
100
AcDbVertex
100
AcDb2dVertex
 10
130.3345761439
 20
959.0079391129
  0
VERTEX
  5
87F
100
AcDbEntity
  8
レイヤ1
100
AcDbVertex
100
AcDb2dVertex
 10
133.398499272
 20
956.1797023792
  0
VERTEX
  5
880
100
AcDbEntity
  8
レイヤ1
100
AcDbVertex
100
AcDb2dVertex
 10
135.5131602028
 20
955.7370989285
  0
SEQEND
  5
881
100
AcDbEntity
  8
レイヤ1
  0
POLYLINE
  5
882
100
AcDbEntity
  8
レイヤ1
  6
CONTINUOUS
 62
     0
100
AcDb2dPolyline
 66
     1
 10
0
 20
0
 70
     0
  0
VERTEX
  5
883
100
AcDbEntity
  8
レイヤ1
100
AcDbVertex
100
AcDb2dVertex
 10
142.3720276754
 20
954.3015220157
  0
VERTEX
  5
884
100
AcDbEntity
  8
レイヤ1
100
AcDbVertex
100
AcDb2dVertex
 10
143.5330142344
 20
954.0585248289
  0
VERTEX
  5
885
100
AcDbEntity
  8
レイヤ1
100
AcDbVertex
100
AcDb2dVertex
 10
147.8494238031
 20
954.9968747352
  0
SEQEND
  5
886
100
AcDbEntity
  8
レイヤ1
  0
POLYLINE
  5
887
100
AcDbEntity
  8
レイヤ1
  6
CONTINUOUS
 62
     0
100
AcDb2dPolyline
 66
     1
 10
0
 20
0
 70
     0
  0
VERTEX
  5
888
100
AcDbEntity
  8
レイヤ1
100
AcDbVertex
100
AcDb2dVertex
 10
-124.1293884952
 20
978.6636161947
  0
VERTEX
  5
889
100
AcDbEntity
  8
レイヤ1
100
AcDbVertex
100
AcDb2dVertex
 10
-75.10346584988
 20
975.3346955213
  0
VERTEX
  5
88A
100
AcDbEntity
  8
レイヤ1
100
AcDbVertex
100
AcDb2dVertex
 10
-44.45586319365
 20
976.3450560484
  0
VERTEX
  5
88B
100
AcDbEntity
  8
レイヤ1
100
AcDbVertex
100
AcDb2dVertex
 10
-30.14298970929
 20
976.8169090204
  0
SEQEND
  5
88C
100
AcDbEntity
  8
レイヤ1
  0
ENDSEC
  0
SECTION
  2
OBJECTS
  0
DICTIONARY
  5
88D
100
AcDbDictionary
  3
ACAD_GROUP
350
88E
  3
ACAD_MLINESTYLE
350
88F
  0
DICTIONARY
  5
88E
100
AcDbDictionary
  0
DICTIONARY
  5
88F
100
AcDbDictionary
  3
STANDARD
350
890
  0
MLINESTYLE
  5
890
100
AcDbMlineStyle
  2
STANDARD
 70
     0
  3

 62
   256
 51
90
 52
90
 71
     0
  0
ENDSEC
  0
EOF
