  0
SECTION
  2
HEADER
  9
$ACADVER
  1
AC1014
  9
$DWGCODEPAGE
  3
dos932
  9
$EXTMIN
 10
-537.1511243669
 20
-12.65766052918
  9
$EXTMAX
 10
428.6272480265
 20
1567.930729868
  9
$LIMMIN
 10
0
 20
0
  9
$LIMMAX
 10
8410
 20
5940
  9
$LTSCALE
 40
10
  9
$DIMSCALE
 40
10
  9
$DIMSTYLE
  2
M7DIMSTL
  9
$HANDSEED
  5
7FFFFFFF
  0
ENDSEC
  0
SECTION
  2
CLASSES
  0
CLASS
  1
CSOFTARXCLASS
  2
CSoftArxClass
  3
CSRasterApi
 90
     0
280
     0
281
     0
  0
CLASS
  1
IMAGEDEF
  2
AcDbRasterImageDef
  3
ISM
 90
     0
280
     0
281
     0
  0
CLASS
  1
RASTERVARIABLES
  2
AcDbRasterVariables
  3
ISM
 90
     0
280
     0
281
     0
  0
CLASS
  1
IMAGE
  2
AcDbRasterImage
  3
ISM
 90
   127
280
     0
281
     0
  0
CLASS
  1
IMAGEDEF_REACTOR
  2
AcDbRasterImageDefReactor
  3
ISM
 90
     1
280
     0
281
     0
  0
CLASS
  1
HATCH
  2
AcDbHatch
  3
M7
 90
     0
280
     0
281
     1
  0
ENDSEC
  0
SECTION
  2
TABLES
  0
TABLE
  2
VPORT
  5
FF
100
AcDbSymbolTable
 70
     5
  0
VPORT
  5
100
100
AcDbSymbolTableRecord
100
AcDbViewportTableRecord
  2
*ACTIVE
 70
     0
 10
0
 20
0
 11
1
 21
1
 12
4205
 22
2970
 13
0
 23
0
 14
0
 24
0
 15
0
 25
0
 16
0
 26
0
 36
1
 17
0
 27
0
 37
0
 40
2970
 41
1.415824915825
 42
50
 43
0
 44
0
 50
0
 51
0
 71
     0
 72
   100
 73
     1
 74
     3
 75
     0
 76
     0
 77
     0
 78
     0
  0
ENDTAB
  0
TABLE
  2
LTYPE
  5
101
100
AcDbSymbolTable
 70
     1
  0
LTYPE
  5
102
100
AcDbSymbolTableRecord
100
AcDbLinetypeTableRecord
  2
BYBLOCK
 70
     0
  3

 72
    65
 73
     0
 40
0
  0
LTYPE
  5
103
100
AcDbSymbolTableRecord
100
AcDbLinetypeTableRecord
  2
BYLAYER
 70
     0
  3

 72
    65
 73
     0
 40
0
  0
LTYPE
  5
104
100
AcDbSymbolTableRecord
100
AcDbLinetypeTableRecord
  2
CONTINUOUS
 70
     0
  3
Solid line
 72
    65
 73
     0
 40
0
  0
LTYPE
  5
105
100
AcDbSymbolTableRecord
100
AcDbLinetypeTableRecord
  2
DOT
 70
     0
  3
...............................
 72
    65
 73
     2
 40
2
 49
1
 74
     0
 49
-1
 74
     0
  0
LTYPE
  5
106
100
AcDbSymbolTableRecord
100
AcDbLinetypeTableRecord
  2
DASHED
 70
     0
  3
- - - - - - - - - - - - - - - -
 72
    65
 73
     2
 40
4
 49
2
 74
     0
 49
-2
 74
     0
  0
LTYPE
  5
107
100
AcDbSymbolTableRecord
100
AcDbLinetypeTableRecord
  2
DASHED2
 70
     0
  3
-- -- -- -- -- -- -- -- -- -- -
 72
    65
 73
     2
 40
8
 49
5
 74
     0
 49
-3
 74
     0
  0
LTYPE
  5
108
100
AcDbSymbolTableRecord
100
AcDbLinetypeTableRecord
  2
CENTER
 70
     0
  3
--------- - --------- - -------
 72
    65
 73
     4
 40
23
 49
20
 74
     0
 49
-1
 74
     0
 49
1
 74
     0
 49
-1
 74
     0
  0
LTYPE
  5
109
100
AcDbSymbolTableRecord
100
AcDbLinetypeTableRecord
  2
CENTERX2
 70
     0
  3
-------------- - --------------
 72
    65
 73
     4
 40
43
 49
40
 74
     0
 49
-1
 74
     0
 49
1
 74
     0
 49
-1
 74
     0
  0
LTYPE
  5
10A
100
AcDbSymbolTableRecord
100
AcDbLinetypeTableRecord
  2
CENTER2
 70
     0
  3
------ - ----- - ------ - -----
 72
    65
 73
     4
 40
13
 49
10
 74
     0
 49
-1
 74
     0
 49
1
 74
     0
 49
-1
 74
     0
  0
LTYPE
  5
10B
100
AcDbSymbolTableRecord
100
AcDbLinetypeTableRecord
  2
PHANTOM
 70
     0
  3
-------- - - ------- - - ------
 72
    65
 73
     6
 40
25
 49
20
 74
     0
 49
-1
 74
     0
 49
1
 74
     0
 49
-1
 74
     0
 49
1
 74
     0
 49
-1
 74
     0
  0
LTYPE
  5
10C
100
AcDbSymbolTableRecord
100
AcDbLinetypeTableRecord
  2
PHANTOMX2
 70
     0
  3
------------- - - -------------
 72
    65
 73
     6
 40
45
 49
40
 74
     0
 49
-1
 74
     0
 49
1
 74
     0
 49
-1
 74
     0
 49
1
 74
     0
 49
-1
 74
     0
  0
LTYPE
  5
10D
100
AcDbSymbolTableRecord
100
AcDbLinetypeTableRecord
  2
PHANTOM2
 70
     0
  3
---- - - ---- - - ---- - - ----
 72
    65
 73
     6
 40
15
 49
10
 74
     0
 49
-1
 74
     0
 49
1
 74
     0
 49
-1
 74
     0
 49
1
 74
     0
 49
-1
 74
     0
  0
LTYPE
  5
10E
100
AcDbSymbolTableRecord
100
AcDbLinetypeTableRecord
  2
ACAD_ISO06W100
 70
     0
  3
------------ - - - ------------
 72
    65
 73
     8
 40
47
 49
40
 74
     0
 49
-1
 74
     0
 49
1
 74
     0
 49
-1
 74
     0
 49
1
 74
     0
 49
-1
 74
     0
 49
1
 74
     0
 49
-1
 74
     0
  0
LTYPE
  5
10F
100
AcDbSymbolTableRecord
100
AcDbLinetypeTableRecord
  2
ACAD_ISO14W100
 70
     0
  3
---- - - - -------- - - - -----
 72
    65
 73
     8
 40
27
 49
20
 74
     0
 49
-1
 74
     0
 49
1
 74
     0
 49
-1
 74
     0
 49
1
 74
     0
 49
-1
 74
     0
 49
1
 74
     0
 49
-1
 74
     0
  0
LTYPE
  5
110
100
AcDbSymbolTableRecord
100
AcDbLinetypeTableRecord
  2
ACAD_ISO11W100
 70
     0
  3
------- ------ - ------- ------
 72
    65
 73
     6
 40
44
 49
20
 74
     0
 49
-1
 74
     0
 49
20
 74
     0
 49
-1
 74
     0
 49
1
 74
     0
 49
-1
 74
     0
  0
LTYPE
  5
111
100
AcDbSymbolTableRecord
100
AcDbLinetypeTableRecord
  2
ACAD_ISO13W100
 70
     0
  3
------ ------ - - ------ ------
 72
    65
 73
     8
 40
46
 49
20
 74
     0
 49
-1
 74
     0
 49
20
 74
     0
 49
-1
 74
     0
 49
1
 74
     0
 49
-1
 74
     0
 49
1
 74
     0
 49
-1
 74
     0
  0
LTYPE
  5
112
100
AcDbSymbolTableRecord
100
AcDbLinetypeTableRecord
  2
ACAD_ISO15W100
 70
     0
  3
------ ----- - - - ------ -----
 72
    65
 73
    10
 40
48
 49
20
 74
     0
 49
-1
 74
     0
 49
20
 74
     0
 49
-1
 74
     0
 49
1
 74
     0
 49
-1
 74
     0
 49
1
 74
     0
 49
-1
 74
     0
 49
1
 74
     0
 49
-1
 74
     0
  0
LTYPE
  5
113
100
AcDbSymbolTableRecord
100
AcDbLinetypeTableRecord
  2
HIDDEN
 70
     0
  3
. . . . . . . . . . . . . . . .
 72
    65
 73
     2
 40
1.5
 49
1
 74
     0
 49
-0.5
 74
     0
  0
ENDTAB
  0
TABLE
  2
LAYER
  5
114
100
AcDbSymbolTable
 70
     1
  0
LAYER
  5
115
100
AcDbSymbolTableRecord
100
AcDbLayerTableRecord
  2
0
 70
     0
 62
     7
  6
CONTINUOUS
  0
LAYER
  5
116
100
AcDbSymbolTableRecord
100
AcDbLayerTableRecord
  2
レイヤ1
 70
     0
 62
     7
  6
CONTINUOUS
  0
ENDTAB
  0
TABLE
  2
STYLE
  5
117
100
AcDbSymbolTable
 70
     1
  0
STYLE
  5
118
100
AcDbSymbolTableRecord
100
AcDbTextStyleTableRecord
  2
STANDARD
 70
     0
 40
0
 41
0
 50
0
 71
     0
 42
1
  3
txt
  4
bigfont
  0
STYLE
  5
119
100
AcDbSymbolTableRecord
100
AcDbTextStyleTableRecord
  2
VSTANDARD
 70
     4
 40
0
 41
0
 50
0
 71
     0
 42
1
  3
txt
  4
bigfont
  0
ENDTAB
  0
TABLE
  2
VIEW
  5
11A
100
AcDbSymbolTable
 70
     0
  0
ENDTAB
  0
TABLE
  2
UCS
  5
11B
100
AcDbSymbolTable
 70
     0
  0
ENDTAB
  0
TABLE
  2
APPID
  5
11C
100
AcDbSymbolTable
 70
     1
  0
APPID
  5
11D
100
AcDbSymbolTableRecord
100
AcDbRegAppTableRecord
  2
ACAD
 70
     0
  0
ENDTAB
  0
TABLE
  2
DIMSTYLE
  5
11E
100
AcDbSymbolTable
 70
     1
  0
DIMSTYLE
105
11F
100
AcDbSymbolTableRecord
100
AcDbDimStyleTableRecord
  2
M7DIMSTL
 70
     0
  3

  4

  5

  6

  7

 40
10
 41
2.5
 42
0.625
 43
3.75
 44
1.25
 45
0
 46
0
 47
0
 48
0
140
2.5
141
2.5
142
0
143
0.03937007874016
144
1
145
0
146
1
147
0.625
 71
     0
 72
     0
 73
     0
 74
     0
 75
     0
 76
     0
 77
     1
 78
     8
170
     0
171
     3
172
     1
173
     0
174
     0
175
     0
176
     0
177
     0
178
     0
270
     2
271
     2
272
     2
273
     2
274
     3
340
118
275
     0
280
     0
281
     0
282
     0
283
     0
284
     8
285
     0
286
     0
287
     3
288
     0
  0
ENDTAB
  0
TABLE
  2
BLOCK_RECORD
  5
120
100
AcDbSymbolTable
 70
     2
  0
BLOCK_RECORD
  5
121
100
AcDbSymbolTableRecord
100
AcDbBlockTableRecord
  2
*MODEL_SPACE
  0
BLOCK_RECORD
  5
122
100
AcDbSymbolTableRecord
100
AcDbBlockTableRecord
  2
*PAPER_SPACE
  0
BLOCK_RECORD
  5
123
100
AcDbSymbolTableRecord
100
AcDbBlockTableRecord
  2
_DOT
  0
BLOCK_RECORD
  5
124
100
AcDbSymbolTableRecord
100
AcDbBlockTableRecord
  2
_OPEN30
  0
ENDTAB
  0
ENDSEC
  0
SECTION
  2
BLOCKS
  0
BLOCK
  5
125
100
AcDbEntity
  8
0
100
AcDbBlockBegin
  2
*MODEL_SPACE
 70
     0
 10
0
 20
0
  3
*MODEL_SPACE
  1

  0
ENDBLK
  5
126
100
AcDbEntity
  8
0
100
AcDbBlockEnd
  0
BLOCK
  5
127
100
AcDbEntity
 67
     1
  8
0
100
AcDbBlockBegin
  2
*PAPER_SPACE
 70
     0
 10
0
 20
0
  3
*PAPER_SPACE
  1

  0
ENDBLK
  5
128
100
AcDbEntity
 67
     1
  8
0
100
AcDbBlockEnd
  0
BLOCK
  5
129
100
AcDbEntity
 67
     1
  8
0
100
AcDbBlockBegin
  2
_DOT
 70
     0
 10
0
 20
0
  3
_DOT
  1

  0
LWPOLYLINE
  5
12A
100
AcDbEntity
  8
0
  6
BYBLOCK
 62
     0
100
AcDbPolyline
 90
     2
 70
     1
 43
0.5
 10
-0.25
 20
0
 42
1
 10
0.25
 20
0
 42
1
  0
LINE
  5
12B
100
AcDbEntity
  8
0
  6
BYBLOCK
 62
     0
100
AcDbLine
 10
-0.5
 20
0
 11
-1
 21
0
  0
ENDBLK
  5
12C
100
AcDbEntity
  8
0
100
AcDbBlockEnd
  0
BLOCK
  5
12D
100
AcDbEntity
 67
     1
  8
0
100
AcDbBlockBegin
  2
_OPEN30
 70
     0
 10
0
 20
0
  3
_OPEN30
  1

  0
LINE
  5
12E
100
AcDbEntity
  8
0
  6
BYBLOCK
 62
     0
100
AcDbLine
 10
-1
 20
0.26794919
 11
0
 21
0
  0
LINE
  5
12F
100
AcDbEntity
  8
0
  6
BYBLOCK
 62
     0
100
AcDbLine
 10
-1
 20
-0.26794919
 11
0
 21
0
  0
LINE
  5
130
100
AcDbEntity
  8
0
  6
BYBLOCK
 62
     0
100
AcDbLine
 10
0
 20
0
 11
-1
 21
0
  0
ENDBLK
  5
131
100
AcDbEntity
  8
0
100
AcDbBlockEnd
  0
ENDSEC
  0
SECTION
  2
ENTITIES
  0
LINE
  5
132
100
AcDbEntity
  8
レイヤ1
  6
CONTINUOUS
 62
     0
100
AcDbLine
 10
-33.28837549566
 20
1562.141447173
 11
-45.34938111003
 21
1567.930729868
  0
LINE
  5
133
100
AcDbEntity
  8
レイヤ1
  6
CONTINUOUS
 62
     0
100
AcDbLine
 10
-45.34938111003
 20
1567.930729868
 11
-69.95383256335
 21
1556.834604703
  0
LINE
  5
134
100
AcDbEntity
  8
レイヤ1
  6
CONTINUOUS
 62
     0
100
AcDbLine
 10
-69.95383256335
 20
1556.834604703
 11
-97.45292536411
 21
1535.124794597
  0
LINE
  5
135
100
AcDbEntity
  8
レイヤ1
  6
CONTINUOUS
 62
     0
100
AcDbLine
 10
-97.45292536411
 20
1535.124794597
 11
-106.1368494065
 21
1523.063788983
  0
LINE
  5
136
100
AcDbEntity
  8
レイヤ1
  6
CONTINUOUS
 62
     0
100
AcDbLine
 10
-106.1368494065
 20
1523.063788983
 11
-107.1017298556
 21
1515.34474539
  0
LINE
  5
137
100
AcDbEntity
  8
レイヤ1
  6
CONTINUOUS
 62
     0
100
AcDbLine
 10
-107.1017298556
 20
1515.34474539
 11
-116.7505343471
 21
1500.389098428
  0
LINE
  5
138
100
AcDbEntity
  8
レイヤ1
  6
CONTINUOUS
 62
     0
100
AcDbLine
 10
-116.7505343471
 20
1500.389098428
 11
-120.6100561437
 21
1469.995364279
  0
LINE
  5
139
100
AcDbEntity
  8
レイヤ1
  6
CONTINUOUS
 62
     0
100
AcDbLine
 10
-120.6100561437
 20
1469.995364279
 11
-119.6451756946
 21
1437.189429008
  0
LINE
  5
13A
100
AcDbEntity
  8
レイヤ1
  6
CONTINUOUS
 62
     0
100
AcDbLine
 10
-119.6451756946
 20
1437.189429008
 11
-115.785653898
 21
1428.505504966
  0
LINE
  5
13B
100
AcDbEntity
  8
レイヤ1
  6
CONTINUOUS
 62
     0
100
AcDbLine
 10
-115.785653898
 20
1428.505504966
 11
-112.8910125505
 21
1457.934358665
  0
LINE
  5
13C
100
AcDbEntity
  8
レイヤ1
  6
CONTINUOUS
 62
     0
100
AcDbLine
 10
-112.8910125505
 20
1457.934358665
 11
-109.0314907539
 21
1469.512924055
  0
LINE
  5
13D
100
AcDbEntity
  8
レイヤ1
  6
CONTINUOUS
 62
     0
100
AcDbLine
 10
-109.0314907539
 20
1469.512924055
 11
-95.04072424124
 21
1496.529576631
  0
LINE
  5
13E
100
AcDbEntity
  8
レイヤ1
  6
CONTINUOUS
 62
     0
100
AcDbLine
 10
-95.04072424124
 20
1496.529576631
 11
-82.49727840229
 21
1506.178381123
  0
LINE
  5
13F
100
AcDbEntity
  8
レイヤ1
  6
CONTINUOUS
 62
     0
100
AcDbLine
 10
-82.49727840229
 20
1506.178381123
 11
-75.74311525825
 21
1514.862305165
  0
LINE
  5
140
100
AcDbEntity
  8
レイヤ1
  6
CONTINUOUS
 62
     0
100
AcDbLine
 10
-75.74311525825
 20
1514.862305165
 11
-41.00741908886
 21
1489.292973262
  0
LINE
  5
141
100
AcDbEntity
  8
レイヤ1
  6
CONTINUOUS
 62
     0
100
AcDbLine
 10
-41.00741908886
 20
1489.292973262
 11
-21.70981010587
 21
1467.100722932
  0
LINE
  5
142
100
AcDbEntity
  8
レイヤ1
  6
CONTINUOUS
 62
     0
100
AcDbLine
 10
-21.70981010587
 20
1467.100722932
 11
18.33272853384
 21
1441.048950805
  0
LINE
  5
143
100
AcDbEntity
  8
レイヤ1
  6
CONTINUOUS
 62
     0
100
AcDbLine
 10
18.33272853384
 20
1441.048950805
 11
-19.78004920757
 21
1467.583163157
  0
LINE
  5
144
100
AcDbEntity
  8
レイヤ1
  6
CONTINUOUS
 62
     0
100
AcDbLine
 10
-19.78004920757
 20
1467.583163157
 11
-26.53421235162
 21
1478.679288322
  0
LINE
  5
145
100
AcDbEntity
  8
レイヤ1
  6
CONTINUOUS
 62
     0
100
AcDbLine
 10
-26.53421235162
 20
1478.679288322
 11
0
 21
1460.346559788
  0
LINE
  5
146
100
AcDbEntity
  8
レイヤ1
  6
CONTINUOUS
 62
     0
100
AcDbLine
 10
0
 20
1460.346559788
 11
25.08689167789
 21
1451.180195521
  0
LINE
  5
147
100
AcDbEntity
  8
レイヤ1
  6
CONTINUOUS
 62
     0
100
AcDbLine
 10
25.08689167789
 20
1451.180195521
 11
37.14789729226
 21
1448.285554174
  0
LINE
  5
148
100
AcDbEntity
  8
レイヤ1
  6
CONTINUOUS
 62
     0
100
AcDbLine
 10
37.14789729226
 20
1448.285554174
 11
37.14789729226
 21
1433.812347436
  0
LINE
  5
149
100
AcDbEntity
  8
レイヤ1
  6
CONTINUOUS
 62
     0
100
AcDbLine
 10
37.14789729226
 20
1433.812347436
 11
31.84105482194
 21
1413.549858004
  0
LINE
  5
14A
100
AcDbEntity
  8
レイヤ1
  6
CONTINUOUS
 62
     0
100
AcDbLine
 10
31.84105482194
 20
1413.549858004
 11
24.12201122874
 21
1387.015645653
  0
LINE
  5
14B
100
AcDbEntity
  8
レイヤ1
  6
CONTINUOUS
 62
     0
100
AcDbLine
 10
24.12201122874
 20
1387.015645653
 11
32.32349504651
 21
1408.725455758
  0
LINE
  5
14C
100
AcDbEntity
  8
レイヤ1
  6
CONTINUOUS
 62
     0
100
AcDbLine
 10
32.32349504651
 20
1408.725455758
 11
34.73569616939
 21
1408.725455758
  0
LINE
  5
14D
100
AcDbEntity
  8
レイヤ1
  6
CONTINUOUS
 62
     0
100
AcDbLine
 10
34.73569616939
 20
1408.725455758
 11
41.97229953801
 21
1412.102537331
  0
LINE
  5
14E
100
AcDbEntity
  8
レイヤ1
  6
CONTINUOUS
 62
     0
100
AcDbLine
 10
41.97229953801
 20
1412.102537331
 11
48.54492775904
 21
1417.395615288
  0
LINE
  5
14F
100
AcDbEntity
  8
レイヤ1
  6
CONTINUOUS
 62
     0
100
AcDbLine
 10
48.54492775904
 20
1417.395615288
 11
49.70768051974
 21
1421.17456176
  0
LINE
  5
150
100
AcDbEntity
  8
レイヤ1
  6
CONTINUOUS
 62
     0
100
AcDbLine
 10
49.70768051974
 20
1421.17456176
 11
48.25423956887
 21
1424.953508232
  0
LINE
  5
151
100
AcDbEntity
  8
レイヤ1
  6
CONTINUOUS
 62
     0
100
AcDbLine
 10
48.25423956887
 20
1424.953508232
 11
54.94006794287
 21
1435.999659459
  0
LINE
  5
152
100
AcDbEntity
  8
レイヤ1
  6
CONTINUOUS
 62
     0
100
AcDbLine
 10
54.94006794287
 20
1435.999659459
 11
59.59107898565
 21
1451.115445348
  0
LINE
  5
153
100
AcDbEntity
  8
レイヤ1
  6
CONTINUOUS
 62
     0
100
AcDbLine
 10
59.59107898565
 20
1451.115445348
 11
60.172455366
 21
1471.46361866
  0
LINE
  5
154
100
AcDbEntity
  8
レイヤ1
  6
CONTINUOUS
 62
     0
100
AcDbLine
 10
60.172455366
 20
1471.46361866
 11
56.10282070356
 21
1482.800458077
  0
LINE
  5
155
100
AcDbEntity
  8
レイヤ1
  6
CONTINUOUS
 62
     0
100
AcDbLine
 10
56.10282070356
 20
1482.800458077
 11
51.74249785096
 21
1511.869277094
  0
LINE
  5
156
100
AcDbEntity
  8
レイヤ1
  6
CONTINUOUS
 62
     0
100
AcDbLine
 10
51.74249785096
 20
1511.869277094
 11
47.96355137869
 21
1520.29923461
  0
LINE
  5
157
100
AcDbEntity
  8
レイヤ1
  6
CONTINUOUS
 62
     0
100
AcDbLine
 10
47.96355137869
 20
1520.29923461
 11
20.63886150235
 21
1549.077365437
  0
LINE
  5
158
100
AcDbEntity
  8
レイヤ1
  6
CONTINUOUS
 62
     0
100
AcDbLine
 10
20.63886150235
 20
1549.077365437
 11
4.941699232956
 21
1561.286269424
  0
LINE
  5
159
100
AcDbEntity
  8
レイヤ1
  6
CONTINUOUS
 62
     0
100
AcDbLine
 10
4.941699232956
 20
1561.286269424
 11
-6.685828374
 21
1564.193151326
  0
LINE
  5
15A
100
AcDbEntity
  8
レイヤ1
  6
CONTINUOUS
 62
     0
100
AcDbLine
 10
-6.685828374
 20
1564.193151326
 11
-22.09230245322
 21
1566.809345037
  0
LINE
  5
15B
100
AcDbEntity
  8
レイヤ1
  6
CONTINUOUS
 62
     0
100
AcDbLine
 10
-22.09230245322
 20
1566.809345037
 11
-33.28837549566
 21
1562.141447173
  0
LINE
  5
15C
100
AcDbEntity
  8
レイヤ1
  6
CONTINUOUS
 62
     0
100
AcDbLine
 10
-75.74311525825
 20
1514.862305165
 11
-73.00261152781
 21
1528.401289158
  0
LINE
  5
15D
100
AcDbEntity
  8
レイヤ1
  6
CONTINUOUS
 62
     0
100
AcDbLine
 10
-73.00261152781
 20
1528.401289158
 11
-66.31312919658
 21
1539.453477357
  0
LINE
  5
15E
100
AcDbEntity
  8
レイヤ1
  6
CONTINUOUS
 62
     0
100
AcDbLine
 10
-66.31312919658
 20
1539.453477357
 11
-47.98976455016
 21
1555.450065541
  0
LINE
  5
15F
100
AcDbEntity
  8
レイヤ1
  6
CONTINUOUS
 62
     0
100
AcDbLine
 10
-47.98976455016
 20
1555.450065541
 11
-33.28837549566
 21
1562.141447173
  0
LINE
  5
160
100
AcDbEntity
  8
レイヤ1
  6
CONTINUOUS
 62
     0
100
AcDbLine
 10
-119.6451756946
 20
1437.189429008
 11
-120.0473516872
 21
1421.205744168
  0
LINE
  5
161
100
AcDbEntity
  8
レイヤ1
  6
CONTINUOUS
 62
     0
100
AcDbLine
 10
-120.0473516872
 20
1421.205744168
 11
-118.1943824666
 21
1411.257573747
  0
LINE
  5
162
100
AcDbEntity
  8
レイヤ1
  6
CONTINUOUS
 62
     0
100
AcDbLine
 10
-118.1943824666
 20
1411.257573747
 11
-120.2752694818
 21
1400.436961268
  0
LINE
  5
163
100
AcDbEntity
  8
レイヤ1
  6
CONTINUOUS
 62
     0
100
AcDbLine
 10
-120.2752694818
 20
1400.436961268
 11
-117.3620276605
 21
1393.778122819
  0
LINE
  5
164
100
AcDbEntity
  8
レイヤ1
  6
CONTINUOUS
 62
     0
100
AcDbLine
 10
-115.785653898
 20
1428.505504966
 11
-117.3620276605
 21
1393.778122819
  0
LINE
  5
165
100
AcDbEntity
  8
レイヤ1
  6
CONTINUOUS
 62
     0
100
AcDbLine
 10
-117.3620276605
 20
1393.778122819
 11
-114.3864189262
 21
1367.734752018
  0
LINE
  5
166
100
AcDbEntity
  8
レイヤ1
  6
CONTINUOUS
 62
     0
100
AcDbLine
 10
-114.3864189262
 20
1367.734752018
 11
-104.2719877052
 21
1346.7769932
  0
LINE
  5
167
100
AcDbEntity
  8
レイヤ1
  6
CONTINUOUS
 62
     0
100
AcDbLine
 10
-104.2719877052
 20
1346.7769932
 11
-62.5631926231
 21
1319.249188446
  0
LINE
  5
168
100
AcDbEntity
  8
レイヤ1
  6
CONTINUOUS
 62
     0
100
AcDbLine
 10
-62.5631926231
 20
1319.249188446
 11
-51.30181795094
 21
1316.746660741
  0
LINE
  5
169
100
AcDbEntity
  8
レイヤ1
  6
CONTINUOUS
 62
     0
100
AcDbLine
 10
-51.30181795094
 20
1316.746660741
 11
-39.20626737714
 21
1318.832100495
  0
LINE
  5
16A
100
AcDbEntity
  8
レイヤ1
  6
CONTINUOUS
 62
     0
100
AcDbLine
 10
-39.20626737714
 20
1318.832100495
 11
-15.01516622954
 21
1328.008035413
  0
LINE
  5
16B
100
AcDbEntity
  8
レイヤ1
  6
CONTINUOUS
 62
     0
100
AcDbLine
 10
-15.01516622954
 20
1328.008035413
 11
2.919615655745
 21
1337.601058282
  0
LINE
  5
16C
100
AcDbEntity
  8
レイヤ1
  6
CONTINUOUS
 62
     0
100
AcDbLine
 10
2.919615655745
 20
1337.601058282
 11
13.34681442626
 21
1347.611169102
  0
LINE
  5
16D
100
AcDbEntity
  8
レイヤ1
  6
CONTINUOUS
 62
     0
100
AcDbLine
 10
13.34681442626
 20
1347.611169102
 11
18.76895778693
 21
1362.20924738
  0
LINE
  5
16E
100
AcDbEntity
  8
レイヤ1
  6
CONTINUOUS
 62
     0
100
AcDbLine
 10
18.76895778693
 20
1362.20924738
 11
20.72927115579
 21
1368.715819413
  0
LINE
  5
16F
100
AcDbEntity
  8
レイヤ1
  6
CONTINUOUS
 62
     0
100
AcDbLine
 10
20.72927115579
 20
1368.715819413
 11
27.73634872957
 21
1369.883665675
  0
LINE
  5
170
100
AcDbEntity
  8
レイヤ1
  6
CONTINUOUS
 62
     0
100
AcDbLine
 10
27.73634872957
 20
1369.883665675
 11
38.24696509026
 21
1390.904898397
  0
LINE
  5
171
100
AcDbEntity
  8
レイヤ1
  6
CONTINUOUS
 62
     0
100
AcDbLine
 10
38.24696509026
 20
1390.904898397
 11
39.12284978698
 21
1399.371783798
  0
LINE
  5
172
100
AcDbEntity
  8
レイヤ1
  6
CONTINUOUS
 62
     0
100
AcDbLine
 10
39.12284978698
 20
1399.371783798
 11
38.24696509026
 21
1406.378861372
  0
LINE
  5
173
100
AcDbEntity
  8
レイヤ1
  6
CONTINUOUS
 62
     0
100
AcDbLine
 10
38.24696509026
 20
1406.378861372
 11
34.73569616939
 21
1408.725455758
  0
LINE
  5
174
100
AcDbEntity
  8
レイヤ1
  6
CONTINUOUS
 62
     0
100
AcDbLine
 10
34.73569616939
 20
1408.725455758
 11
33.57558004106
 21
1397.620014405
  0
LINE
  5
175
100
AcDbEntity
  8
レイヤ1
  6
CONTINUOUS
 62
     0
100
AcDbLine
 10
33.57558004106
 20
1397.620014405
 11
30.65596438532
 21
1391.488821528
  0
LINE
  5
176
100
AcDbEntity
  8
レイヤ1
  6
CONTINUOUS
 62
     0
100
AcDbLine
 10
30.65596438532
 20
1391.488821528
 11
24.12201122874
 21
1387.015645653
  0
LINE
  5
177
100
AcDbEntity
  8
レイヤ1
  6
CONTINUOUS
 62
     0
100
AcDbLine
 10
55.84088189336
 20
1487.823287724
 11
75.72140528995
 21
1476.128862197
  0
LINE
  5
178
100
AcDbEntity
  8
レイヤ1
  6
CONTINUOUS
 62
     0
100
AcDbLine
 10
75.72140528995
 20
1476.128862197
 11
72.21307763173
 21
1468.235124966
  0
LINE
  5
179
100
AcDbEntity
  8
レイヤ1
  6
CONTINUOUS
 62
     0
100
AcDbLine
 10
72.21307763173
 20
1468.235124966
 11
67.24294678258
 21
1467.650403689
  0
LINE
  5
17A
100
AcDbEntity
  8
レイヤ1
  6
CONTINUOUS
 62
     0
100
AcDbLine
 10
67.24294678258
 20
1467.650403689
 11
62.56517657162
 21
1469.696928157
  0
LINE
  5
17B
100
AcDbEntity
  8
レイヤ1
  6
CONTINUOUS
 62
     0
100
AcDbLine
 10
62.56517657162
 20
1469.696928157
 11
76.59848720451
 21
1455.371256886
  0
LINE
  5
17C
100
AcDbEntity
  8
レイヤ1
  6
CONTINUOUS
 62
     0
100
AcDbLine
 10
76.59848720451
 20
1455.371256886
 11
78.6450116718
 21
1450.693486675
  0
LINE
  5
17D
100
AcDbEntity
  8
レイヤ1
  6
CONTINUOUS
 62
     0
100
AcDbLine
 10
78.6450116718
 20
1450.693486675
 11
78.93737230999
 21
1436.660176042
  0
LINE
  5
17E
100
AcDbEntity
  8
レイヤ1
  6
CONTINUOUS
 62
     0
100
AcDbLine
 10
78.93737230999
 20
1436.660176042
 11
74.25960209903
 21
1429.643520725
  0
LINE
  5
17F
100
AcDbEntity
  8
レイヤ1
  6
CONTINUOUS
 62
     0
100
AcDbLine
 10
74.25960209903
 20
1429.643520725
 11
65.78114359166
 21
1425.842832429
  0
LINE
  5
180
100
AcDbEntity
  8
レイヤ1
  6
CONTINUOUS
 62
     0
100
AcDbLine
 10
65.78114359166
 20
1425.842832429
 11
57.0103244461
 21
1426.719914343
  0
LINE
  5
181
100
AcDbEntity
  8
レイヤ1
  6
CONTINUOUS
 62
     0
100
AcDbLine
 10
57.0103244461
 20
1426.719914343
 11
51.1631116824
 21
1428.474078173
  0
LINE
  5
182
100
AcDbEntity
  8
レイヤ1
  6
CONTINUOUS
 62
     0
100
AcDbLine
 10
65.78114359166
 20
1425.842832429
 11
64.02697976255
 21
1420.87270158
  0
LINE
  5
183
100
AcDbEntity
  8
レイヤ1
  6
CONTINUOUS
 62
     0
100
AcDbLine
 10
64.02697976255
 20
1420.87270158
 11
60.22629146614
 21
1418.533816474
  0
LINE
  5
184
100
AcDbEntity
  8
レイヤ1
  6
CONTINUOUS
 62
     0
100
AcDbLine
 10
60.22629146614
 20
1418.533816474
 11
53.50199678788
 21
1418.826177112
  0
LINE
  5
185
100
AcDbEntity
  8
レイヤ1
  6
CONTINUOUS
 62
     0
100
AcDbLine
 10
53.50199678788
 20
1418.826177112
 11
49.70768051974
 21
1421.17456176
  0
LINE
  5
186
100
AcDbEntity
  8
レイヤ1
  6
CONTINUOUS
 62
     0
100
AcDbLine
 10
53.50199678788
 20
1418.826177112
 11
53.50199678788
 21
1413.563685625
  0
LINE
  5
187
100
AcDbEntity
  8
レイヤ1
  6
CONTINUOUS
 62
     0
100
AcDbLine
 10
53.50199678788
 20
1413.563685625
 11
49.99366912966
 21
1408.0088335
  0
LINE
  5
188
100
AcDbEntity
  8
レイヤ1
  6
CONTINUOUS
 62
     0
100
AcDbLine
 10
49.99366912966
 20
1408.0088335
 11
46.19298083325
 21
1407.131751585
  0
LINE
  5
189
100
AcDbEntity
  8
レイヤ1
  6
CONTINUOUS
 62
     0
100
AcDbLine
 10
46.19298083325
 20
1407.131751585
 11
41.51521062229
 21
1401.869260098
  0
LINE
  5
18A
100
AcDbEntity
  8
レイヤ1
  6
CONTINUOUS
 62
     0
100
AcDbLine
 10
41.51521062229
 20
1401.869260098
 11
38.68490743862
 21
1402.875322585
  0
LINE
  5
18B
100
AcDbEntity
  8
レイヤ1
  6
CONTINUOUS
 62
     0
100
AcDbLine
 10
-106.8577653287
 20
1517.503092685
 11
-110.74722422
 21
1517.707801048
  0
LINE
  5
18C
100
AcDbEntity
  8
レイヤ1
  6
CONTINUOUS
 62
     0
100
AcDbLine
 10
-110.74722422
 20
1517.707801048
 11
-116.6837667382
 21
1511.566550167
  0
LINE
  5
18D
100
AcDbEntity
  8
レイヤ1
  6
CONTINUOUS
 62
     0
100
AcDbLine
 10
-116.7505343471
 20
1500.389098428
 11
-116.6837667382
 21
1511.566550167
  0
LINE
  5
18E
100
AcDbEntity
  8
レイヤ1
  6
CONTINUOUS
 62
     0
100
AcDbLine
 10
-116.6837667382
 20
1511.566550167
 11
-117.2978918263
 21
1520.573718126
  0
LINE
  5
18F
100
AcDbEntity
  8
レイヤ1
  6
CONTINUOUS
 62
     0
100
AcDbLine
 10
-117.2978918263
 20
1520.573718126
 11
-112.9990162097
 21
1532.242094799
  0
LINE
  5
190
100
AcDbEntity
  8
レイヤ1
  6
CONTINUOUS
 62
     0
100
AcDbLine
 10
-112.9990162097
 20
1532.242094799
 11
-113.6131412978
 21
1536.336262053
  0
LINE
  5
191
100
AcDbEntity
  8
レイヤ1
  6
CONTINUOUS
 62
     0
100
AcDbLine
 10
-113.6131412978
 20
1536.336262053
 11
-117.0931834636
 21
1533.675053338
  0
LINE
  5
192
100
AcDbEntity
  8
レイヤ1
  6
CONTINUOUS
 62
     0
100
AcDbLine
 10
-117.0931834636
 20
1533.675053338
 11
-121.3920590803
 21
1525.282010468
  0
LINE
  5
193
100
AcDbEntity
  8
レイヤ1
  6
CONTINUOUS
 62
     0
100
AcDbLine
 10
-121.3920590803
 20
1525.282010468
 11
-124.0532677954
 21
1531.218552986
  0
LINE
  5
194
100
AcDbEntity
  8
レイヤ1
  6
CONTINUOUS
 62
     0
100
AcDbLine
 10
-124.0532677954
 20
1531.218552986
 11
-129.9898103136
 21
1532.037386437
  0
LINE
  5
195
100
AcDbEntity
  8
レイヤ1
  6
CONTINUOUS
 62
     0
100
AcDbLine
 10
-129.9898103136
 20
1532.037386437
 11
-135.9263528319
 21
1527.329094095
  0
LINE
  5
196
100
AcDbEntity
  8
レイヤ1
  6
CONTINUOUS
 62
     0
100
AcDbLine
 10
-135.9263528319
 20
1527.329094095
 11
-136.54047792
 21
1524.053760291
  0
LINE
  5
197
100
AcDbEntity
  8
レイヤ1
  6
CONTINUOUS
 62
     0
100
AcDbLine
 10
-136.54047792
 20
1524.053760291
 11
-134.6981026557
 21
1520.778426488
  0
LINE
  5
198
100
AcDbEntity
  8
レイヤ1
  6
CONTINUOUS
 62
     0
100
AcDbLine
 10
-134.6981026557
 20
1520.778426488
 11
-134.9028110184
 21
1508.495924726
  0
LINE
  5
199
100
AcDbEntity
  8
レイヤ1
  6
CONTINUOUS
 62
     0
100
AcDbLine
 10
-117.7073085517
 20
1492.323964073
 11
-118.3214336398
 21
1498.87463168
  0
LINE
  5
19A
100
AcDbEntity
  8
レイヤ1
  6
CONTINUOUS
 62
     0
100
AcDbLine
 10
-118.3214336398
 20
1498.87463168
 11
-120.5732256295
 21
1503.378215659
  0
LINE
  5
19B
100
AcDbEntity
  8
レイヤ1
  6
CONTINUOUS
 62
     0
100
AcDbLine
 10
-120.5732256295
 20
1503.378215659
 11
-126.7144765105
 21
1508.495924726
  0
LINE
  5
19C
100
AcDbEntity
  8
レイヤ1
  6
CONTINUOUS
 62
     0
100
AcDbLine
 10
-126.7144765105
 20
1508.495924726
 11
-134.9028110184
 21
1508.495924726
  0
LINE
  5
19D
100
AcDbEntity
  8
レイヤ1
  6
CONTINUOUS
 62
     0
100
AcDbLine
 10
-134.9028110184
 20
1508.495924726
 11
-141.4534786248
 21
1507.677091276
  0
LINE
  5
19E
100
AcDbEntity
  8
レイヤ1
  6
CONTINUOUS
 62
     0
100
AcDbLine
 10
-141.4534786248
 20
1507.677091276
 11
-141.4534786248
 21
1502.149965483
  0
LINE
  5
19F
100
AcDbEntity
  8
レイヤ1
  6
CONTINUOUS
 62
     0
100
AcDbLine
 10
-141.4534786248
 20
1502.149965483
 11
-145.9570626041
 21
1499.898173493
  0
LINE
  5
1A0
100
AcDbEntity
  8
レイヤ1
  6
CONTINUOUS
 62
     0
100
AcDbLine
 10
-145.9570626041
 20
1499.898173493
 11
-145.9570626041
 21
1490.891005534
  0
LINE
  5
1A1
100
AcDbEntity
  8
レイヤ1
  6
CONTINUOUS
 62
     0
100
AcDbLine
 10
-145.9570626041
 20
1490.891005534
 11
-153.9406887494
 21
1487.001546643
  0
LINE
  5
1A2
100
AcDbEntity
  8
レイヤ1
  6
CONTINUOUS
 62
     0
100
AcDbLine
 10
-153.9406887494
 20
1487.001546643
 11
-149.8465214954
 21
1476.15200342
  0
LINE
  5
1A3
100
AcDbEntity
  8
レイヤ1
  6
CONTINUOUS
 62
     0
100
AcDbLine
 10
-149.8465214954
 20
1476.15200342
 11
-139.2016866351
 21
1470.215460902
  0
LINE
  5
1A4
100
AcDbEntity
  8
レイヤ1
  6
CONTINUOUS
 62
     0
100
AcDbLine
 10
-139.2016866351
 20
1470.215460902
 11
-131.6274772152
 21
1468.577794
  0
LINE
  5
1A5
100
AcDbEntity
  8
レイヤ1
  6
CONTINUOUS
 62
     0
100
AcDbLine
 10
-131.6274772152
 20
1468.577794
 11
-130.6039354017
 21
1473.081377979
  0
LINE
  5
1A6
100
AcDbEntity
  8
レイヤ1
  6
CONTINUOUS
 62
     0
100
AcDbLine
 10
-130.6039354017
 20
1473.081377979
 11
-122.8250176192
 21
1480.655587399
  0
LINE
  5
1A7
100
AcDbEntity
  8
レイヤ1
  6
CONTINUOUS
 62
     0
100
AcDbLine
 10
-122.8250176192
 20
1480.655587399
 11
-118.6802952454
 21
1485.192231354
  0
LINE
  5
1A8
100
AcDbEntity
  8
レイヤ1
  6
CONTINUOUS
 62
     0
100
AcDbLine
 10
-120.0645006206
 20
1463.322706344
 11
-125.3356250381
 21
1468.886671007
  0
LINE
  5
1A9
100
AcDbEntity
  8
レイヤ1
  6
CONTINUOUS
 62
     0
100
AcDbLine
 10
-125.3356250381
 20
1468.886671007
 11
-126.7144765105
 21
1476.868482689
  0
LINE
  5
1AA
100
AcDbEntity
  8
レイヤ1
  6
CONTINUOUS
 62
     0
100
AcDbLine
 10
-120.0645006206
 20
1458.051581926
 11
-129.4353884739
 21
1465.372588062
  0
LINE
  5
1AB
100
AcDbEntity
  8
レイヤ1
  6
CONTINUOUS
 62
     0
100
AcDbLine
 10
-129.4353884739
 20
1465.372588062
 11
-130.6039354017
 21
1473.081377979
  0
LINE
  5
1AC
100
AcDbEntity
  8
レイヤ1
  6
CONTINUOUS
 62
     0
100
AcDbLine
 10
-129.4353884739
 20
1465.372588062
 11
-139.391956818
 21
1467.715310025
  0
LINE
  5
1AD
100
AcDbEntity
  8
レイヤ1
  6
CONTINUOUS
 62
     0
100
AcDbLine
 10
-139.391956818
 20
1467.715310025
 11
-144.5241040652
 21
1473.183732161
  0
LINE
  5
1AE
100
AcDbEntity
  8
レイヤ1
  6
CONTINUOUS
 62
     0
100
AcDbLine
 10
-120.1276159191
 20
1453.592396644
 11
-136.4635543639
 21
1460.101463644
  0
LINE
  5
1AF
100
AcDbEntity
  8
レイヤ1
  6
CONTINUOUS
 62
     0
100
AcDbLine
 10
-136.4635543639
 20
1460.101463644
 11
-149.934205653
 21
1460.979984381
  0
LINE
  5
1B0
100
AcDbEntity
  8
レイヤ1
  6
CONTINUOUS
 62
     0
100
AcDbLine
 10
-149.934205653
 20
1460.979984381
 11
-156.0838508067
 21
1459.808623399
  0
LINE
  5
1B1
100
AcDbEntity
  8
レイヤ1
  6
CONTINUOUS
 62
     0
100
AcDbLine
 10
-156.0838508067
 20
1459.808623399
 11
-159.0122532609
 21
1455.416019718
  0
LINE
  5
1B2
100
AcDbEntity
  8
レイヤ1
  6
CONTINUOUS
 62
     0
100
AcDbLine
 10
-159.0122532609
 20
1455.416019718
 11
-156.3766910522
 21
1449.852055055
  0
LINE
  5
1B3
100
AcDbEntity
  8
レイヤ1
  6
CONTINUOUS
 62
     0
100
AcDbLine
 10
-156.3766910522
 20
1449.852055055
 11
-148.7628446713
 21
1443.11672941
  0
LINE
  5
1B4
100
AcDbEntity
  8
レイヤ1
  6
CONTINUOUS
 62
     0
100
AcDbLine
 10
-148.7628446713
 20
1443.11672941
 11
-135.877873873
 21
1441.066847692
  0
LINE
  5
1B5
100
AcDbEntity
  8
レイヤ1
  6
CONTINUOUS
 62
     0
100
AcDbLine
 10
-135.877873873
 20
1441.066847692
 11
-128.8497079831
 21
1441.359687938
  0
LINE
  5
1B6
100
AcDbEntity
  8
レイヤ1
  6
CONTINUOUS
 62
     0
100
AcDbLine
 10
-128.8497079831
 20
1441.359687938
 11
-122.7000628293
 21
1446.33797211
  0
LINE
  5
1B7
100
AcDbEntity
  8
レイヤ1
  6
CONTINUOUS
 62
     0
100
AcDbLine
 10
-122.7000628293
 20
1446.33797211
 11
-120.0645006206
 21
1451.316256282
  0
LINE
  5
1B8
100
AcDbEntity
  8
レイヤ1
  6
CONTINUOUS
 62
     0
100
AcDbLine
 10
-123.2857433201
 20
1454.830339227
 11
-127.6783470014
 21
1446.33797211
  0
LINE
  5
1B9
100
AcDbEntity
  8
レイヤ1
  6
CONTINUOUS
 62
     0
100
AcDbLine
 10
-127.6783470014
 20
1446.33797211
 11
-138.5134360818
 21
1443.995250146
  0
LINE
  5
1BA
100
AcDbEntity
  8
レイヤ1
  6
CONTINUOUS
 62
     0
100
AcDbLine
 10
-138.5134360818
 20
1443.995250146
 11
-150.2270458984
 21
1450.1448953
  0
LINE
  5
1BB
100
AcDbEntity
  8
レイヤ1
  6
CONTINUOUS
 62
     0
100
AcDbLine
 10
-150.2270458984
 20
1450.1448953
 11
-151.3984068801
 21
1454.537498981
  0
LINE
  5
1BC
100
AcDbEntity
  8
レイヤ1
  6
CONTINUOUS
 62
     0
100
AcDbLine
 10
-151.3984068801
 20
1454.537498981
 11
-149.3485251622
 21
1456.587380699
  0
LINE
  5
1BD
100
AcDbEntity
  8
レイヤ1
  6
CONTINUOUS
 62
     0
100
AcDbLine
 10
-149.3485251622
 20
1456.587380699
 11
-142.3203592722
 21
1457.465901436
  0
LINE
  5
1BE
100
AcDbEntity
  8
レイヤ1
  6
CONTINUOUS
 62
     0
100
AcDbLine
 10
-142.3203592722
 20
1457.465901436
 11
-142.906039763
 21
1453.951818491
  0
LINE
  5
1BF
100
AcDbEntity
  8
レイヤ1
  6
CONTINUOUS
 62
     0
100
AcDbLine
 10
-142.906039763
 20
1453.951818491
 11
-135.5850336276
 21
1448.387853828
  0
LINE
  5
1C0
100
AcDbEntity
  8
レイヤ1
  6
CONTINUOUS
 62
     0
100
AcDbLine
 10
-135.5850336276
 20
1448.387853828
 11
-130.0210689647
 21
1448.095013582
  0
LINE
  5
1C1
100
AcDbEntity
  8
レイヤ1
  6
CONTINUOUS
 62
     0
100
AcDbLine
 10
-130.0210689647
 20
1448.095013582
 11
-125.0427847926
 21
1453.073297754
  0
LINE
  5
1C2
100
AcDbEntity
  8
レイヤ1
  6
CONTINUOUS
 62
     0
100
AcDbLine
 10
-143.1988800084
 20
1460.540724012
 11
-148.7628446713
 21
1463.908386835
  0
LINE
  5
1C3
100
AcDbEntity
  8
レイヤ1
  6
CONTINUOUS
 62
     0
100
AcDbLine
 10
-148.7628446713
 20
1463.908386835
 11
-149.934205653
 21
1470.936552725
  0
LINE
  5
1C4
100
AcDbEntity
  8
レイヤ1
  6
CONTINUOUS
 62
     0
100
AcDbLine
 10
-149.934205653
 20
1470.936552725
 11
-147.8843239351
 21
1474.157795424
  0
LINE
  5
1C5
100
AcDbEntity
  8
レイヤ1
  6
CONTINUOUS
 62
     0
100
AcDbLine
 10
-157.6944721565
 20
1452.634037386
 11
-161.5245985358
 21
1450.373726749
  0
LINE
  5
1C6
100
AcDbEntity
  8
レイヤ1
  6
CONTINUOUS
 62
     0
100
AcDbLine
 10
-161.5245985358
 20
1450.373726749
 11
-163.6168860816
 21
1444.93377913
  0
LINE
  5
1C7
100
AcDbEntity
  8
レイヤ1
  6
CONTINUOUS
 62
     0
100
AcDbLine
 10
-163.6168860816
 20
1444.93377913
 11
-162.3615135541
 21
1435.727713928
  0
LINE
  5
1C8
100
AcDbEntity
  8
レイヤ1
  6
CONTINUOUS
 62
     0
100
AcDbLine
 10
-162.3615135541
 20
1435.727713928
 11
-154.4108208801
 21
1425.684733708
  0
LINE
  5
1C9
100
AcDbEntity
  8
レイヤ1
  6
CONTINUOUS
 62
     0
100
AcDbLine
 10
-154.4108208801
 20
1425.684733708
 11
-143.9493831511
 21
1422.337073635
  0
LINE
  5
1CA
100
AcDbEntity
  8
レイヤ1
  6
CONTINUOUS
 62
     0
100
AcDbLine
 10
-143.9493831511
 20
1422.337073635
 11
-139.3463505503
 21
1423.173988653
  0
LINE
  5
1CB
100
AcDbEntity
  8
レイヤ1
  6
CONTINUOUS
 62
     0
100
AcDbLine
 10
-139.3463505503
 20
1423.173988653
 11
-133.0694879129
 21
1426.103191217
  0
LINE
  5
1CC
100
AcDbEntity
  8
レイヤ1
  6
CONTINUOUS
 62
     0
100
AcDbLine
 10
-133.0694879129
 20
1426.103191217
 11
-124.7003377297
 21
1435.727713928
  0
LINE
  5
1CD
100
AcDbEntity
  8
レイヤ1
  6
CONTINUOUS
 62
     0
100
AcDbLine
 10
-124.7003377297
 20
1435.727713928
 11
-123.0265076931
 21
1441.167661547
  0
LINE
  5
1CE
100
AcDbEntity
  8
レイヤ1
  6
CONTINUOUS
 62
     0
100
AcDbLine
 10
-152.5697678617
 20
1446.484392232
 11
-156.0846509167
 21
1443.259949093
  0
LINE
  5
1CF
100
AcDbEntity
  8
レイヤ1
  6
CONTINUOUS
 62
     0
100
AcDbLine
 10
-156.0846509167
 20
1443.259949093
 11
-155.6661934075
 21
1437.401543965
  0
LINE
  5
1D0
100
AcDbEntity
  8
レイヤ1
  6
CONTINUOUS
 62
     0
100
AcDbLine
 10
-155.6661934075
 20
1437.401543965
 11
-151.4816183159
 21
1433.216968873
  0
LINE
  5
1D1
100
AcDbEntity
  8
レイヤ1
  6
CONTINUOUS
 62
     0
100
AcDbLine
 10
-151.4816183159
 20
1433.216968873
 11
-142.6940106236
 21
1429.450851291
  0
LINE
  5
1D2
100
AcDbEntity
  8
レイヤ1
  6
CONTINUOUS
 62
     0
100
AcDbLine
 10
-142.6940106236
 20
1429.450851291
 11
-132.2325728946
 21
1432.380053855
  0
LINE
  5
1D3
100
AcDbEntity
  8
レイヤ1
  6
CONTINUOUS
 62
     0
100
AcDbLine
 10
-132.2325728946
 20
1432.380053855
 11
-127.6295402938
 21
1437.820001474
  0
LINE
  5
1D4
100
AcDbEntity
  8
レイヤ1
  6
CONTINUOUS
 62
     0
100
AcDbLine
 10
-127.6295402938
 20
1437.820001474
 11
-125.7748854062
 21
1443.848830024
  0
LINE
  5
1D5
100
AcDbEntity
  8
レイヤ1
  6
CONTINUOUS
 62
     0
100
AcDbLine
 10
-146.460128206
 20
1442.841491584
 11
-145.2047556785
 21
1434.89079891
  0
LINE
  5
1D6
100
AcDbEntity
  8
レイヤ1
  6
CONTINUOUS
 62
     0
100
AcDbLine
 10
-145.2047556785
 20
1434.89079891
 11
-137.4632917591
 21
1430.915452573
  0
LINE
  5
1D7
100
AcDbEntity
  8
レイヤ1
  6
CONTINUOUS
 62
     0
100
AcDbLine
 10
-138.8149095137
 20
1441.665625983
 11
-137.9947327957
 21
1436.129433137
  0
LINE
  5
1D8
100
AcDbEntity
  8
レイヤ1
  6
CONTINUOUS
 62
     0
100
AcDbLine
 10
-137.9947327957
 20
1436.129433137
 11
-132.2325728946
 21
1432.380053855
  0
LINE
  5
1D9
100
AcDbEntity
  8
レイヤ1
  6
CONTINUOUS
 62
     0
100
AcDbLine
 10
-139.3463505503
 20
1423.173988653
 11
-134.8169582367
 21
1420.602295954
  0
LINE
  5
1DA
100
AcDbEntity
  8
レイヤ1
  6
CONTINUOUS
 62
     0
100
AcDbLine
 10
-134.8169582367
 20
1420.602295954
 11
-135.6543306481
 21
1416.415433897
  0
LINE
  5
1DB
100
AcDbEntity
  8
レイヤ1
  6
CONTINUOUS
 62
     0
100
AcDbLine
 10
-135.6543306481
 20
1416.415433897
 11
-134.8169582367
 21
1410.972513223
  0
LINE
  5
1DC
100
AcDbEntity
  8
レイヤ1
  6
CONTINUOUS
 62
     0
100
AcDbLine
 10
-134.8169582367
 20
1410.972513223
 11
-135.2356444424
 21
1378.314989178
  0
LINE
  5
1DD
100
AcDbEntity
  8
レイヤ1
  6
CONTINUOUS
 62
     0
100
AcDbLine
 10
-135.2356444424
 20
1378.314989178
 11
-133.1422134139
 21
1358.63673751
  0
LINE
  5
1DE
100
AcDbEntity
  8
レイヤ1
  6
CONTINUOUS
 62
     0
100
AcDbLine
 10
-133.1422134139
 20
1358.63673751
 11
-133.9795858253
 21
1306.300961797
  0
LINE
  5
1DF
100
AcDbEntity
  8
レイヤ1
  6
CONTINUOUS
 62
     0
100
AcDbLine
 10
-133.9795858253
 20
1306.300961797
 11
-128.5366651511
 21
1310.069137648
  0
LINE
  5
1E0
100
AcDbEntity
  8
レイヤ1
  6
CONTINUOUS
 62
     0
100
AcDbLine
 10
-128.5366651511
 20
1310.069137648
 11
-127.6992927397
 21
1351.519072013
  0
LINE
  5
1E1
100
AcDbEntity
  8
レイヤ1
  6
CONTINUOUS
 62
     0
100
AcDbLine
 10
-127.6992927397
 20
1351.519072013
 11
-129.7927237683
 21
1363.242285772
  0
LINE
  5
1E2
100
AcDbEntity
  8
レイヤ1
  6
CONTINUOUS
 62
     0
100
AcDbLine
 10
-129.7927237683
 20
1363.242285772
 11
-129.3740375625
 21
1381.664478823
  0
LINE
  5
1E3
100
AcDbEntity
  8
レイヤ1
  6
CONTINUOUS
 62
     0
100
AcDbLine
 10
-129.3740375625
 20
1381.664478823
 11
-129.3740375625
 21
1418.508864925
  0
LINE
  5
1E4
100
AcDbEntity
  8
レイヤ1
  6
CONTINUOUS
 62
     0
100
AcDbLine
 10
-129.3740375625
 20
1418.508864925
 11
-122.2563720656
 21
1433.162882125
  0
LINE
  5
1E5
100
AcDbEntity
  8
レイヤ1
  6
CONTINUOUS
 62
     0
100
AcDbLine
 10
-122.2563720656
 20
1433.162882125
 11
-127.6992927397
 21
1418.508864925
  0
LINE
  5
1E6
100
AcDbEntity
  8
レイヤ1
  6
CONTINUOUS
 62
     0
100
AcDbLine
 10
-127.6992927397
 20
1418.508864925
 11
-128.1179789454
 21
1408.879082194
  0
LINE
  5
1E7
100
AcDbEntity
  8
レイヤ1
  6
CONTINUOUS
 62
     0
100
AcDbLine
 10
-128.1179789454
 20
1408.879082194
 11
-122.6750582713
 21
1415.578061485
  0
LINE
  5
1E8
100
AcDbEntity
  8
レイヤ1
  6
CONTINUOUS
 62
     0
100
AcDbLine
 10
-122.6750582713
 20
1415.578061485
 11
-123.9311168884
 21
1401.761416697
  0
LINE
  5
1E9
100
AcDbEntity
  8
レイヤ1
  6
CONTINUOUS
 62
     0
100
AcDbLine
 10
-123.9311168884
 20
1401.761416697
 11
-117.3620276605
 21
1393.778122819
  0
LINE
  5
1EA
100
AcDbEntity
  8
レイヤ1
  6
CONTINUOUS
 62
     0
100
AcDbLine
 10
-128.1179789454
 20
1408.879082194
 11
-126.4432341226
 21
1369.522578858
  0
LINE
  5
1EB
100
AcDbEntity
  8
レイヤ1
  6
CONTINUOUS
 62
     0
100
AcDbLine
 10
-126.4432341226
 20
1369.522578858
 11
-123.093744477
 21
1359.474109921
  0
LINE
  5
1EC
100
AcDbEntity
  8
レイヤ1
  6
CONTINUOUS
 62
     0
100
AcDbLine
 10
-123.093744477
 20
1359.474109921
 11
-119.3255686257
 21
1350.681699601
  0
LINE
  5
1ED
100
AcDbEntity
  8
レイヤ1
  6
CONTINUOUS
 62
     0
100
AcDbLine
 10
-119.3255686257
 20
1350.681699601
 11
-121.8376858599
 21
1320.954978996
  0
LINE
  5
1EE
100
AcDbEntity
  8
レイヤ1
  6
CONTINUOUS
 62
     0
100
AcDbLine
 10
-121.8376858599
 20
1320.954978996
 11
-124.3498030941
 21
1325.141841053
  0
LINE
  5
1EF
100
AcDbEntity
  8
レイヤ1
  6
CONTINUOUS
 62
     0
100
AcDbLine
 10
-124.3498030941
 20
1325.141841053
 11
-124.7684892998
 21
1349.84432719
  0
LINE
  5
1F0
100
AcDbEntity
  8
レイヤ1
  6
CONTINUOUS
 62
     0
100
AcDbLine
 10
-124.7684892998
 20
1349.84432719
 11
-126.0245479169
 21
1358.218051304
  0
LINE
  5
1F1
100
AcDbEntity
  8
レイヤ1
  6
CONTINUOUS
 62
     0
100
AcDbLine
 10
-126.0245479169
 20
1358.218051304
 11
-129.7927237683
 21
1363.242285772
  0
LINE
  5
1F2
100
AcDbEntity
  8
レイヤ1
  6
CONTINUOUS
 62
     0
100
AcDbLine
 10
-104.2719877052
 20
1346.7769932
 11
-101.5800857343
 21
1343.52489152
  0
LINE
  5
1F3
100
AcDbEntity
  8
レイヤ1
  6
CONTINUOUS
 62
     0
100
AcDbLine
 10
-101.5800857343
 20
1343.52489152
 11
-101.1679790775
 21
1321.928259946
  0
LINE
  5
1F4
100
AcDbEntity
  8
レイヤ1
  6
CONTINUOUS
 62
     0
100
AcDbLine
 10
0.5747514173676
 20
1336.29704538
 11
0.7184392717095
 21
1322.359323509
  0
LINE
  5
1F5
100
AcDbEntity
  8
レイヤ1
  6
CONTINUOUS
 62
     0
100
AcDbLine
 10
0.6179959651849
 20
1324.983349356
 11
3.295978480986
 21
1324.159354736
  0
LINE
  5
1F6
100
AcDbEntity
  8
レイヤ1
  6
CONTINUOUS
 62
     0
100
AcDbLine
 10
3.295978480986
 20
1324.159354736
 11
0.7184392717095
 21
1322.359323509
  0
LINE
  5
1F7
100
AcDbEntity
  8
レイヤ1
  6
CONTINUOUS
 62
     0
100
AcDbLine
 10
0.7184392717095
 20
1322.359323509
 11
-22.04185609159
 21
1301.293504024
  0
LINE
  5
1F8
100
AcDbEntity
  8
レイヤ1
  6
CONTINUOUS
 62
     0
100
AcDbLine
 10
-22.04185609159
 20
1301.293504024
 11
-54.79564224639
 21
1264.831742078
  0
LINE
  5
1F9
100
AcDbEntity
  8
レイヤ1
  6
CONTINUOUS
 62
     0
100
AcDbLine
 10
-57.26762610713
 20
1265.655736699
 11
-86.51943512588
 21
1298.821520164
  0
LINE
  5
1FA
100
AcDbEntity
  8
レイヤ1
  6
CONTINUOUS
 62
     0
100
AcDbLine
 10
-86.51943512588
 20
1298.821520164
 11
-101.1679790775
 21
1321.928259946
  0
LINE
  5
1FB
100
AcDbEntity
  8
レイヤ1
  6
CONTINUOUS
 62
     0
100
AcDbLine
 10
-101.1679790775
 20
1321.928259946
 11
-104.6473167713
 21
1319.00938836
  0
LINE
  5
1FC
100
AcDbEntity
  8
レイヤ1
  6
CONTINUOUS
 62
     0
100
AcDbLine
 10
-104.6473167713
 20
1319.00938836
 11
-107.119300632
 21
1318.185393739
  0
LINE
  5
1FD
100
AcDbEntity
  8
レイヤ1
  6
CONTINUOUS
 62
     0
100
AcDbLine
 10
-107.119300632
 20
1318.185393739
 11
-105.2653127365
 21
1307.473463676
  0
LINE
  5
1FE
100
AcDbEntity
  8
レイヤ1
  6
CONTINUOUS
 62
     0
100
AcDbLine
 10
-105.2653127365
 20
1307.473463676
 11
-65.30157365453
 21
1217.246052759
  0
LINE
  5
1FF
100
AcDbEntity
  8
レイヤ1
  6
CONTINUOUS
 62
     0
100
AcDbLine
 10
-24.51383995233
 20
1269.36371249
 11
-15.0379018195
 21
1287.69759279
  0
LINE
  5
200
100
AcDbEntity
  8
レイヤ1
  6
CONTINUOUS
 62
     0
100
AcDbLine
 10
-15.0379018195
 20
1287.69759279
 11
10.7119300632
 21
1320.451378945
  0
LINE
  5
201
100
AcDbEntity
  8
レイヤ1
  6
CONTINUOUS
 62
     0
100
AcDbLine
 10
10.7119300632
 20
1320.451378945
 11
8.239946202465
 21
1323.541358771
  0
LINE
  5
202
100
AcDbEntity
  8
レイヤ1
  6
CONTINUOUS
 62
     0
100
AcDbLine
 10
8.239946202465
 20
1323.541358771
 11
4.531970411356
 21
1324.777350701
  0
LINE
  5
203
100
AcDbEntity
  8
レイヤ1
  6
CONTINUOUS
 62
     0
100
AcDbLine
 10
4.531970411356
 20
1324.777350701
 11
0.6179959651849
 21
1324.983349356
  0
LINE
  5
204
100
AcDbEntity
  8
レイヤ1
  6
CONTINUOUS
 62
     0
100
AcDbLine
 10
-104.6473167713
 20
1319.00938836
 11
-110.3865743824
 21
1318.751608622
  0
LINE
  5
205
100
AcDbEntity
  8
レイヤ1
  6
CONTINUOUS
 62
     0
100
AcDbLine
 10
-110.3865743824
 20
1318.751608622
 11
-112.4471237709
 21
1315.807966638
  0
LINE
  5
206
100
AcDbEntity
  8
レイヤ1
  6
CONTINUOUS
 62
     0
100
AcDbLine
 10
-112.4471237709
 20
1315.807966638
 11
-100.08382744
 21
1277.540620852
  0
LINE
  5
207
100
AcDbEntity
  8
レイヤ1
  6
CONTINUOUS
 62
     0
100
AcDbLine
 10
-100.08382744
 20
1277.540620852
 11
-70.35304340639
 21
1207.776305843
  0
LINE
  5
208
100
AcDbEntity
  8
レイヤ1
  6
CONTINUOUS
 62
     0
100
AcDbLine
 10
10.7119300632
 20
1320.451378945
 11
17.07312350448
 21
1321.106522209
  0
LINE
  5
209
100
AcDbEntity
  8
レイヤ1
  6
CONTINUOUS
 62
     0
100
AcDbLine
 10
17.07312350448
 20
1321.106522209
 11
-10.008382744
 21
1288.72646039
  0
LINE
  5
20A
100
AcDbEntity
  8
レイヤ1
  6
CONTINUOUS
 62
     0
100
AcDbLine
 10
-10.008382744
 20
1288.72646039
 11
-25.90404945507
 21
1258.112583761
  0
LINE
  5
20B
100
AcDbEntity
  8
レイヤ1
  6
CONTINUOUS
 62
     0
100
AcDbLine
 10
17.07312350448
 20
1321.106522209
 11
23.54913586825
 21
1320.517793812
  0
LINE
  5
20C
100
AcDbEntity
  8
レイヤ1
  6
CONTINUOUS
 62
     0
100
AcDbLine
 10
23.54913586825
 20
1320.517793812
 11
28.55332724025
 21
1312.864324655
  0
LINE
  5
20D
100
AcDbEntity
  8
レイヤ1
  6
CONTINUOUS
 62
     0
100
AcDbLine
 10
28.55332724025
 20
1312.864324655
 11
39.73916677767
 21
1302.561577712
  0
LINE
  5
20E
100
AcDbEntity
  8
レイヤ1
  6
CONTINUOUS
 62
     0
100
AcDbLine
 10
39.73916677767
 20
1302.561577712
 11
47.6870001332
 21
1298.734843134
  0
LINE
  5
20F
100
AcDbEntity
  8
レイヤ1
  6
CONTINUOUS
 62
     0
100
AcDbLine
 10
47.6870001332
 20
1298.734843134
 11
58.57847547226
 21
1287.549003596
  0
LINE
  5
210
100
AcDbEntity
  8
レイヤ1
  6
CONTINUOUS
 62
     0
100
AcDbLine
 10
58.57847547226
 20
1287.549003596
 11
90.07544469604
 21
1273.713886274
  0
LINE
  5
211
100
AcDbEntity
  8
レイヤ1
  6
CONTINUOUS
 62
     0
100
AcDbLine
 10
90.07544469604
 20
1273.713886274
 11
102.7331052252
 21
1270.77024429
  0
LINE
  5
212
100
AcDbEntity
  8
レイヤ1
  6
CONTINUOUS
 62
     0
100
AcDbLine
 10
281.8255703413
 20
701.6194795959
 11
258.2700002829
 21
658.2940560956
  0
LINE
  5
213
100
AcDbEntity
  8
レイヤ1
  6
CONTINUOUS
 62
     0
100
AcDbLine
 10
258.2700002829
 20
658.2940560956
 11
254.0636484868
 21
644.4130951684
  0
LINE
  5
214
100
AcDbEntity
  8
レイヤ1
  6
CONTINUOUS
 62
     0
100
AcDbLine
 10
254.0636484868
 20
644.4130951684
 11
249.436661511
 21
633.897215678
  0
LINE
  5
215
100
AcDbEntity
  8
レイヤ1
  6
CONTINUOUS
 62
     0
100
AcDbLine
 10
249.436661511
 20
633.897215678
 11
246.9128504333
 21
632.2146749596
  0
LINE
  5
216
100
AcDbEntity
  8
レイヤ1
  6
CONTINUOUS
 62
     0
100
AcDbLine
 10
246.9128504333
 20
632.2146749596
 11
241.4445930983
 21
638.1035674742
  0
LINE
  5
217
100
AcDbEntity
  8
レイヤ1
  6
CONTINUOUS
 62
     0
100
AcDbLine
 10
241.4445930983
 20
638.1035674742
 11
242.7064986372
 21
651.9845284014
  0
LINE
  5
218
100
AcDbEntity
  8
レイヤ1
  6
CONTINUOUS
 62
     0
100
AcDbLine
 10
242.7064986372
 20
651.9845284014
 11
247.7541207925
 21
672.5956522025
  0
LINE
  5
219
100
AcDbEntity
  8
レイヤ1
  6
CONTINUOUS
 62
     0
100
AcDbLine
 10
247.7541207925
 20
672.5956522025
 11
249.436661511
 21
685.6353427705
  0
LINE
  5
21A
100
AcDbEntity
  8
レイヤ1
  6
CONTINUOUS
 62
     0
100
AcDbLine
 10
249.436661511
 20
685.6353427705
 11
253.2223781275
 21
695.3099519017
  0
LINE
  5
21B
100
AcDbEntity
  8
レイヤ1
  6
CONTINUOUS
 62
     0
100
AcDbLine
 10
253.2223781275
 20
695.3099519017
 11
243.1271338168
 21
702.0401147755
  0
LINE
  5
21C
100
AcDbEntity
  8
レイヤ1
  6
CONTINUOUS
 62
     0
100
AcDbLine
 10
215.7858471419
 20
707.9290072901
 11
211.1588601661
 21
700.357574057
  0
LINE
  5
21D
100
AcDbEntity
  8
レイヤ1
  6
CONTINUOUS
 62
     0
100
AcDbLine
 10
211.1588601661
 20
700.357574057
 11
209.8969546273
 21
691.1036001055
  0
LINE
  5
21E
100
AcDbEntity
  8
レイヤ1
  6
CONTINUOUS
 62
     0
100
AcDbLine
 10
209.8969546273
 20
691.1036001055
 11
212.8414008846
 21
682.6908965132
  0
LINE
  5
21F
100
AcDbEntity
  8
レイヤ1
  6
CONTINUOUS
 62
     0
100
AcDbLine
 10
212.8414008846
 20
682.6908965132
 11
217.88902304
 21
682.2702613336
  0
LINE
  5
220
100
AcDbEntity
  8
レイヤ1
  6
CONTINUOUS
 62
     0
100
AcDbLine
 10
217.88902304
 20
682.2702613336
 11
226.3017266322
 21
690.6829649259
  0
LINE
  5
221
100
AcDbEntity
  8
レイヤ1
  6
CONTINUOUS
 62
     0
100
AcDbLine
 10
226.3017266322
 20
690.6829649259
 11
234.2937950449
 21
703.3020203143
  0
LINE
  5
222
100
AcDbEntity
  8
レイヤ1
  6
CONTINUOUS
 62
     0
100
AcDbLine
 10
243.1271338168
 20
702.0401147755
 11
238.9207820207
 21
696.5718574405
  0
LINE
  5
223
100
AcDbEntity
  8
レイヤ1
  6
CONTINUOUS
 62
     0
100
AcDbLine
 10
234.2937950449
 20
703.3020203143
 11
245.2303097149
 21
683.9528020521
  0
LINE
  5
224
100
AcDbEntity
  8
レイヤ1
  6
CONTINUOUS
 62
     0
100
AcDbLine
 10
245.2303097149
 20
683.9528020521
 11
247.7541207925
 21
672.5956522025
  0
LINE
  5
225
100
AcDbEntity
  8
レイヤ1
  6
CONTINUOUS
 62
     0
100
AcDbLine
 10
255.3255540256
 20
647.3575414257
 11
283.9287462393
 21
575.8495608913
  0
LINE
  5
226
100
AcDbEntity
  8
レイヤ1
  6
CONTINUOUS
 62
     0
100
AcDbLine
 10
283.9287462393
 20
575.8495608913
 11
314.6351143511
 21
502.6590396385
  0
LINE
  5
227
100
AcDbEntity
  8
レイヤ1
  6
CONTINUOUS
 62
     0
100
AcDbLine
 10
314.6351143511
 20
502.6590396385
 11
354.1748212348
 21
420.6351796138
  0
LINE
  5
228
100
AcDbEntity
  8
レイヤ1
  6
CONTINUOUS
 62
     0
100
AcDbLine
 10
354.1748212348
 20
420.6351796138
 11
392.8732577593
 21
334.404967793
  0
LINE
  5
229
100
AcDbEntity
  8
レイヤ1
  6
CONTINUOUS
 62
     0
100
AcDbLine
 10
392.8732577593
 20
334.404967793
 11
416.0081926381
 21
287.7144628559
  0
LINE
  5
22A
100
AcDbEntity
  8
レイヤ1
  6
CONTINUOUS
 62
     0
100
AcDbLine
 10
416.0081926381
 20
287.7144628559
 11
423.1589906915
 21
267.5239742344
  0
LINE
  5
22B
100
AcDbEntity
  8
レイヤ1
  6
CONTINUOUS
 62
     0
100
AcDbLine
 10
423.1589906915
 20
267.5239742344
 11
428.6272480265
 21
254.904918846
  0
LINE
  5
22C
100
AcDbEntity
  8
レイヤ1
  6
CONTINUOUS
 62
     0
100
AcDbLine
 10
428.6272480265
 20
254.904918846
 11
387.825635604
 21
230.5080784284
  0
LINE
  5
22D
100
AcDbEntity
  8
レイヤ1
  6
CONTINUOUS
 62
     0
100
AcDbLine
 10
387.825635604
 20
230.5080784284
 11
339.4525899484
 21
199.8017103166
  0
LINE
  5
22E
100
AcDbEntity
  8
レイヤ1
  6
CONTINUOUS
 62
     0
100
AcDbLine
 10
339.4525899484
 20
199.8017103166
 11
281.8255703413
 21
167.4128014863
  0
LINE
  5
22F
100
AcDbEntity
  8
レイヤ1
  6
CONTINUOUS
 62
     0
100
AcDbLine
 10
281.8255703413
 20
167.4128014863
 11
226.3017266322
 21
141.7540555299
  0
LINE
  5
230
100
AcDbEntity
  8
レイヤ1
  6
CONTINUOUS
 62
     0
100
AcDbLine
 10
226.3017266322
 20
141.7540555299
 11
193.4921826224
 21
136.2857981949
  0
LINE
  5
231
100
AcDbEntity
  8
レイヤ1
  6
CONTINUOUS
 62
     0
100
AcDbLine
 10
193.4921826224
 20
136.2857981949
 11
164.8889904086
 21
140.0715148114
  0
LINE
  5
232
100
AcDbEntity
  8
レイヤ1
  6
CONTINUOUS
 62
     0
100
AcDbLine
 10
164.8889904086
 20
140.0715148114
 11
128.7143649618
 21
163.6270848698
  0
LINE
  5
233
100
AcDbEntity
  8
レイヤ1
  6
CONTINUOUS
 62
     0
100
AcDbLine
 10
128.7143649618
 20
163.6270848698
 11
105.1587949035
 21
200.2223454962
  0
LINE
  5
234
100
AcDbEntity
  8
レイヤ1
  6
CONTINUOUS
 62
     0
100
AcDbLine
 10
105.1587949035
 20
200.2223454962
 11
85.80957664122
 21
251.1192022295
  0
LINE
  5
235
100
AcDbEntity
  8
レイヤ1
  6
CONTINUOUS
 62
     0
100
AcDbLine
 10
85.80957664122
 20
251.1192022295
 11
71.92861571397
 21
302.0160589627
  0
LINE
  5
236
100
AcDbEntity
  8
レイヤ1
  6
CONTINUOUS
 62
     0
100
AcDbLine
 10
71.92861571397
 20
302.0160589627
 11
58.3039434344
 21
322.7754394255
  0
LINE
  5
237
100
AcDbEntity
  8
レイヤ1
  6
CONTINUOUS
 62
     0
100
AcDbLine
 10
58.3039434344
 20
322.7754394255
 11
54.69751394361
 21
353.4300900972
  0
LINE
  5
238
100
AcDbEntity
  8
レイヤ1
  6
CONTINUOUS
 62
     0
100
AcDbLine
 10
54.69751394361
 20
353.4300900972
 11
63.11251608878
 21
378.6750965327
  0
LINE
  5
239
100
AcDbEntity
  8
レイヤ1
  6
CONTINUOUS
 62
     0
100
AcDbLine
 10
63.11251608878
 20
378.6750965327
 11
72.72966139755
 21
414.7393914406
  0
LINE
  5
23A
100
AcDbEntity
  8
レイヤ1
  6
CONTINUOUS
 62
     0
100
AcDbLine
 10
72.72966139755
 20
414.7393914406
 11
81.74573512452
 21
432.7715388945
  0
LINE
  5
23B
100
AcDbEntity
  8
レイヤ1
  6
CONTINUOUS
 62
     0
100
AcDbLine
 10
81.74573512452
 20
432.7715388945
 11
92.56502359688
 21
503.0969139648
  0
LINE
  5
23C
100
AcDbEntity
  8
レイヤ1
  6
CONTINUOUS
 62
     0
100
AcDbLine
 10
92.56502359688
 20
503.0969139648
 11
100.9524431073
 21
576.6908312506
  0
LINE
  5
23D
100
AcDbEntity
  8
レイヤ1
  6
CONTINUOUS
 62
     0
100
AcDbLine
 10
100.9524431073
 20
576.6908312506
 11
104.5864552328
 21
662.3808831413
  0
LINE
  5
23E
100
AcDbEntity
  8
レイヤ1
  6
CONTINUOUS
 62
     0
100
AcDbLine
 10
104.5864552328
 20
662.3808831413
 11
105.1875268146
 21
753.7437635746
  0
LINE
  5
23F
100
AcDbEntity
  8
レイヤ1
  6
CONTINUOUS
 62
     0
100
AcDbLine
 10
120.8153879414
 20
176.1139734668
 11
119.012173196
 21
157.4807544311
  0
LINE
  5
240
100
AcDbEntity
  8
レイヤ1
  6
CONTINUOUS
 62
     0
100
AcDbLine
 10
119.012173196
 20
157.4807544311
 11
125.022889014
 21
123.8207458504
  0
LINE
  5
241
100
AcDbEntity
  8
レイヤ1
  6
CONTINUOUS
 62
     0
100
AcDbLine
 10
125.022889014
 20
123.8207458504
 11
131.0336048319
 21
100.980025742
  0
LINE
  5
242
100
AcDbEntity
  8
レイヤ1
  6
CONTINUOUS
 62
     0
100
AcDbLine
 10
131.0336048319
 20
100.980025742
 11
127.4271753412
 21
84.15002145171
  0
LINE
  5
243
100
AcDbEntity
  8
レイヤ1
  6
CONTINUOUS
 62
     0
100
AcDbLine
 10
127.4271753412
 20
84.15002145171
 11
99.77788257845
 21
58.3039434344
  0
LINE
  5
244
100
AcDbEntity
  8
レイヤ1
  6
CONTINUOUS
 62
     0
100
AcDbLine
 10
99.77788257845
 20
58.3039434344
 11
57.7028718526
 21
46.28251179844
  0
LINE
  5
245
100
AcDbEntity
  8
レイヤ1
  6
CONTINUOUS
 62
     0
100
AcDbLine
 10
57.7028718526
 20
46.28251179844
 11
12.02143163596
 21
39.06965281686
  0
LINE
  5
246
100
AcDbEntity
  8
レイヤ1
  6
CONTINUOUS
 62
     0
100
AcDbLine
 10
12.02143163596
 20
39.06965281686
 11
-58.90501501619
 21
39.06965281686
  0
LINE
  5
247
100
AcDbEntity
  8
レイヤ1
  6
CONTINUOUS
 62
     0
100
AcDbLine
 10
-58.90501501619
 20
39.06965281686
 11
-116.6078868688
 21
52.29322761642
  0
LINE
  5
248
100
AcDbEntity
  8
レイヤ1
  6
CONTINUOUS
 62
     0
100
AcDbLine
 10
-116.6078868688
 20
52.29322761642
 11
-140.6507501407
 21
58.90501501619
  0
LINE
  5
249
100
AcDbEntity
  8
レイヤ1
  6
CONTINUOUS
 62
     0
100
AcDbLine
 10
-140.6507501407
 20
58.90501501619
 11
-176.7150450486
 21
75.13394772474
  0
LINE
  5
24A
100
AcDbEntity
  8
レイヤ1
  6
CONTINUOUS
 62
     0
100
AcDbLine
 10
-176.7150450486
 20
75.13394772474
 11
-235.018988483
 21
94.96930992407
  0
LINE
  5
24B
100
AcDbEntity
  8
レイヤ1
  6
CONTINUOUS
 62
     0
100
AcDbLine
 10
-235.018988483
 20
94.96930992407
 11
-230.2104158286
 21
129.8314616683
  0
LINE
  5
24C
100
AcDbEntity
  8
レイヤ1
  6
CONTINUOUS
 62
     0
100
AcDbLine
 10
-230.2104158286
 20
129.8314616683
 11
-221.7954136834
 21
184.528975612
  0
LINE
  5
24D
100
AcDbEntity
  8
レイヤ1
  6
CONTINUOUS
 62
     0
100
AcDbLine
 10
-221.7954136834
 20
184.528975612
 11
-218.1889841926
 21
222.997556847
  0
LINE
  5
24E
100
AcDbEntity
  8
レイヤ1
  6
CONTINUOUS
 62
     0
100
AcDbLine
 10
125.022889014
 20
123.8207458504
 11
132.2357479955
 21
116.6078868688
  0
LINE
  5
24F
100
AcDbEntity
  8
レイヤ1
  6
CONTINUOUS
 62
     0
100
AcDbLine
 10
132.2357479955
 20
116.6078868688
 11
132.8368195773
 21
80.54359196092
  0
LINE
  5
250
100
AcDbEntity
  8
レイヤ1
  6
CONTINUOUS
 62
     0
100
AcDbLine
 10
132.8368195773
 20
80.54359196092
 11
115.4057437052
 21
46.28251179844
  0
LINE
  5
251
100
AcDbEntity
  8
レイヤ1
  6
CONTINUOUS
 62
     0
100
AcDbLine
 10
115.4057437052
 20
46.28251179844
 11
87.75645094249
 21
17.43107587214
  0
LINE
  5
252
100
AcDbEntity
  8
レイヤ1
  6
CONTINUOUS
 62
     0
100
AcDbLine
 10
87.75645094249
 20
17.43107587214
 11
70.32537507036
 21
13.22357479955
  0
LINE
  5
253
100
AcDbEntity
  8
レイヤ1
  6
CONTINUOUS
 62
     0
100
AcDbLine
 10
70.32537507036
 20
13.22357479955
 11
42.07501072585
 21
12.02143163596
  0
LINE
  5
254
100
AcDbEntity
  8
レイヤ1
  6
CONTINUOUS
 62
     0
100
AcDbLine
 10
42.07501072585
 20
12.02143163596
 11
22.84072010832
 21
17.43107587214
  0
LINE
  5
255
100
AcDbEntity
  8
レイヤ1
  6
CONTINUOUS
 62
     0
100
AcDbLine
 10
22.84072010832
 20
17.43107587214
 11
17.43107587214
 21
21.63857694472
  0
LINE
  5
256
100
AcDbEntity
  8
レイヤ1
  6
CONTINUOUS
 62
     0
100
AcDbLine
 10
17.43107587214
 20
21.63857694472
 11
1.803214745394
 21
23.44179169012
  0
LINE
  5
257
100
AcDbEntity
  8
レイヤ1
  6
CONTINUOUS
 62
     0
100
AcDbLine
 10
1.803214745394
 20
23.44179169012
 11
-15.62786112675
 21
0.6010715817979
  0
LINE
  5
258
100
AcDbEntity
  8
レイヤ1
  6
CONTINUOUS
 62
     0
100
AcDbLine
 10
-15.62786112675
 20
0.6010715817979
 11
-27.04822118091
 21
-4.808572654383
  0
LINE
  5
259
100
AcDbEntity
  8
レイヤ1
  6
CONTINUOUS
 62
     0
100
AcDbLine
 10
-27.04822118091
 20
-4.808572654383
 11
-48.08572654383
 21
-9.016073726969
  0
LINE
  5
25A
100
AcDbEntity
  8
レイヤ1
  6
CONTINUOUS
 62
     0
100
AcDbLine
 10
-48.08572654383
 20
-9.016073726969
 11
-73.93180456114
 21
-7.813930563373
  0
LINE
  5
25B
100
AcDbEntity
  8
レイヤ1
  6
CONTINUOUS
 62
     0
100
AcDbLine
 10
-73.93180456114
 20
-7.813930563373
 11
-87.75645094249
 21
-4.207501072585
  0
LINE
  5
25C
100
AcDbEntity
  8
レイヤ1
  6
CONTINUOUS
 62
     0
100
AcDbLine
 10
-87.75645094249
 20
-4.207501072585
 11
-90.76180885148
 21
0.6010715817979
  0
LINE
  5
25D
100
AcDbEntity
  8
レイヤ1
  6
CONTINUOUS
 62
     0
100
AcDbLine
 10
-90.76180885148
 20
0.6010715817979
 11
-94.36823834227
 21
19.23429061753
  0
LINE
  5
25E
100
AcDbEntity
  8
レイヤ1
  6
CONTINUOUS
 62
     0
100
AcDbLine
 10
-94.36823834227
 20
19.23429061753
 11
-88.95859410609
 21
13.82464638135
  0
LINE
  5
25F
100
AcDbEntity
  8
レイヤ1
  6
CONTINUOUS
 62
     0
100
AcDbLine
 10
-88.95859410609
 20
13.82464638135
 11
-74.53287614294
 21
10.81928847236
  0
LINE
  5
260
100
AcDbEntity
  8
レイヤ1
  6
CONTINUOUS
 62
     0
100
AcDbLine
 10
-74.53287614294
 20
10.81928847236
 11
-36.66536648967
 21
10.81928847236
  0
LINE
  5
261
100
AcDbEntity
  8
レイヤ1
  6
CONTINUOUS
 62
     0
100
AcDbLine
 10
-36.66536648967
 20
10.81928847236
 11
-25.84607801731
 21
13.82464638135
  0
LINE
  5
262
100
AcDbEntity
  8
レイヤ1
  6
CONTINUOUS
 62
     0
100
AcDbLine
 10
-25.84607801731
 20
13.82464638135
 11
-14.42571796315
 21
24.04286327192
  0
LINE
  5
263
100
AcDbEntity
  8
レイヤ1
  6
CONTINUOUS
 62
     0
100
AcDbLine
 10
-14.42571796315
 20
24.04286327192
 11
-9.617145308767
 21
33.05893699888
  0
LINE
  5
264
100
AcDbEntity
  8
レイヤ1
  6
CONTINUOUS
 62
     0
100
AcDbLine
 10
-9.617145308767
 20
33.05893699888
 11
-8.415002145171
 21
39.06965281686
  0
LINE
  5
265
100
AcDbEntity
  8
レイヤ1
  6
CONTINUOUS
 62
     0
100
AcDbLine
 10
-90.76180885148
 20
0.6010715817979
 11
-90.66417309275
 21
-5.887283967062
  0
LINE
  5
266
100
AcDbEntity
  8
レイヤ1
  6
CONTINUOUS
 62
     0
100
AcDbLine
 10
-90.66417309275
 20
-5.887283967062
 11
-85.65998172075
 21
-9.714018545652
  0
LINE
  5
267
100
AcDbEntity
  8
レイヤ1
  6
CONTINUOUS
 62
     0
100
AcDbLine
 10
-85.65998172075
 20
-9.714018545652
 11
-72.11922859651
 21
-11.77456793412
  0
LINE
  5
268
100
AcDbEntity
  8
レイヤ1
  6
CONTINUOUS
 62
     0
100
AcDbLine
 10
-72.11922859651
 20
-11.77456793412
 11
-52.98555570355
 21
-12.65766052918
  0
LINE
  5
269
100
AcDbEntity
  8
レイヤ1
  6
CONTINUOUS
 62
     0
100
AcDbLine
 10
-52.98555570355
 20
-12.65766052918
 11
-35.32370380237
 21
-11.18583953742
  0
LINE
  5
26A
100
AcDbEntity
  8
レイヤ1
  6
CONTINUOUS
 62
     0
100
AcDbLine
 10
-35.32370380237
 20
-11.18583953742
 11
-22.66604327319
 21
-7.064740760474
  0
LINE
  5
26B
100
AcDbEntity
  8
レイヤ1
  6
CONTINUOUS
 62
     0
100
AcDbLine
 10
-22.66604327319
 20
-7.064740760474
 11
-14.4238457193
 21
-1.177456793412
  0
LINE
  5
26C
100
AcDbEntity
  8
レイヤ1
  6
CONTINUOUS
 62
     0
100
AcDbLine
 10
-14.4238457193
 20
-1.177456793412
 11
-5.298555570355
 21
8.242197553886
  0
LINE
  5
26D
100
AcDbEntity
  8
レイヤ1
  6
CONTINUOUS
 62
     0
100
AcDbLine
 10
-5.298555570355
 20
8.242197553886
 11
-2.060549388472
 21
15.89566671107
  0
LINE
  5
26E
100
AcDbEntity
  8
レイヤ1
  6
CONTINUOUS
 62
     0
100
AcDbLine
 10
-2.060549388472
 20
15.89566671107
 11
-1.766185190118
 21
18.54494449624
  0
LINE
  5
26F
100
AcDbEntity
  8
レイヤ1
  6
CONTINUOUS
 62
     0
100
AcDbLine
 10
14.83190316444
 20
22.04185609159
 11
15.24390047456
 21
15.24390047456
  0
LINE
  5
270
100
AcDbEntity
  8
レイヤ1
  6
CONTINUOUS
 62
     0
100
AcDbLine
 10
15.24390047456
 20
15.24390047456
 11
20.18786819604
 21
11.53592468345
  0
LINE
  5
271
100
AcDbEntity
  8
レイヤ1
  6
CONTINUOUS
 62
     0
100
AcDbLine
 10
20.18786819604
 20
11.53592468345
 11
36.46176194591
 21
6.591956961972
  0
LINE
  5
272
100
AcDbEntity
  8
レイヤ1
  6
CONTINUOUS
 62
     0
100
AcDbLine
 10
36.46176194591
 20
6.591956961972
 11
65.09557499947
 21
5.973960996787
  0
LINE
  5
273
100
AcDbEntity
  8
レイヤ1
  6
CONTINUOUS
 62
     0
100
AcDbLine
 10
65.09557499947
 20
5.973960996787
 11
76.2195023728
 21
8.445944857527
  0
LINE
  5
274
100
AcDbEntity
  8
レイヤ1
  6
CONTINUOUS
 62
     0
100
AcDbLine
 10
76.2195023728
 20
8.445944857527
 11
89.19235210098
 21
15.89566671107
  0
LINE
  5
275
100
AcDbEntity
  8
レイヤ1
  6
CONTINUOUS
 62
     0
100
AcDbLine
 10
89.19235210098
 20
15.89566671107
 11
100.9669200351
 21
24.13786426495
  0
LINE
  5
276
100
AcDbEntity
  8
レイヤ1
  6
CONTINUOUS
 62
     0
100
AcDbLine
 10
100.9669200351
 20
24.13786426495
 11
113.9189447626
 21
39.44480257931
  0
LINE
  5
277
100
AcDbEntity
  8
レイヤ1
  6
CONTINUOUS
 62
     0
100
AcDbLine
 10
113.9189447626
 20
39.44480257931
 11
125.9878768951
 21
62.99393844756
  0
LINE
  5
278
100
AcDbEntity
  8
レイヤ1
  6
CONTINUOUS
 62
     0
100
AcDbLine
 10
125.9878768951
 20
62.99393844756
 11
129.5202472754
 21
71.23613600145
  0
LINE
  5
279
100
AcDbEntity
  8
レイヤ1
  6
CONTINUOUS
 62
     0
100
AcDbLine
 10
129.5202472754
 20
71.23613600145
 11
130.9920682671
 21
76.82905577015
  0
LINE
  5
27A
100
AcDbEntity
  8
レイヤ1
  6
CONTINUOUS
 62
     0
100
AcDbLine
 10
117.7456793412
 20
75.65159897674
 11
117.7456793412
 21
68.58685821627
  0
LINE
  5
27B
100
AcDbEntity
  8
レイヤ1
  6
CONTINUOUS
 62
     0
100
AcDbLine
 10
117.7456793412
 20
68.58685821627
 11
108.6203891923
 21
48.57009272826
  0
LINE
  5
27C
100
AcDbEntity
  8
レイヤ1
  6
CONTINUOUS
 62
     0
100
AcDbLine
 10
108.6203891923
 20
48.57009272826
 11
99.20073484499
 21
39.44480257931
  0
LINE
  5
27D
100
AcDbEntity
  8
レイヤ1
  6
CONTINUOUS
 62
     0
100
AcDbLine
 10
99.20073484499
 20
39.44480257931
 11
83.59943233228
 21
35.32370380237
  0
LINE
  5
27E
100
AcDbEntity
  8
レイヤ1
  6
CONTINUOUS
 62
     0
100
AcDbLine
 10
83.59943233228
 20
35.32370380237
 11
62.69957424921
 21
33.8518828106
  0
LINE
  5
27F
100
AcDbEntity
  8
レイヤ1
  6
CONTINUOUS
 62
     0
100
AcDbLine
 10
62.69957424921
 20
33.8518828106
 11
55.92919768709
 21
40.03353097602
  0
LINE
  5
280
100
AcDbEntity
  8
レイヤ1
  6
CONTINUOUS
 62
     0
100
AcDbLine
 10
55.92919768709
 20
40.03353097602
 11
57.7028718526
 21
46.28251179844
  0
LINE
  5
281
100
AcDbEntity
  8
レイヤ1
  6
CONTINUOUS
 62
     0
100
AcDbLine
 10
-98.05535980933
 20
48.20368528442
 11
-100.1153463599
 21
41.40572966739
  0
LINE
  5
282
100
AcDbEntity
  8
レイヤ1
  6
CONTINUOUS
 62
     0
100
AcDbLine
 10
-100.1153463599
 20
41.40572966739
 11
-100.1153463599
 21
32.13579018961
  0
LINE
  5
283
100
AcDbEntity
  8
レイヤ1
  6
CONTINUOUS
 62
     0
100
AcDbLine
 10
-100.1153463599
 20
32.13579018961
 11
-95.99537325872
 21
23.27784802196
  0
LINE
  5
284
100
AcDbEntity
  8
レイヤ1
  6
CONTINUOUS
 62
     0
100
AcDbLine
 10
-95.99537325872
 20
23.27784802196
 11
-92.28739746761
 21
17.92188299036
  0
LINE
  5
285
100
AcDbEntity
  8
レイヤ1
  6
CONTINUOUS
 62
     0
100
AcDbLine
 10
-92.28739746761
 20
17.92188299036
 11
-82.19346336959
 21
16.89188971505
  0
LINE
  5
286
100
AcDbEntity
  8
レイヤ1
  6
CONTINUOUS
 62
     0
100
AcDbLine
 10
-82.19346336959
 20
16.89188971505
 11
-71.68753196144
 21
17.92188299036
  0
LINE
  5
287
100
AcDbEntity
  8
レイヤ1
  6
CONTINUOUS
 62
     0
100
AcDbLine
 10
-71.68753196144
 20
17.92188299036
 11
-64.88957634441
 21
22.04185609159
  0
LINE
  5
288
100
AcDbEntity
  8
レイヤ1
  6
CONTINUOUS
 62
     0
100
AcDbLine
 10
-64.88957634441
 20
22.04185609159
 11
-60.97560189824
 21
28.83981170863
  0
LINE
  5
289
100
AcDbEntity
  8
レイヤ1
  6
CONTINUOUS
 62
     0
100
AcDbLine
 10
-60.97560189824
 20
28.83981170863
 11
-59.32761265775
 21
33.78377943011
  0
LINE
  5
28A
100
AcDbEntity
  8
レイヤ1
  6
CONTINUOUS
 62
     0
100
AcDbLine
 10
-59.32761265775
 20
33.78377943011
 11
-59.94560862293
 21
37.07975791109
  0
LINE
  5
28B
100
AcDbEntity
  8
レイヤ1
  6
CONTINUOUS
 62
     0
100
AcDbLine
 10
-59.94560862293
 20
37.07975791109
 11
-62.41759248367
 21
39.75774042689
  0
LINE
  5
28C
100
AcDbEntity
  8
レイヤ1
  6
CONTINUOUS
 62
     0
100
AcDbLine
 10
-51.29366511034
 20
39.13974446171
 11
-57.06162745207
 21
35.63776732566
  0
LINE
  5
28D
100
AcDbEntity
  8
レイヤ1
  6
CONTINUOUS
 62
     0
100
AcDbLine
 10
-57.06162745207
 20
35.63776732566
 11
-59.32761265775
 21
33.78377943011
  0
LINE
  5
28E
100
AcDbEntity
  8
レイヤ1
  6
CONTINUOUS
 62
     0
100
AcDbLine
 10
-59.32761265775
 20
33.78377943011
 11
-61.38759920836
 21
26.77982515801
  0
LINE
  5
28F
100
AcDbEntity
  8
レイヤ1
  6
CONTINUOUS
 62
     0
100
AcDbLine
 10
-61.38759920836
 20
26.77982515801
 11
-61.38759920836
 21
20.3938668511
  0
LINE
  5
290
100
AcDbEntity
  8
レイヤ1
  6
CONTINUOUS
 62
     0
100
AcDbLine
 10
-61.38759920836
 20
20.3938668511
 11
-58.70961669256
 21
17.30388702518
  0
LINE
  5
291
100
AcDbEntity
  8
レイヤ1
  6
CONTINUOUS
 62
     0
100
AcDbLine
 10
-58.70961669256
 20
17.30388702518
 11
-52.73565569578
 21
16.06789509481
  0
LINE
  5
292
100
AcDbEntity
  8
レイヤ1
  6
CONTINUOUS
 62
     0
100
AcDbLine
 10
-52.73565569578
 20
16.06789509481
 11
-34.19577674023
 21
15.0379018195
  0
LINE
  5
293
100
AcDbEntity
  8
レイヤ1
  6
CONTINUOUS
 62
     0
100
AcDbLine
 10
-34.19577674023
 20
15.0379018195
 11
-29.25180901875
 21
16.68589105999
  0
LINE
  5
294
100
AcDbEntity
  8
レイヤ1
  6
CONTINUOUS
 62
     0
100
AcDbLine
 10
-29.25180901875
 20
16.68589105999
 11
-19.36387357579
 21
24.92583726246
  0
LINE
  5
295
100
AcDbEntity
  8
レイヤ1
  6
CONTINUOUS
 62
     0
100
AcDbLine
 10
-19.36387357579
 20
24.92583726246
 11
-12.97791526888
 21
31.72379287949
  0
LINE
  5
296
100
AcDbEntity
  8
レイヤ1
  6
CONTINUOUS
 62
     0
100
AcDbLine
 10
-12.97791526888
 20
31.72379287949
 11
-11.74192333851
 21
36.04976463578
  0
LINE
  5
297
100
AcDbEntity
  8
レイヤ1
  6
CONTINUOUS
 62
     0
100
AcDbLine
 10
-11.74192333851
 20
36.04976463578
 11
-10.91792871827
 21
39.13974446171
  0
LINE
  5
298
100
AcDbEntity
  8
レイヤ1
  6
CONTINUOUS
 62
     0
100
AcDbLine
 10
59.31438596815
 20
36.94270689331
 11
45.62645074473
 21
36.50116059578
  0
LINE
  5
299
100
AcDbEntity
  8
レイヤ1
  6
CONTINUOUS
 62
     0
100
AcDbLine
 10
45.62645074473
 20
36.50116059578
 11
33.8518828106
 21
37.38425319084
  0
LINE
  5
29A
100
AcDbEntity
  8
レイヤ1
  6
CONTINUOUS
 62
     0
100
AcDbLine
 10
33.8518828106
 20
37.38425319084
 11
22.07731487648
 21
40.32789517437
  0
LINE
  5
29B
100
AcDbEntity
  8
レイヤ1
  6
CONTINUOUS
 62
     0
100
AcDbLine
 10
-101.1679790775
 20
1321.928259946
 11
-106.8413356219
 21
1325.421450963
  0
LINE
  5
29C
100
AcDbEntity
  8
レイヤ1
  6
CONTINUOUS
 62
     0
100
AcDbLine
 10
-106.8413356219
 20
1325.421450963
 11
-116.515944753
 21
1322.477004706
  0
LINE
  5
29D
100
AcDbEntity
  8
レイヤ1
  6
CONTINUOUS
 62
     0
100
AcDbLine
 10
-116.515944753
 20
1322.477004706
 11
-128.5366651511
 21
1310.069137648
  0
LINE
  5
29E
100
AcDbEntity
  8
レイヤ1
  6
CONTINUOUS
 62
     0
100
AcDbLine
 10
-128.5366651511
 20
1310.069137648
 11
-136.2857981949
 21
1303.127786444
  0
LINE
  5
29F
100
AcDbEntity
  8
レイヤ1
  6
CONTINUOUS
 62
     0
100
AcDbLine
 10
-136.2857981949
 20
1303.127786444
 11
-151.8492998406
 21
1294.294447672
  0
LINE
  5
2A0
100
AcDbEntity
  8
レイヤ1
  6
CONTINUOUS
 62
     0
100
AcDbLine
 10
-151.8492998406
 20
1294.294447672
 11
-156.896921996
 21
1286.723014439
  0
LINE
  5
2A1
100
AcDbEntity
  8
レイヤ1
  6
CONTINUOUS
 62
     0
100
AcDbLine
 10
-156.896921996
 20
1286.723014439
 11
-189.7064660058
 21
1274.94522941
  0
LINE
  5
2A2
100
AcDbEntity
  8
レイヤ1
  6
CONTINUOUS
 62
     0
100
AcDbLine
 10
-189.7064660058
 20
1274.94522941
 11
-197.6985344185
 21
1274.94522941
  0
LINE
  5
2A3
100
AcDbEntity
  8
レイヤ1
  6
CONTINUOUS
 62
     0
100
AcDbLine
 10
-197.6985344185
 20
1274.94522941
 11
-219.1509285788
 21
1262.746809201
  0
LINE
  5
2A4
100
AcDbEntity
  8
レイヤ1
  6
CONTINUOUS
 62
     0
100
AcDbLine
 10
-390.3494466816
 20
716.762346062
 11
-370.5795932398
 21
693.2067760036
  0
LINE
  5
2A5
100
AcDbEntity
  8
レイヤ1
  6
CONTINUOUS
 62
     0
100
AcDbLine
 10
-370.5795932398
 20
693.2067760036
 11
-367.2145118029
 21
691.1036001055
  0
LINE
  5
2A6
100
AcDbEntity
  8
レイヤ1
  6
CONTINUOUS
 62
     0
100
AcDbLine
 10
-367.2145118029
 20
691.1036001055
 11
-360.9049841087
 21
701.6194795959
  0
LINE
  5
2A7
100
AcDbEntity
  8
レイヤ1
  6
CONTINUOUS
 62
     0
100
AcDbLine
 10
-361.7462544679
 20
721.3893330377
 11
-358.381173031
 21
700.7782092366
  0
LINE
  5
2A8
100
AcDbEntity
  8
レイヤ1
  6
CONTINUOUS
 62
     0
100
AcDbLine
 10
-358.381173031
 20
700.7782092366
 11
-356.2779971329
 21
693.2067760036
  0
LINE
  5
2A9
100
AcDbEntity
  8
レイヤ1
  6
CONTINUOUS
 62
     0
100
AcDbLine
 10
-356.2779971329
 20
693.2067760036
 11
-350.8097397979
 21
689.0004242075
  0
LINE
  5
2AA
100
AcDbEntity
  8
レイヤ1
  6
CONTINUOUS
 62
     0
100
AcDbLine
 10
-350.8097397979
 20
689.0004242075
 11
-345.341482463
 21
690.6829649259
  0
LINE
  5
2AB
100
AcDbEntity
  8
レイヤ1
  6
CONTINUOUS
 62
     0
100
AcDbLine
 10
-345.341482463
 20
690.6829649259
 11
-341.5557658464
 21
694.889316722
  0
LINE
  5
2AC
100
AcDbEntity
  8
レイヤ1
  6
CONTINUOUS
 62
     0
100
AcDbLine
 10
-341.5557658464
 20
694.889316722
 11
-338.6113195891
 21
702.4607499551
  0
LINE
  5
2AD
100
AcDbEntity
  8
レイヤ1
  6
CONTINUOUS
 62
     0
100
AcDbLine
 10
-367.2145118029
 20
691.1036001055
 11
-372.6827691379
 21
675.1194632802
  0
LINE
  5
2AE
100
AcDbEntity
  8
レイヤ1
  6
CONTINUOUS
 62
     0
100
AcDbLine
 10
-372.6827691379
 20
675.1194632802
 11
-381.9367430894
 21
646.9369062461
  0
LINE
  5
2AF
100
AcDbEntity
  8
レイヤ1
  6
CONTINUOUS
 62
     0
100
AcDbLine
 10
-381.9367430894
 20
646.9369062461
 11
-399.6034206331
 21
606.5559290031
  0
LINE
  5
2B0
100
AcDbEntity
  8
レイヤ1
  6
CONTINUOUS
 62
     0
100
AcDbLine
 10
-399.6034206331
 20
606.5559290031
 11
-426.944707308
 21
536.7304891872
  0
LINE
  5
2B1
100
AcDbEntity
  8
レイヤ1
  6
CONTINUOUS
 62
     0
100
AcDbLine
 10
-426.944707308
 20
536.7304891872
 11
-457.6510754198
 21
461.4367920364
  0
LINE
  5
2B2
100
AcDbEntity
  8
レイヤ1
  6
CONTINUOUS
 62
     0
100
AcDbLine
 10
-457.6510754198
 20
461.4367920364
 11
-482.0479158375
 21
409.6986649439
  0
LINE
  5
2B3
100
AcDbEntity
  8
レイヤ1
  6
CONTINUOUS
 62
     0
100
AcDbLine
 10
-482.0479158375
 20
409.6986649439
 11
-498.4526878424
 21
365.952606264
  0
LINE
  5
2B4
100
AcDbEntity
  8
レイヤ1
  6
CONTINUOUS
 62
     0
100
AcDbLine
 10
-498.4526878424
 20
365.952606264
 11
-516.5400005658
 21
326.8335345599
  0
LINE
  5
2B5
100
AcDbEntity
  8
レイヤ1
  6
CONTINUOUS
 62
     0
100
AcDbLine
 10
-516.5400005658
 20
326.8335345599
 11
-537.1511243669
 21
292.3414498316
  0
LINE
  5
2B6
100
AcDbEntity
  8
レイヤ1
  6
CONTINUOUS
 62
     0
100
AcDbLine
 10
-537.1511243669
 20
292.3414498316
 11
-537.1511243669
 21
287.2938276762
  0
LINE
  5
2B7
100
AcDbEntity
  8
レイヤ1
  6
CONTINUOUS
 62
     0
100
AcDbLine
 10
-537.1511243669
 20
287.2938276762
 11
-531.6828670319
 21
280.984299982
  0
LINE
  5
2B8
100
AcDbEntity
  8
レイヤ1
  6
CONTINUOUS
 62
     0
100
AcDbLine
 10
-531.6828670319
 20
280.984299982
 11
-478.2621992209
 21
230.928713608
  0
LINE
  5
2B9
100
AcDbEntity
  8
レイヤ1
  6
CONTINUOUS
 62
     0
100
AcDbLine
 10
-478.2621992209
 20
230.928713608
 11
-418.9526388954
 21
193.4921826224
  0
LINE
  5
2BA
100
AcDbEntity
  8
レイヤ1
  6
CONTINUOUS
 62
     0
100
AcDbLine
 10
-418.9526388954
 20
193.4921826224
 11
-366.7938766233
 21
163.6270848698
  0
LINE
  5
2BB
100
AcDbEntity
  8
レイヤ1
  6
CONTINUOUS
 62
     0
100
AcDbLine
 10
-366.7938766233
 20
163.6270848698
 11
-333.1430622542
 21
147.6429480445
  0
LINE
  5
2BC
100
AcDbEntity
  8
レイヤ1
  6
CONTINUOUS
 62
     0
100
AcDbLine
 10
-333.1430622542
 20
147.6429480445
 11
-310.8493977346
 21
146.3810425056
  0
LINE
  5
2BD
100
AcDbEntity
  8
レイヤ1
  6
CONTINUOUS
 62
     0
100
AcDbLine
 10
-310.8493977346
 20
146.3810425056
 11
-282.6668407005
 21
152.2699350202
  0
LINE
  5
2BE
100
AcDbEntity
  8
レイヤ1
  6
CONTINUOUS
 62
     0
100
AcDbLine
 10
-282.6668407005
 20
152.2699350202
 11
-262.8969872586
 21
164.0477200494
  0
LINE
  5
2BF
100
AcDbEntity
  8
レイヤ1
  6
CONTINUOUS
 62
     0
100
AcDbLine
 10
-262.8969872586
 20
164.0477200494
 11
-245.6509448945
 21
181.7143975932
  0
LINE
  5
2C0
100
AcDbEntity
  8
レイヤ1
  6
CONTINUOUS
 62
     0
100
AcDbLine
 10
-245.6509448945
 20
181.7143975932
 11
-231.7699839672
 21
198.5398047777
  0
LINE
  5
2C1
100
AcDbEntity
  8
レイヤ1
  6
CONTINUOUS
 62
     0
100
AcDbLine
 10
-231.7699839672
 20
198.5398047777
 11
-218.1889841926
 21
222.997556847
  0
LINE
  5
2C2
100
AcDbEntity
  8
レイヤ1
  6
CONTINUOUS
 62
     0
100
AcDbLine
 10
-218.1889841926
 20
222.997556847
 11
-188.9598256876
 21
296.3233630101
  0
LINE
  5
2C3
100
AcDbEntity
  8
レイヤ1
  6
CONTINUOUS
 62
     0
100
AcDbLine
 10
-188.9598256876
 20
296.3233630101
 11
-155.462402043
 21
371.0483849866
  0
LINE
  5
2C4
100
AcDbEntity
  8
レイヤ1
  6
CONTINUOUS
 62
     0
100
AcDbLine
 10
-155.462402043
 20
371.0483849866
 11
-181.2296510004
 21
551.4191276884
  0
LINE
  5
2C5
100
AcDbEntity
  8
レイヤ1
  6
CONTINUOUS
 62
     0
100
AcDbLine
 10
-181.2296510004
 20
551.4191276884
 11
-195.8310920763
 21
719.7651542101
  0
LINE
  5
2C6
100
AcDbEntity
  8
レイヤ1
  6
CONTINUOUS
 62
     0
100
AcDbLine
 10
-54.79564224639
 20
1264.831742078
 11
-55.8256355217
 21
1259.063779737
  0
LINE
  5
2C7
100
AcDbEntity
  8
レイヤ1
  6
CONTINUOUS
 62
     0
100
AcDbLine
 10
-55.8256355217
 20
1259.063779737
 11
-56.64963014195
 21
1259.063779737
  0
LINE
  5
2C8
100
AcDbEntity
  8
レイヤ1
  6
CONTINUOUS
 62
     0
100
AcDbLine
 10
-56.64963014195
 20
1259.063779737
 11
-57.26762610713
 21
1265.655736699
  0
LINE
  5
2C9
100
AcDbEntity
  8
レイヤ1
  6
CONTINUOUS
 62
     0
100
AcDbLine
 10
-65.30157365453
 20
1217.246052759
 11
-62.62359113873
 21
1216.010060829
  0
LINE
  5
2CA
100
AcDbEntity
  8
レイヤ1
  6
CONTINUOUS
 62
     0
100
AcDbLine
 10
-62.62359113873
 20
1216.010060829
 11
-24.51383995233
 21
1269.36371249
  0
LINE
  5
2CB
100
AcDbEntity
  8
レイヤ1
  6
CONTINUOUS
 62
     0
100
AcDbLine
 10
-56.64963014195
 20
1259.063779737
 11
-66.23194462944
 21
1248.104201017
  0
LINE
  5
2CC
100
AcDbEntity
  8
レイヤ1
  6
CONTINUOUS
 62
     0
100
AcDbLine
 10
-66.23194462944
 20
1248.104201017
 11
-73.29668538992
 21
1236.623997281
  0
LINE
  5
2CD
100
AcDbEntity
  8
レイヤ1
  6
CONTINUOUS
 62
     0
100
AcDbLine
 10
-62.62359113873
 20
1216.010060829
 11
-70.35304340639
 21
1207.776305843
  0
LINE
  5
2CE
100
AcDbEntity
  8
レイヤ1
  6
CONTINUOUS
 62
     0
100
AcDbLine
 10
-70.35304340639
 20
1207.776305843
 11
-100.6725558368
 21
1159.794941511
  0
LINE
  5
2CF
100
AcDbEntity
  8
レイヤ1
  6
CONTINUOUS
 62
     0
100
AcDbLine
 10
-100.6725558368
 20
1159.794941511
 11
-120.1005929281
 21
1123.293780915
  0
LINE
  5
2D0
100
AcDbEntity
  8
レイヤ1
  6
CONTINUOUS
 62
     0
100
AcDbLine
 10
-120.1005929281
 20
1123.293780915
 11
-133.9357102507
 21
1087.086984518
  0
LINE
  5
2D1
100
AcDbEntity
  8
レイヤ1
  6
CONTINUOUS
 62
     0
100
AcDbLine
 10
-25.90404945507
 20
1258.112583761
 11
-47.98136433155
 21
1224.26070095
  0
LINE
  5
2D2
100
AcDbEntity
  8
レイヤ1
  6
CONTINUOUS
 62
     0
100
AcDbLine
 10
-47.98136433155
 20
1224.26070095
 11
-60.93338905909
 21
1204.538299661
  0
LINE
  5
2D3
100
AcDbEntity
  8
レイヤ1
  6
CONTINUOUS
 62
     0
100
AcDbLine
 10
-60.93338905909
 20
1204.538299661
 11
-87.42616691087
 21
1168.037139065
  0
LINE
  5
2D4
100
AcDbEntity
  8
レイヤ1
  6
CONTINUOUS
 62
     0
100
AcDbLine
 10
-87.42616691087
 20
1168.037139065
 11
-107.7372965972
 21
1128.886700684
  0
LINE
  5
2D5
100
AcDbEntity
  8
レイヤ1
  6
CONTINUOUS
 62
     0
100
AcDbLine
 10
-107.7372965972
 20
1128.886700684
 11
-126.8709694902
 21
1086.498256121
  0
LINE
  5
2D6
100
AcDbEntity
  8
レイヤ1
  6
CONTINUOUS
 62
     0
100
AcDbLine
 10
102.7331052252
 20
1270.77024429
 11
123.3385991099
 21
1255.168941778
  0
LINE
  5
2D7
100
AcDbEntity
  8
レイヤ1
  6
CONTINUOUS
 62
     0
100
AcDbLine
 10
123.3385991099
 20
1255.168941778
 11
136.5849880358
 21
1236.329633083
  0
LINE
  5
2D8
100
AcDbEntity
  8
レイヤ1
  6
CONTINUOUS
 62
     0
100
AcDbLine
 10
136.5849880358
 20
1236.329633083
 11
153.0693831436
 21
1204.243935462
  0
LINE
  5
2D9
100
AcDbEntity
  8
レイヤ1
  6
CONTINUOUS
 62
     0
100
AcDbLine
 10
153.0693831436
 20
1204.243935462
 11
177.2072474086
 21
1135.657077246
  0
LINE
  5
2DA
100
AcDbEntity
  8
レイヤ1
  6
CONTINUOUS
 62
     0
100
AcDbLine
 10
177.2072474086
 20
1135.657077246
 11
196.6352844999
 21
1089.441898105
  0
LINE
  5
2DB
100
AcDbEntity
  8
レイヤ1
  6
CONTINUOUS
 62
     0
100
AcDbLine
 10
196.6352844999
 20
1089.441898105
 11
201.0507474752
 21
1068.83640422
  0
LINE
  5
2DC
100
AcDbEntity
  8
レイヤ1
  6
CONTINUOUS
 62
     0
100
AcDbLine
 10
201.0507474752
 20
1068.83640422
 11
210.7647660208
 21
1042.637990567
  0
LINE
  5
2DD
100
AcDbEntity
  8
レイヤ1
  6
CONTINUOUS
 62
     0
100
AcDbLine
 10
210.7647660208
 20
1042.637990567
 11
228.1322537236
 21
980.8215089125
  0
LINE
  5
2DE
100
AcDbEntity
  8
レイヤ1
  6
CONTINUOUS
 62
     0
100
AcDbLine
 10
228.1322537236
 20
980.8215089125
 11
244.3222846331
 21
920.7712124484
  0
LINE
  5
2DF
100
AcDbEntity
  8
レイヤ1
  6
CONTINUOUS
 62
     0
100
AcDbLine
 10
244.3222846331
 20
920.7712124484
 11
254.9193957738
 21
888.9798790263
  0
LINE
  5
2E0
100
AcDbEntity
  8
レイヤ1
  6
CONTINUOUS
 62
     0
100
AcDbLine
 10
254.9193957738
 20
888.9798790263
 11
263.455957526
 21
848.0632554552
  0
LINE
  5
2E1
100
AcDbEntity
  8
レイヤ1
  6
CONTINUOUS
 62
     0
100
AcDbLine
 10
263.455957526
 20
848.0632554552
 11
273.7587044684
 21
802.7311689089
  0
LINE
  5
2E2
100
AcDbEntity
  8
レイヤ1
  6
CONTINUOUS
 62
     0
100
AcDbLine
 10
273.7587044684
 20
802.7311689089
 11
275.5248896585
 21
791.5453293714
  0
LINE
  5
2E3
100
AcDbEntity
  8
レイヤ1
  6
CONTINUOUS
 62
     0
100
AcDbLine
 10
275.5248896585
 20
791.5453293714
 11
282.2952662206
 21
776.2383910571
  0
LINE
  5
2E4
100
AcDbEntity
  8
レイヤ1
  6
CONTINUOUS
 62
     0
100
AcDbLine
 10
282.2952662206
 20
776.2383910571
 11
279.9403526338
 21
766.8187367098
  0
LINE
  5
2E5
100
AcDbEntity
  8
レイヤ1
  6
CONTINUOUS
 62
     0
100
AcDbLine
 10
279.9403526338
 20
766.8187367098
 11
276.7023464519
 21
765.6412799164
  0
LINE
  5
2E6
100
AcDbEntity
  8
レイヤ1
  6
CONTINUOUS
 62
     0
100
AcDbLine
 10
276.7023464519
 20
765.6412799164
 11
232.2533525006
 21
755.0441687757
  0
LINE
  5
2E7
100
AcDbEntity
  8
レイヤ1
  6
CONTINUOUS
 62
     0
100
AcDbLine
 10
232.2533525006
 20
755.0441687757
 11
221.0675129632
 21
755.0441687757
  0
LINE
  5
2E8
100
AcDbEntity
  8
レイヤ1
  6
CONTINUOUS
 62
     0
100
AcDbLine
 10
221.0675129632
 20
755.0441687757
 11
216.9464141862
 21
756.8103539658
  0
LINE
  5
2E9
100
AcDbEntity
  8
レイヤ1
  6
CONTINUOUS
 62
     0
100
AcDbLine
 10
216.9464141862
 20
756.8103539658
 11
193.1029141196
 21
820.9817492067
  0
LINE
  5
2EA
100
AcDbEntity
  8
レイヤ1
  6
CONTINUOUS
 62
     0
100
AcDbLine
 10
193.1029141196
 20
820.9817492067
 11
175.7354264168
 21
863.0758295712
  0
LINE
  5
2EB
100
AcDbEntity
  8
レイヤ1
  6
CONTINUOUS
 62
     0
100
AcDbLine
 10
175.7354264168
 20
863.0758295712
 11
156.6017535238
 21
910.1741013077
  0
LINE
  5
2EC
100
AcDbEntity
  8
レイヤ1
  6
CONTINUOUS
 62
     0
100
AcDbLine
 10
156.6017535238
 20
910.1741013077
 11
135.1131670441
 21
960.5103792261
  0
LINE
  5
2ED
100
AcDbEntity
  8
レイヤ1
  6
CONTINUOUS
 62
     0
100
AcDbLine
 10
135.1131670441
 20
960.5103792261
 11
110.9753027791
 21
1023.504317674
  0
LINE
  5
2EE
100
AcDbEntity
  8
レイヤ1
  6
CONTINUOUS
 62
     0
100
AcDbLine
 10
110.9753027791
 20
1023.504317674
 11
96.84582125816
 21
1053.235101707
  0
LINE
  5
2EF
100
AcDbEntity
  8
レイヤ1
  6
CONTINUOUS
 62
     0
100
AcDbLine
 10
96.84582125816
 20
1053.235101707
 11
96.25709286146
 21
1062.654756055
  0
LINE
  5
2F0
100
AcDbEntity
  8
レイヤ1
  6
CONTINUOUS
 62
     0
100
AcDbLine
 10
96.25709286146
 20
1062.654756055
 11
83.59943233228
 21
1081.494064749
  0
LINE
  5
2F1
100
AcDbEntity
  8
レイヤ1
  6
CONTINUOUS
 62
     0
100
AcDbLine
 10
83.59943233228
 20
1081.494064749
 11
95.07963606805
 21
1103.865743824
  0
LINE
  5
2F2
100
AcDbEntity
  8
レイヤ1
  6
CONTINUOUS
 62
     0
100
AcDbLine
 10
95.07963606805
 20
1103.865743824
 11
102.7331052252
 21
1128.592336486
  0
LINE
  5
2F3
100
AcDbEntity
  8
レイヤ1
  6
CONTINUOUS
 62
     0
100
AcDbLine
 10
102.7331052252
 20
1128.592336486
 11
108.6203891923
 21
1154.202021742
  0
LINE
  5
2F4
100
AcDbEntity
  8
レイヤ1
  6
CONTINUOUS
 62
     0
100
AcDbLine
 10
108.6203891923
 20
1154.202021742
 11
109.5034817873
 21
1173.041330437
  0
LINE
  5
2F5
100
AcDbEntity
  8
レイヤ1
  6
CONTINUOUS
 62
     0
100
AcDbLine
 10
109.5034817873
 20
1173.041330437
 11
110.3865743824
 21
1210.719947826
  0
LINE
  5
2F6
100
AcDbEntity
  8
レイヤ1
  6
CONTINUOUS
 62
     0
100
AcDbLine
 10
276.7023464519
 20
765.6412799164
 11
277.1985833655
 21
749.9925252515
  0
LINE
  5
2F7
100
AcDbEntity
  8
レイヤ1
  6
CONTINUOUS
 62
     0
100
AcDbLine
 10
277.1985833655
 20
749.9925252515
 11
279.7223944432
 21
740.3179161203
  0
LINE
  5
2F8
100
AcDbEntity
  8
レイヤ1
  6
CONTINUOUS
 62
     0
100
AcDbLine
 10
279.7223944432
 20
740.3179161203
 11
280.1430296228
 21
718.0242516008
  0
LINE
  5
2F9
100
AcDbEntity
  8
レイヤ1
  6
CONTINUOUS
 62
     0
100
AcDbLine
 10
280.1430296228
 20
718.0242516008
 11
283.0874758801
 21
709.6115480085
  0
LINE
  5
2FA
100
AcDbEntity
  8
レイヤ1
  6
CONTINUOUS
 62
     0
100
AcDbLine
 10
283.0874758801
 20
709.6115480085
 11
281.8255703413
 21
701.6194795959
  0
LINE
  5
2FB
100
AcDbEntity
  8
レイヤ1
  6
CONTINUOUS
 62
     0
100
AcDbLine
 10
243.1271338168
 20
702.0401147755
 11
239.3414172003
 21
706.2464665716
  0
LINE
  5
2FC
100
AcDbEntity
  8
レイヤ1
  6
CONTINUOUS
 62
     0
100
AcDbLine
 10
226.6604327319
 20
755.0441687757
 11
225.460456273
 21
743.2623623776
  0
LINE
  5
2FD
100
AcDbEntity
  8
レイヤ1
  6
CONTINUOUS
 62
     0
100
AcDbLine
 10
225.460456273
 20
743.2623623776
 11
227.9842673507
 21
735.6909291446
  0
LINE
  5
2FE
100
AcDbEntity
  8
レイヤ1
  6
CONTINUOUS
 62
     0
100
AcDbLine
 10
227.9842673507
 20
735.6909291446
 11
227.9842673507
 21
728.1194959115
  0
LINE
  5
2FF
100
AcDbEntity
  8
レイヤ1
  6
CONTINUOUS
 62
     0
100
AcDbLine
 10
227.9842673507
 20
728.1194959115
 11
215.7858471419
 21
707.9290072901
  0
LINE
  5
300
100
AcDbEntity
  8
レイヤ1
  6
CONTINUOUS
 62
     0
100
AcDbLine
 10
234.2937950449
 20
703.3020203143
 11
239.3414172003
 21
706.2464665716
  0
LINE
  5
301
100
AcDbEntity
  8
レイヤ1
  6
CONTINUOUS
 62
     0
100
AcDbLine
 10
239.3414172003
 20
706.2464665716
 11
244.8096745352
 21
718.0242516008
  0
LINE
  5
302
100
AcDbEntity
  8
レイヤ1
  6
CONTINUOUS
 62
     0
100
AcDbLine
 10
244.8096745352
 20
718.0242516008
 11
256.5874595644
 21
727.6988607319
  0
LINE
  5
303
100
AcDbEntity
  8
レイヤ1
  6
CONTINUOUS
 62
     0
100
AcDbLine
 10
221.0675129632
 20
755.0441687757
 11
219.5715637584
 21
743.2623623776
  0
LINE
  5
304
100
AcDbEntity
  8
レイヤ1
  6
CONTINUOUS
 62
     0
100
AcDbLine
 10
216.9464141862
 20
756.8103539658
 11
219.5715637584
 21
743.2623623776
  0
LINE
  5
305
100
AcDbEntity
  8
レイヤ1
  6
CONTINUOUS
 62
     0
100
AcDbLine
 10
219.5715637584
 20
743.2623623776
 11
225.460456273
 21
725.5956848339
  0
LINE
  5
306
100
AcDbEntity
  8
レイヤ1
  6
CONTINUOUS
 62
     0
100
AcDbLine
 10
105.1875268146
 20
753.7437635746
 11
104.5864552328
 21
818.6594944087
  0
LINE
  5
307
100
AcDbEntity
  8
レイヤ1
  6
CONTINUOUS
 62
     0
100
AcDbLine
 10
104.5864552328
 20
818.6594944087
 11
107.5918131418
 21
878.7666525885
  0
LINE
  5
308
100
AcDbEntity
  8
レイヤ1
  6
CONTINUOUS
 62
     0
100
AcDbLine
 10
107.5918131418
 20
878.7666525885
 11
100.980025742
 21
911.8255895874
  0
LINE
  5
309
100
AcDbEntity
  8
レイヤ1
  6
CONTINUOUS
 62
     0
100
AcDbLine
 10
100.980025742
 20
911.8255895874
 11
100.3789541603
 21
950.8952424043
  0
LINE
  5
30A
100
AcDbEntity
  8
レイヤ1
  6
CONTINUOUS
 62
     0
100
AcDbLine
 10
-219.1509285788
 20
1262.746809201
 11
-241.0239579187
 21
1242.1356854
  0
LINE
  5
30B
100
AcDbEntity
  8
レイヤ1
  6
CONTINUOUS
 62
     0
100
AcDbLine
 10
-241.0239579187
 20
1242.1356854
 11
-246.9128504333
 21
1218.159480162
  0
LINE
  5
30C
100
AcDbEntity
  8
レイヤ1
  6
CONTINUOUS
 62
     0
100
AcDbLine
 10
-246.9128504333
 20
1218.159480162
 11
-254.0636484868
 21
1204.278519234
  0
LINE
  5
30D
100
AcDbEntity
  8
レイヤ1
  6
CONTINUOUS
 62
     0
100
AcDbLine
 10
-254.0636484868
 20
1204.278519234
 11
-264.5795279771
 21
1176.0959622
  0
LINE
  5
30E
100
AcDbEntity
  8
レイヤ1
  6
CONTINUOUS
 62
     0
100
AcDbLine
 10
-264.5795279771
 20
1176.0959622
 11
-300.3335182443
 21
1098.278453972
  0
LINE
  5
30F
100
AcDbEntity
  8
レイヤ1
  6
CONTINUOUS
 62
     0
100
AcDbLine
 10
-300.3335182443
 20
1098.278453972
 11
-318.8414661473
 21
1055.373665651
  0
LINE
  5
310
100
AcDbEntity
  8
レイヤ1
  6
CONTINUOUS
 62
     0
100
AcDbLine
 10
-318.8414661473
 20
1055.373665651
 11
-339.873225128
 21
983.8656851168
  0
LINE
  5
311
100
AcDbEntity
  8
レイヤ1
  6
CONTINUOUS
 62
     0
100
AcDbLine
 10
-339.873225128
 20
983.8656851168
 11
-349.5478342591
 21
947.69105967
  0
LINE
  5
312
100
AcDbEntity
  8
レイヤ1
  6
CONTINUOUS
 62
     0
100
AcDbLine
 10
-349.5478342591
 20
947.69105967
 11
-360.0637137494
 21
897.2148381163
  0
LINE
  5
313
100
AcDbEntity
  8
レイヤ1
  6
CONTINUOUS
 62
     0
100
AcDbLine
 10
-360.0637137494
 20
897.2148381163
 11
-365.1113359048
 21
881.230701291
  0
LINE
  5
314
100
AcDbEntity
  8
レイヤ1
  6
CONTINUOUS
 62
     0
100
AcDbLine
 10
-365.1113359048
 20
881.230701291
 11
-367.2145118029
 21
856.4132256938
  0
LINE
  5
315
100
AcDbEntity
  8
レイヤ1
  6
CONTINUOUS
 62
     0
100
AcDbLine
 10
-367.2145118029
 20
856.4132256938
 11
-394.1351632982
 21
792.0560432128
  0
LINE
  5
316
100
AcDbEntity
  8
レイヤ1
  6
CONTINUOUS
 62
     0
100
AcDbLine
 10
-394.1351632982
 20
792.0560432128
 11
-394.9764336574
 21
786.5877858779
  0
LINE
  5
317
100
AcDbEntity
  8
レイヤ1
  6
CONTINUOUS
 62
     0
100
AcDbLine
 10
-394.9764336574
 20
786.5877858779
 11
-389.5081763224
 21
783.222704441
  0
LINE
  5
318
100
AcDbEntity
  8
レイヤ1
  6
CONTINUOUS
 62
     0
100
AcDbLine
 10
-389.5081763224
 20
783.222704441
 11
-381.9367430894
 21
771.4449194118
  0
LINE
  5
319
100
AcDbEntity
  8
レイヤ1
  6
CONTINUOUS
 62
     0
100
AcDbLine
 10
-381.9367430894
 20
771.4449194118
 11
-372.2621339582
 21
765.1353917176
  0
LINE
  5
31A
100
AcDbEntity
  8
レイヤ1
  6
CONTINUOUS
 62
     0
100
AcDbLine
 10
-372.2621339582
 20
765.1353917176
 11
-352.4922805164
 21
760.9290399214
  0
LINE
  5
31B
100
AcDbEntity
  8
レイヤ1
  6
CONTINUOUS
 62
     0
100
AcDbLine
 10
-352.4922805164
 20
760.9290399214
 11
-340.2938603076
 21
757.5639584845
  0
LINE
  5
31C
100
AcDbEntity
  8
レイヤ1
  6
CONTINUOUS
 62
     0
100
AcDbLine
 10
-340.2938603076
 20
757.5639584845
 11
-335.2462381522
 21
752.5163363291
  0
LINE
  5
31D
100
AcDbEntity
  8
レイヤ1
  6
CONTINUOUS
 62
     0
100
AcDbLine
 10
-335.2462381522
 20
752.5163363291
 11
-327.2541697396
 21
776.0719063875
  0
LINE
  5
31E
100
AcDbEntity
  8
レイヤ1
  6
CONTINUOUS
 62
     0
100
AcDbLine
 10
-327.2541697396
 20
776.0719063875
 11
-309.1668570162
 21
816.8735188101
  0
LINE
  5
31F
100
AcDbEntity
  8
レイヤ1
  6
CONTINUOUS
 62
     0
100
AcDbLine
 10
-309.1668570162
 20
816.8735188101
 11
-296.5478016278
 21
845.8973462034
  0
LINE
  5
320
100
AcDbEntity
  8
レイヤ1
  6
CONTINUOUS
 62
     0
100
AcDbLine
 10
-296.5478016278
 20
845.8973462034
 11
-262.0557168994
 21
922.0323137135
  0
LINE
  5
321
100
AcDbEntity
  8
レイヤ1
  6
CONTINUOUS
 62
     0
100
AcDbLine
 10
-262.0557168994
 20
922.0323137135
 11
-243.968404176
 21
963.2545613157
  0
LINE
  5
322
100
AcDbEntity
  8
レイヤ1
  6
CONTINUOUS
 62
     0
100
AcDbLine
 10
-243.968404176
 20
963.2545613157
 11
-224.6191859138
 21
1009.103795894
  0
LINE
  5
323
100
AcDbEntity
  8
レイヤ1
  6
CONTINUOUS
 62
     0
100
AcDbLine
 10
-224.6191859138
 20
1009.103795894
 11
-213.6826712438
 21
1046.960962059
  0
LINE
  5
324
100
AcDbEntity
  8
レイヤ1
  6
CONTINUOUS
 62
     0
100
AcDbLine
 10
-213.6826712438
 20
1046.960962059
 11
-219.1509285788
 21
1061.683193345
  0
LINE
  5
325
100
AcDbEntity
  8
レイヤ1
  6
CONTINUOUS
 62
     0
100
AcDbLine
 10
-219.1509285788
 20
1061.683193345
 11
-229.2461728895
 21
1089.4451152
  0
LINE
  5
326
100
AcDbEntity
  8
レイヤ1
  6
CONTINUOUS
 62
     0
100
AcDbLine
 10
-229.2461728895
 20
1089.4451152
 11
-239.3414172003
 21
1128.564186904
  0
LINE
  5
327
100
AcDbEntity
  8
レイヤ1
  6
CONTINUOUS
 62
     0
100
AcDbLine
 10
-239.3414172003
 20
1128.564186904
 11
-243.5477689964
 21
1164.318177171
  0
LINE
  5
328
100
AcDbEntity
  8
レイヤ1
  6
CONTINUOUS
 62
     0
100
AcDbLine
 10
-243.5477689964
 20
1164.318177171
 11
-246.0715800741
 21
1197.127721181
  0
LINE
  5
329
100
AcDbEntity
  8
レイヤ1
  6
CONTINUOUS
 62
     0
100
AcDbLine
 10
-246.0715800741
 20
1197.127721181
 11
-244.8096745352
 21
1221.524561599
  0
LINE
  5
32A
100
AcDbEntity
  8
レイヤ1
  6
CONTINUOUS
 62
     0
100
AcDbLine
 10
-244.8096745352
 20
1221.524561599
 11
-240.6033227391
 21
1242.976955759
  0
LINE
  5
32B
100
AcDbEntity
  8
レイヤ1
  6
CONTINUOUS
 62
     0
100
AcDbLine
 10
-164.6936134126
 20
1268.261037594
 11
-157.4807544311
 21
1224.983883704
  0
LINE
  5
32C
100
AcDbEntity
  8
レイヤ1
  6
CONTINUOUS
 62
     0
100
AcDbLine
 10
-157.4807544311
 20
1224.983883704
 11
-137.6453922317
 21
1160.06815287
  0
LINE
  5
32D
100
AcDbEntity
  8
レイヤ1
  6
CONTINUOUS
 62
     0
100
AcDbLine
 10
-137.6453922317
 20
1160.06815287
 11
-120.1005929281
 21
1123.293780915
  0
LINE
  5
32E
100
AcDbEntity
  8
レイヤ1
  6
CONTINUOUS
 62
     0
100
AcDbLine
 10
-213.6826712438
 20
1046.960962059
 11
-206.1675525567
 21
1034.444192274
  0
LINE
  5
32F
100
AcDbEntity
  8
レイヤ1
  6
CONTINUOUS
 62
     0
100
AcDbLine
 10
-206.1675525567
 20
1034.444192274
 11
-207.9707673021
 21
1023.624903802
  0
LINE
  5
330
100
AcDbEntity
  8
レイヤ1
  6
CONTINUOUS
 62
     0
100
AcDbLine
 10
-207.9707673021
 20
1023.624903802
 11
-214.5825547019
 21
998.3798973663
  0
LINE
  5
331
100
AcDbEntity
  8
レイヤ1
  6
CONTINUOUS
 62
     0
100
AcDbLine
 10
-214.5825547019
 20
998.3798973663
 11
-242.2318474646
 21
936.4695244411
  0
LINE
  5
332
100
AcDbEntity
  8
レイヤ1
  6
CONTINUOUS
 62
     0
100
AcDbLine
 10
-242.2318474646
 20
936.4695244411
 11
-272.2854265545
 21
875.1602230978
  0
LINE
  5
333
100
AcDbEntity
  8
レイヤ1
  6
CONTINUOUS
 62
     0
100
AcDbLine
 10
-272.2854265545
 20
875.1602230978
 11
-291.519717172
 21
834.2873555355
  0
LINE
  5
334
100
AcDbEntity
  8
レイヤ1
  6
CONTINUOUS
 62
     0
100
AcDbLine
 10
-291.519717172
 20
834.2873555355
 11
-318.5679383529
 21
778.9887700101
  0
LINE
  5
335
100
AcDbEntity
  8
レイヤ1
  6
CONTINUOUS
 62
     0
100
AcDbLine
 10
-318.5679383529
 20
778.9887700101
 11
-342.009730043
 21
732.1051866299
  0
LINE
  5
336
100
AcDbEntity
  8
レイヤ1
  6
CONTINUOUS
 62
     0
100
AcDbLine
 10
-381.9367430894
 20
771.4449194118
 11
-385.3018245263
 21
754.6195122272
  0
LINE
  5
337
100
AcDbEntity
  8
レイヤ1
  6
CONTINUOUS
 62
     0
100
AcDbLine
 10
-385.3018245263
 20
754.6195122272
 11
-391.6113522205
 21
727.2782255523
  0
LINE
  5
338
100
AcDbEntity
  8
レイヤ1
  6
CONTINUOUS
 62
     0
100
AcDbLine
 10
-391.6113522205
 20
727.2782255523
 11
-390.3494466816
 21
716.762346062
  0
LINE
  5
339
100
AcDbEntity
  8
レイヤ1
  6
CONTINUOUS
 62
     0
100
AcDbLine
 10
-373.1034043175
 20
741.1591864796
 11
-364.6907007252
 21
735.270293965
  0
LINE
  5
33A
100
AcDbEntity
  8
レイヤ1
  6
CONTINUOUS
 62
     0
100
AcDbLine
 10
-364.6907007252
 20
735.270293965
 11
-361.7462544679
 21
721.3893330377
  0
LINE
  5
33B
100
AcDbEntity
  8
レイヤ1
  6
CONTINUOUS
 62
     0
100
AcDbLine
 10
-338.6113195891
 20
702.4607499551
 11
-341.1351306668
 21
717.6036164212
  0
LINE
  5
33C
100
AcDbEntity
  8
レイヤ1
  6
CONTINUOUS
 62
     0
100
AcDbLine
 10
-341.1351306668
 20
717.6036164212
 11
-343.6589417445
 21
736.1115643242
  0
LINE
  5
33D
100
AcDbEntity
  8
レイヤ1
  6
CONTINUOUS
 62
     0
100
AcDbLine
 10
-343.6589417445
 20
736.1115643242
 11
-339.4525899484
 21
742.841727198
  0
LINE
  5
33E
100
AcDbEntity
  8
レイヤ1
  6
CONTINUOUS
 62
     0
100
AcDbLine
 10
-339.4525899484
 20
742.841727198
 11
-335.2462381522
 21
752.5163363291
  0
LINE
  5
33F
100
AcDbEntity
  8
レイヤ1
  6
CONTINUOUS
 62
     0
100
AcDbLine
 10
-195.8310920763
 20
719.7651542101
 11
-207.8558082564
 21
835.7177745184
  0
LINE
  5
340
100
AcDbEntity
  8
レイヤ1
  6
CONTINUOUS
 62
     0
100
AcDbLine
 10
-207.8558082564
 20
835.7177745184
 11
-213.0092580479
 21
853.7548487886
  0
LINE
  5
341
100
AcDbEntity
  8
レイヤ1
  6
CONTINUOUS
 62
     0
100
AcDbLine
 10
-213.0092580479
 20
853.7548487886
 11
-213.0092580479
 21
885.5344558361
  0
LINE
  5
342
100
AcDbEntity
  8
レイヤ1
  6
CONTINUOUS
 62
     0
100
AcDbLine
 10
-213.0092580479
 20
885.5344558361
 11
-208.714716555
 21
904.4304384048
  0
LINE
  5
343
100
AcDbEntity
  8
レイヤ1
  6
CONTINUOUS
 62
     0
100
AcDbLine
 10
-208.714716555
 20
904.4304384048
 11
-206.1379916592
 21
974.0020105898
  0
LINE
  5
344
100
AcDbEntity
  8
レイヤ1
  6
CONTINUOUS
 62
     0
100
AcDbLine
 10
-206.1379916592
 20
974.0020105898
 11
-203.5612667635
 21
983.4500018742
  0
LINE
  5
345
100
AcDbEntity
  8
レイヤ1
  6
CONTINUOUS
 62
     0
100
AcDbLine
 10
-203.5612667635
 20
983.4500018742
 11
-201.8434501663
 21
990.3212682628
  0
LINE
  5
346
100
AcDbEntity
  8
レイヤ1
  6
CONTINUOUS
 62
     0
100
AcDbLine
 10
-201.8434501663
 20
990.3212682628
 11
-199.2667252706
 21
995.4747180543
  0
LINE
  5
347
100
AcDbEntity
  8
レイヤ1
  6
CONTINUOUS
 62
     0
100
AcDbLine
 10
-196.0159937
 20
1004.056173738
 11
-197.2778992389
 21
1016.254593947
  0
LINE
  5
348
100
AcDbEntity
  8
レイヤ1
  6
CONTINUOUS
 62
     0
100
AcDbLine
 10
-197.2778992389
 20
1016.254593947
 11
-197.6985344185
 21
1028.873649335
  0
LINE
  5
349
100
AcDbEntity
  8
レイヤ1
  6
CONTINUOUS
 62
     0
100
AcDbLine
 10
-197.6985344185
 20
1028.873649335
 11
-201.9048862146
 21
1034.34190667
  0
LINE
  5
34A
100
AcDbEntity
  8
レイヤ1
  6
CONTINUOUS
 62
     0
100
AcDbLine
 10
-201.9048862146
 20
1034.34190667
 11
-201.484251035
 21
1053.270489753
  0
LINE
  5
34B
100
AcDbEntity
  8
レイヤ1
  6
CONTINUOUS
 62
     0
100
AcDbLine
 10
-201.484251035
 20
1053.270489753
 11
-156.896921996
 21
1049.905408316
  0
LINE
  5
34C
100
AcDbEntity
  8
レイヤ1
  6
CONTINUOUS
 62
     0
100
AcDbLine
 10
-156.896921996
 20
1049.905408316
 11
-139.6508796318
 21
1048.643502777
  0
LINE
  5
34D
100
AcDbEntity
  8
レイヤ1
  6
CONTINUOUS
 62
     0
100
AcDbLine
 10
-139.6508796318
 20
1048.643502777
 11
-57.20638442748
 21
1049.484773137
  0
LINE
  5
34E
100
AcDbEntity
  8
レイヤ1
  6
CONTINUOUS
 62
     0
100
AcDbLine
 10
-57.20638442748
 20
1049.484773137
 11
5.047622155366
 21
1054.111760112
  0
LINE
  5
34F
100
AcDbEntity
  8
レイヤ1
  6
CONTINUOUS
 62
     0
100
AcDbLine
 10
5.047622155366
 20
1054.111760112
 11
46.26986975752
 21
1057.476841549
  0
LINE
  5
350
100
AcDbEntity
  8
レイヤ1
  6
CONTINUOUS
 62
     0
100
AcDbLine
 10
46.26986975752
 20
1057.476841549
 11
60.99210104401
 21
1059.159382268
  0
LINE
  5
351
100
AcDbEntity
  8
レイヤ1
  6
CONTINUOUS
 62
     0
100
AcDbLine
 10
60.99210104401
 20
1059.159382268
 11
72.34925089358
 21
1065.468909962
  0
LINE
  5
352
100
AcDbEntity
  8
レイヤ1
  6
CONTINUOUS
 62
     0
100
AcDbLine
 10
96.74609131118
 20
1055.373665651
 11
78.65877858779
 21
1062.945098884
  0
LINE
  5
353
100
AcDbEntity
  8
レイヤ1
  6
CONTINUOUS
 62
     0
100
AcDbLine
 10
78.65877858779
 20
1062.945098884
 11
72.34925089358
 21
1065.468909962
  0
LINE
  5
354
100
AcDbEntity
  8
レイヤ1
  6
CONTINUOUS
 62
     0
100
AcDbLine
 10
72.34925089358
 20
1065.468909962
 11
55.94447888864
 21
1074.722883913
  0
LINE
  5
355
100
AcDbEntity
  8
レイヤ1
  6
CONTINUOUS
 62
     0
100
AcDbLine
 10
55.94447888864
 20
1074.722883913
 11
23.13493487876
 21
1075.143519093
  0
LINE
  5
356
100
AcDbEntity
  8
レイヤ1
  6
CONTINUOUS
 62
     0
100
AcDbLine
 10
83.59943233228
 20
1081.494064749
 11
39.96034206331
 21
1085.238763404
  0
LINE
  5
357
100
AcDbEntity
  8
レイヤ1
  6
CONTINUOUS
 62
     0
100
AcDbLine
 10
39.96034206331
 20
1085.238763404
 11
-8.83333877189
 21
1084.397493044
  0
LINE
  5
358
100
AcDbEntity
  8
レイヤ1
  6
CONTINUOUS
 62
     0
100
AcDbLine
 10
-8.83333877189
 20
1084.397493044
 11
-38.27780134486
 21
1081.032411608
  0
LINE
  5
359
100
AcDbEntity
  8
レイヤ1
  6
CONTINUOUS
 62
     0
100
AcDbLine
 10
-38.27780134486
 20
1081.032411608
 11
-82.44449520431
 21
1073.460978374
  0
LINE
  5
35A
100
AcDbEntity
  8
レイヤ1
  6
CONTINUOUS
 62
     0
100
AcDbLine
 10
-82.44449520431
 20
1073.460978374
 11
-122.4048372676
 21
1064.207004423
  0
LINE
  5
35B
100
AcDbEntity
  8
レイヤ1
  6
CONTINUOUS
 62
     0
100
AcDbLine
 10
-122.4048372676
 20
1064.207004423
 11
-147.2223128648
 21
1056.21493601
  0
LINE
  5
35C
100
AcDbEntity
  8
レイヤ1
  6
CONTINUOUS
 62
     0
100
AcDbLine
 10
-147.2223128648
 20
1056.21493601
 11
-154.3731109183
 21
1049.905408316
  0
LINE
  5
35D
100
AcDbEntity
  8
レイヤ1
  6
CONTINUOUS
 62
     0
100
AcDbLine
 10
-60.36114827458
 20
1077.246694991
 11
-83.70640074315
 21
1079.770506069
  0
LINE
  5
35E
100
AcDbEntity
  8
レイヤ1
  6
CONTINUOUS
 62
     0
100
AcDbLine
 10
-83.70640074315
 20
1079.770506069
 11
-108.1032411608
 21
1083.976857865
  0
LINE
  5
35F
100
AcDbEntity
  8
レイヤ1
  6
CONTINUOUS
 62
     0
100
AcDbLine
 10
-108.1032411608
 20
1083.976857865
 11
-133.9357102507
 21
1087.086984518
  0
LINE
  5
360
100
AcDbEntity
  8
レイヤ1
  6
CONTINUOUS
 62
     0
100
AcDbLine
 10
-133.9357102507
 20
1087.086984518
 11
-179.6112216951
 21
1081.032411608
  0
LINE
  5
361
100
AcDbEntity
  8
レイヤ1
  6
CONTINUOUS
 62
     0
100
AcDbLine
 10
-179.6112216951
 20
1081.032411608
 11
-202.7461565739
 21
1071.357802476
  0
LINE
  5
362
100
AcDbEntity
  8
レイヤ1
  6
CONTINUOUS
 62
     0
100
AcDbLine
 10
-202.7461565739
 20
1071.357802476
 11
-210.3175898069
 21
1065.889545141
  0
LINE
  5
363
100
AcDbEntity
  8
レイヤ1
  6
CONTINUOUS
 62
     0
100
AcDbLine
 10
-210.3175898069
 20
1065.889545141
 11
-213.6826712438
 21
1046.960962059
  0
LINE
  5
364
100
AcDbEntity
  8
レイヤ1
  6
CONTINUOUS
 62
     0
100
AcDbLine
 10
-197.2778992389
 20
1016.254593947
 11
-202.8169326653
 21
1009.080471954
  0
LINE
  5
365
100
AcDbEntity
  8
レイヤ1
  6
CONTINUOUS
 62
     0
100
AcDbLine
 10
-202.8169326653
 20
1009.080471954
 11
-203.9943894587
 21
1003.781916384
  0
LINE
  5
366
100
AcDbEntity
  8
レイヤ1
  6
CONTINUOUS
 62
     0
100
AcDbLine
 10
-203.9943894587
 20
1003.781916384
 11
-202.8169326653
 21
997.894632417
  0
LINE
  5
367
100
AcDbEntity
  8
レイヤ1
  6
CONTINUOUS
 62
     0
100
AcDbLine
 10
-202.8169326653
 20
997.894632417
 11
-199.2667252706
 21
995.4747180543
  0
LINE
  5
368
100
AcDbEntity
  8
レイヤ1
  6
CONTINUOUS
 62
     0
100
AcDbLine
 10
-199.2667252706
 20
995.4747180543
 11
-181.6908137644
 21
988.1755483306
  0
LINE
  5
369
100
AcDbEntity
  8
レイヤ1
  6
CONTINUOUS
 62
     0
100
AcDbLine
 10
-181.6908137644
 20
988.1755483306
 11
-149.9670208849
 21
982.819583299
  0
LINE
  5
36A
100
AcDbEntity
  8
レイヤ1
  6
CONTINUOUS
 62
     0
100
AcDbLine
 10
-149.9670208849
 20
982.819583299
 11
-98.57573941486
 21
981.549893076
  0
LINE
  5
36B
100
AcDbEntity
  8
レイヤ1
  6
CONTINUOUS
 62
     0
100
AcDbLine
 10
-98.57573941486
 20
981.549893076
 11
-62.51144450698
 21
982.7520362396
  0
LINE
  5
36C
100
AcDbEntity
  8
レイヤ1
  6
CONTINUOUS
 62
     0
100
AcDbLine
 10
-62.51144450698
 20
982.7520362396
 11
-51.09108445282
 21
983.9541794032
  0
LINE
  5
36D
100
AcDbEntity
  8
レイヤ1
  6
CONTINUOUS
 62
     0
100
AcDbLine
 10
-196.0159937
 20
1004.056173738
 11
-187.5343335209
 21
997.7788257845
  0
LINE
  5
36E
100
AcDbEntity
  8
レイヤ1
  6
CONTINUOUS
 62
     0
100
AcDbLine
 10
-187.5343335209
 20
997.7788257845
 11
-169.502186067
 21
993.5713247119
  0
LINE
  5
36F
100
AcDbEntity
  8
レイヤ1
  6
CONTINUOUS
 62
     0
100
AcDbLine
 10
-169.502186067
 20
993.5713247119
 11
-128.6293185048
 21
991.1670383847
  0
LINE
  5
370
100
AcDbEntity
  8
レイヤ1
  6
CONTINUOUS
 62
     0
100
AcDbLine
 10
-128.6293185048
 20
991.1670383847
 11
-89.55966568789
 21
991.7681099665
  0
LINE
  5
371
100
AcDbEntity
  8
レイヤ1
  6
CONTINUOUS
 62
     0
100
AcDbLine
 10
-89.55966568789
 20
991.7681099665
 11
-52.29322761642
 21
995.3745394573
  0
LINE
  5
372
100
AcDbEntity
  8
レイヤ1
  6
CONTINUOUS
 62
     0
100
AcDbLine
 10
-108.1928847236
 20
987.560608894
 11
-78.74037721553
 21
987.560608894
  0
LINE
  5
373
100
AcDbEntity
  8
レイヤ1
  6
CONTINUOUS
 62
     0
100
AcDbLine
 10
-78.74037721553
 20
987.560608894
 11
-52.89429919822
 21
989.3638236394
  0
LINE
  5
374
100
AcDbEntity
  8
レイヤ1
  6
CONTINUOUS
 62
     0
100
AcDbLine
 10
-209.4763194477
 20
900.5799195532
 11
-199.381075137
 21
900.5799195532
  0
LINE
  5
375
100
AcDbEntity
  8
レイヤ1
  6
CONTINUOUS
 62
     0
100
AcDbLine
 10
-199.381075137
 20
900.5799195532
 11
-180.4524920543
 21
894.270391859
  0
LINE
  5
376
100
AcDbEntity
  8
レイヤ1
  6
CONTINUOUS
 62
     0
100
AcDbLine
 10
-180.4524920543
 20
894.270391859
 11
-154.7937460979
 21
888.3814993444
  0
LINE
  5
377
100
AcDbEntity
  8
レイヤ1
  6
CONTINUOUS
 62
     0
100
AcDbLine
 10
-154.7937460979
 20
888.3814993444
 11
-135.4445278357
 21
888.3814993444
  0
LINE
  5
378
100
AcDbEntity
  8
レイヤ1
  6
CONTINUOUS
 62
     0
100
AcDbLine
 10
-105.1587949035
 20
887.1195938056
 11
-74.03179161203
 21
885.4370530871
  0
LINE
  5
379
100
AcDbEntity
  8
レイヤ1
  6
CONTINUOUS
 62
     0
100
AcDbLine
 10
-74.03179161203
 20
885.4370530871
 11
-7.571433233049
 21
887.9608641648
  0
LINE
  5
37A
100
AcDbEntity
  8
レイヤ1
  6
CONTINUOUS
 62
     0
100
AcDbLine
 10
-7.571433233049
 20
887.9608641648
 11
13.03969056803
 21
892.5878511406
  0
LINE
  5
37B
100
AcDbEntity
  8
レイヤ1
  6
CONTINUOUS
 62
     0
100
AcDbLine
 10
13.03969056803
 20
892.5878511406
 11
50.05558637405
 21
898.4767436551
  0
LINE
  5
37C
100
AcDbEntity
  8
レイヤ1
  6
CONTINUOUS
 62
     0
100
AcDbLine
 10
50.05558637405
 20
898.4767436551
 11
80.76195448586
 21
903.9450009901
  0
LINE
  5
37D
100
AcDbEntity
  8
レイヤ1
  6
CONTINUOUS
 62
     0
100
AcDbLine
 10
80.76195448586
 20
903.9450009901
 11
90.85719879659
 21
908.9926231455
  0
LINE
  5
37E
100
AcDbEntity
  8
レイヤ1
  6
CONTINUOUS
 62
     0
100
AcDbLine
 10
90.85719879659
 20
908.9926231455
 11
98.00799685002
 21
917.4053267378
  0
LINE
  5
37F
100
AcDbEntity
  8
レイヤ1
  6
CONTINUOUS
 62
     0
100
AcDbLine
 10
98.00799685002
 20
917.4053267378
 11
100.5318079277
 21
917.8259619174
  0
LINE
  5
380
100
AcDbEntity
  8
レイヤ1
  6
CONTINUOUS
 62
     0
100
AcDbLine
 10
-108.1928847236
 20
987.560608894
 11
-118.1984854715
 21
983.0244147575
  0
LINE
  5
381
100
AcDbEntity
  8
レイヤ1
  6
CONTINUOUS
 62
     0
100
AcDbLine
 10
-118.1984854715
 20
983.0244147575
 11
-123.6667428065
 21
973.770440806
  0
LINE
  5
382
100
AcDbEntity
  8
レイヤ1
  6
CONTINUOUS
 62
     0
100
AcDbLine
 10
-123.6667428065
 20
973.770440806
 11
-123.6667428065
 21
963.6751964953
  0
LINE
  5
383
100
AcDbEntity
  8
レイヤ1
  6
CONTINUOUS
 62
     0
100
AcDbLine
 10
-123.6667428065
 20
963.6751964953
 11
-126.6111890638
 21
961.1513854176
  0
LINE
  5
384
100
AcDbEntity
  8
レイヤ1
  6
CONTINUOUS
 62
     0
100
AcDbLine
 10
-126.6111890638
 20
961.1513854176
 11
-128.2937297822
 21
956.5243984419
  0
LINE
  5
385
100
AcDbEntity
  8
レイヤ1
  6
CONTINUOUS
 62
     0
100
AcDbLine
 10
-128.2937297822
 20
956.5243984419
 11
-127.452459423
 21
948.9529652088
  0
LINE
  5
386
100
AcDbEntity
  8
レイヤ1
  6
CONTINUOUS
 62
     0
100
AcDbLine
 10
-127.452459423
 20
948.9529652088
 11
-121.984202088
 21
946.0085189515
  0
LINE
  5
387
100
AcDbEntity
  8
レイヤ1
  6
CONTINUOUS
 62
     0
100
AcDbLine
 10
-121.984202088
 20
946.0085189515
 11
-117.7778502919
 21
946.0085189515
  0
LINE
  5
388
100
AcDbEntity
  8
レイヤ1
  6
CONTINUOUS
 62
     0
100
AcDbLine
 10
-117.7778502919
 20
946.0085189515
 11
-113.1508633161
 21
947.69105967
  0
LINE
  5
389
100
AcDbEntity
  8
レイヤ1
  6
CONTINUOUS
 62
     0
100
AcDbLine
 10
-113.1508633161
 20
947.69105967
 11
-110.2064170588
 21
952.7386818253
  0
LINE
  5
38A
100
AcDbEntity
  8
レイヤ1
  6
CONTINUOUS
 62
     0
100
AcDbLine
 10
-110.2064170588
 20
952.7386818253
 11
-112.3095929569
 21
959.8894798788
  0
LINE
  5
38B
100
AcDbEntity
  8
レイヤ1
  6
CONTINUOUS
 62
     0
100
AcDbLine
 10
-112.3095929569
 20
959.8894798788
 11
-115.2540392142
 21
963.2545613157
  0
LINE
  5
38C
100
AcDbEntity
  8
レイヤ1
  6
CONTINUOUS
 62
     0
100
AcDbLine
 10
-115.2540392142
 20
963.2545613157
 11
-118.1984854715
 21
964.0958316749
  0
LINE
  5
38D
100
AcDbEntity
  8
レイヤ1
  6
CONTINUOUS
 62
     0
100
AcDbLine
 10
-118.1984854715
 20
964.0958316749
 11
-123.2461076269
 21
963.6751964953
  0
LINE
  5
38E
100
AcDbEntity
  8
レイヤ1
  6
CONTINUOUS
 62
     0
100
AcDbLine
 10
-114.3292535592
 20
982.2015873338
 11
-117.4192333851
 21
976.4336249921
  0
LINE
  5
38F
100
AcDbEntity
  8
レイヤ1
  6
CONTINUOUS
 62
     0
100
AcDbLine
 10
-117.4192333851
 20
976.4336249921
 11
-118.6552253155
 21
970.2536653402
  0
LINE
  5
390
100
AcDbEntity
  8
レイヤ1
  6
CONTINUOUS
 62
     0
100
AcDbLine
 10
-118.6552253155
 20
970.2536653402
 11
-118.1984854715
 21
964.0958316749
  0
LINE
  5
391
100
AcDbEntity
  8
レイヤ1
  6
CONTINUOUS
 62
     0
100
AcDbLine
 10
-121.984202088
 20
946.0085189515
 11
-122.4555065149
 21
930.1908667957
  0
LINE
  5
392
100
AcDbEntity
  8
レイヤ1
  6
CONTINUOUS
 62
     0
100
AcDbLine
 10
-122.4555065149
 20
930.1908667957
 11
-121.5724139198
 21
927.8359532089
  0
LINE
  5
393
100
AcDbEntity
  8
レイヤ1
  6
CONTINUOUS
 62
     0
100
AcDbLine
 10
-121.5724139198
 20
927.8359532089
 11
-115.6851299528
 21
928.719045804
  0
LINE
  5
394
100
AcDbEntity
  8
レイヤ1
  6
CONTINUOUS
 62
     0
100
AcDbLine
 10
-115.6851299528
 20
928.719045804
 11
-116.5682225478
 21
936.0781507628
  0
LINE
  5
395
100
AcDbEntity
  8
レイヤ1
  6
CONTINUOUS
 62
     0
100
AcDbLine
 10
-116.5682225478
 20
936.0781507628
 11
-115.464356804
 21
946.8497893107
  0
LINE
  5
396
100
AcDbEntity
  8
レイヤ1
  6
CONTINUOUS
 62
     0
100
AcDbLine
 10
-121.5724139198
 20
927.8359532089
 11
-127.8730946026
 21
906.0481768882
  0
LINE
  5
397
100
AcDbEntity
  8
レイヤ1
  6
CONTINUOUS
 62
     0
100
AcDbLine
 10
-127.8730946026
 20
906.0481768882
 11
-135.4445278357
 21
888.3814993444
  0
LINE
  5
398
100
AcDbEntity
  8
レイヤ1
  6
CONTINUOUS
 62
     0
100
AcDbLine
 10
-135.4445278357
 20
888.3814993444
 11
-139.6508796318
 21
869.0322810822
  0
LINE
  5
399
100
AcDbEntity
  8
レイヤ1
  6
CONTINUOUS
 62
     0
100
AcDbLine
 10
-139.6508796318
 20
869.0322810822
 11
-137.1270685541
 21
864.825929286
  0
LINE
  5
39A
100
AcDbEntity
  8
レイヤ1
  6
CONTINUOUS
 62
     0
100
AcDbLine
 10
-137.1270685541
 20
864.825929286
 11
-108.5238763404
 21
864.4052941064
  0
LINE
  5
39B
100
AcDbEntity
  8
レイヤ1
  6
CONTINUOUS
 62
     0
100
AcDbLine
 10
-108.5238763404
 20
864.4052941064
 11
-106.4207004423
 21
877.4449846745
  0
LINE
  5
39C
100
AcDbEntity
  8
レイヤ1
  6
CONTINUOUS
 62
     0
100
AcDbLine
 10
-106.4207004423
 20
877.4449846745
 11
-105.1587949035
 21
887.1195938056
  0
LINE
  5
39D
100
AcDbEntity
  8
レイヤ1
  6
CONTINUOUS
 62
     0
100
AcDbLine
 10
-105.1587949035
 20
887.1195938056
 11
-106.8413356219
 21
903.5243658105
  0
LINE
  5
39E
100
AcDbEntity
  8
レイヤ1
  6
CONTINUOUS
 62
     0
100
AcDbLine
 10
-106.8413356219
 20
903.5243658105
 11
-115.6851299528
 21
928.719045804
  0
LINE
  5
39F
100
AcDbEntity
  8
レイヤ1
  6
CONTINUOUS
 62
     0
100
AcDbLine
 10
-118.1984854715
 20
923.714854432
 11
-115.2540392142
 21
906.0481768882
  0
LINE
  5
3A0
100
AcDbEntity
  8
レイヤ1
  6
CONTINUOUS
 62
     0
100
AcDbLine
 10
-115.2540392142
 20
906.0481768882
 11
-113.5714984957
 21
887.5402289852
  0
LINE
  5
3A1
100
AcDbEntity
  8
レイヤ1
  6
CONTINUOUS
 62
     0
100
AcDbLine
 10
-113.5714984957
 20
887.5402289852
 11
-116.0953095734
 21
876.6037143152
  0
LINE
  5
3A2
100
AcDbEntity
  8
レイヤ1
  6
CONTINUOUS
 62
     0
100
AcDbLine
 10
-116.0953095734
 20
876.6037143152
 11
-119.8810261899
 21
865.6671996453
  0
LINE
  5
3A3
100
AcDbEntity
  8
レイヤ1
  6
CONTINUOUS
 62
     0
100
AcDbLine
 10
-119.4603910103
 20
917.8259619174
 11
-118.1984854715
 21
904.3656361697
  0
LINE
  5
3A4
100
AcDbEntity
  8
レイヤ1
  6
CONTINUOUS
 62
     0
100
AcDbLine
 10
-118.1984854715
 20
904.3656361697
 11
-116.9365799326
 21
887.5402289852
  0
LINE
  5
3A5
100
AcDbEntity
  8
レイヤ1
  6
CONTINUOUS
 62
     0
100
AcDbLine
 10
-116.9365799326
 20
887.5402289852
 11
-119.0397558307
 21
874.5005384172
  0
LINE
  5
3A6
100
AcDbEntity
  8
レイヤ1
  6
CONTINUOUS
 62
     0
100
AcDbLine
 10
-119.0397558307
 20
874.5005384172
 11
-121.9512037965
 21
866.4303431892
  0
LINE
  5
3A7
100
AcDbEntity
  8
レイヤ1
  6
CONTINUOUS
 62
     0
100
AcDbLine
 10
-210.4325331521
 20
844.7363116535
 11
-199.8017103166
 21
840.0084536888
  0
LINE
  5
3A8
100
AcDbEntity
  8
レイヤ1
  6
CONTINUOUS
 62
     0
100
AcDbLine
 10
-199.8017103166
 20
840.0084536888
 11
-174.1429643601
 21
837.0640074315
  0
LINE
  5
3A9
100
AcDbEntity
  8
レイヤ1
  6
CONTINUOUS
 62
     0
100
AcDbLine
 10
-174.1429643601
 20
837.0640074315
 11
-121.984202088
 21
832.8576556354
  0
LINE
  5
3AA
100
AcDbEntity
  8
レイヤ1
  6
CONTINUOUS
 62
     0
100
AcDbLine
 10
-121.984202088
 20
832.8576556354
 11
-72.76988607319
 21
832.0163852762
  0
LINE
  5
3AB
100
AcDbEntity
  8
レイヤ1
  6
CONTINUOUS
 62
     0
100
AcDbLine
 10
-72.76988607319
 20
832.0163852762
 11
-20.19048862146
 21
834.5401963538
  0
LINE
  5
3AC
100
AcDbEntity
  8
レイヤ1
  6
CONTINUOUS
 62
     0
100
AcDbLine
 10
-20.19048862146
 20
834.5401963538
 11
25.23811077683
 21
839.5878185092
  0
LINE
  5
3AD
100
AcDbEntity
  8
レイヤ1
  6
CONTINUOUS
 62
     0
100
AcDbLine
 10
25.23811077683
 20
839.5878185092
 11
53.42066781096
 21
845.0560758442
  0
LINE
  5
3AE
100
AcDbEntity
  8
レイヤ1
  6
CONTINUOUS
 62
     0
100
AcDbLine
 10
53.42066781096
 20
845.0560758442
 11
76.55560268972
 21
846.7386165626
  0
LINE
  5
3AF
100
AcDbEntity
  8
レイヤ1
  6
CONTINUOUS
 62
     0
100
AcDbLine
 10
76.55560268972
 20
846.7386165626
 11
94.2222802335
 21
855.5719553345
  0
LINE
  5
3B0
100
AcDbEntity
  8
レイヤ1
  6
CONTINUOUS
 62
     0
100
AcDbLine
 10
94.2222802335
 20
855.5719553345
 11
106.8413356219
 21
866.0878348249
  0
LINE
  5
3B1
100
AcDbEntity
  8
レイヤ1
  6
CONTINUOUS
 62
     0
100
AcDbLine
 10
72.34925089358
 20
1065.468909962
 11
74.03179161203
 21
1042.333975083
  0
LINE
  5
3B2
100
AcDbEntity
  8
レイヤ1
  6
CONTINUOUS
 62
     0
100
AcDbLine
 10
74.03179161203
 20
1042.333975083
 11
77.39687304894
 21
1032.238730772
  0
LINE
  5
3B3
100
AcDbEntity
  8
レイヤ1
  6
CONTINUOUS
 62
     0
100
AcDbLine
 10
77.39687304894
 20
1032.238730772
 11
74.87306197126
 21
1012.88951251
  0
LINE
  5
3B4
100
AcDbEntity
  8
レイヤ1
  6
CONTINUOUS
 62
     0
100
AcDbLine
 10
74.87306197126
 20
1012.88951251
 11
76.1349675101
 21
1008.262525534
  0
LINE
  5
3B5
100
AcDbEntity
  8
レイヤ1
  6
CONTINUOUS
 62
     0
100
AcDbLine
 10
76.1349675101
 20
1008.262525534
 11
76.1349675101
 21
1001.111727481
  0
LINE
  5
3B6
100
AcDbEntity
  8
レイヤ1
  6
CONTINUOUS
 62
     0
100
AcDbLine
 10
76.1349675101
 20
1001.111727481
 11
72.76988607319
 21
989.7545776313
  0
LINE
  5
3B7
100
AcDbEntity
  8
レイヤ1
  6
CONTINUOUS
 62
     0
100
AcDbLine
 10
72.76988607319
 20
989.7545776313
 11
69.40480463628
 21
985.5482258352
  0
LINE
  5
3B8
100
AcDbEntity
  8
レイヤ1
  6
CONTINUOUS
 62
     0
100
AcDbLine
 10
69.40480463628
 20
985.5482258352
 11
66.46035837899
 21
981.7625092187
  0
LINE
  5
3B9
100
AcDbEntity
  8
レイヤ1
  6
CONTINUOUS
 62
     0
100
AcDbLine
 10
66.46035837899
 20
981.7625092187
 11
71.92861571397
 21
980.0799685002
  0
LINE
  5
3BA
100
AcDbEntity
  8
レイヤ1
  6
CONTINUOUS
 62
     0
100
AcDbLine
 10
71.92861571397
 20
980.0799685002
 11
79.0794137674
 21
985.9688610148
  0
LINE
  5
3BB
100
AcDbEntity
  8
レイヤ1
  6
CONTINUOUS
 62
     0
100
AcDbLine
 10
79.0794137674
 20
985.9688610148
 11
79.0794137674
 21
976.7148870633
  0
LINE
  5
3BC
100
AcDbEntity
  8
レイヤ1
  6
CONTINUOUS
 62
     0
100
AcDbLine
 10
79.0794137674
 20
976.7148870633
 11
86.23021182084
 21
971.667264908
  0
LINE
  5
3BD
100
AcDbEntity
  8
レイヤ1
  6
CONTINUOUS
 62
     0
100
AcDbLine
 10
86.23021182084
 20
971.667264908
 11
88.75402289852
 21
974.6117111652
  0
LINE
  5
3BE
100
AcDbEntity
  8
レイヤ1
  6
CONTINUOUS
 62
     0
100
AcDbLine
 10
88.75402289852
 20
974.6117111652
 11
89.17465807813
 21
963.2545613157
  0
LINE
  5
3BF
100
AcDbEntity
  8
レイヤ1
  6
CONTINUOUS
 62
     0
100
AcDbLine
 10
89.17465807813
 20
963.2545613157
 11
92.96037469466
 21
964.5164668545
  0
LINE
  5
3C0
100
AcDbEntity
  8
レイヤ1
  6
CONTINUOUS
 62
     0
100
AcDbLine
 10
92.96037469466
 20
964.5164668545
 11
94.64291541311
 21
954.8418577234
  0
LINE
  5
3C1
100
AcDbEntity
  8
レイヤ1
  6
CONTINUOUS
 62
     0
100
AcDbLine
 10
94.64291541311
 20
954.8418577234
 11
100.3789541603
 21
950.8952424043
  0
LINE
  5
3C2
100
AcDbEntity
  8
レイヤ1
  6
CONTINUOUS
 62
     0
100
AcDbLine
 10
100.3789541603
 20
950.8952424043
 11
103.476254185
 21
956.5243984419
  0
LINE
  5
3C3
100
AcDbEntity
  8
レイヤ1
  6
CONTINUOUS
 62
     0
100
AcDbLine
 10
103.476254185
 20
956.5243984419
 11
108.1032411608
 21
963.6751964953
  0
LINE
  5
3C4
100
AcDbEntity
  8
レイヤ1
  6
CONTINUOUS
 62
     0
100
AcDbLine
 10
108.1032411608
 20
963.6751964953
 11
108.94451152
 21
975.8736167041
  0
LINE
  5
3C5
100
AcDbEntity
  8
レイヤ1
  6
CONTINUOUS
 62
     0
100
AcDbLine
 10
108.94451152
 20
975.8736167041
 11
111.0476874181
 21
962.8339261361
  0
LINE
  5
3C6
100
AcDbEntity
  8
レイヤ1
  6
CONTINUOUS
 62
     0
100
AcDbLine
 10
111.0476874181
 20
962.8339261361
 11
115.2540392142
 21
968.7228186507
  0
LINE
  5
3C7
100
AcDbEntity
  8
レイヤ1
  6
CONTINUOUS
 62
     0
100
AcDbLine
 10
115.2540392142
 20
968.7228186507
 11
116.0953095734
 21
972.5085352672
  0
LINE
  5
3C8
100
AcDbEntity
  8
レイヤ1
  6
CONTINUOUS
 62
     0
100
AcDbLine
 10
116.0953095734
 20
972.5085352672
 11
114.412768855
 21
985.5482258352
  0
LINE
  5
3C9
100
AcDbEntity
  8
レイヤ1
  6
CONTINUOUS
 62
     0
100
AcDbLine
 10
114.412768855
 20
985.5482258352
 11
108.5238763404
 21
1001.532362661
  0
LINE
  5
3CA
100
AcDbEntity
  8
レイヤ1
  6
CONTINUOUS
 62
     0
100
AcDbLine
 10
108.5238763404
 20
1001.532362661
 11
115.2540392142
 21
996.0641053256
  0
LINE
  5
3CB
100
AcDbEntity
  8
レイヤ1
  6
CONTINUOUS
 62
     0
100
AcDbLine
 10
115.2540392142
 20
996.0641053256
 11
112.7302281365
 21
1004.476808918
  0
LINE
  5
3CC
100
AcDbEntity
  8
レイヤ1
  6
CONTINUOUS
 62
     0
100
AcDbLine
 10
112.7302281365
 20
1004.476808918
 11
107.2619708015
 21
1010.365701432
  0
LINE
  5
3CD
100
AcDbEntity
  8
レイヤ1
  6
CONTINUOUS
 62
     0
100
AcDbLine
 10
107.2619708015
 20
1010.365701432
 11
106.4207004423
 21
1028.873649335
  0
LINE
  5
3CE
100
AcDbEntity
  8
レイヤ1
  6
CONTINUOUS
 62
     0
100
AcDbLine
 10
106.4207004423
 20
1028.873649335
 11
100.5318079277
 21
1041.492704724
  0
LINE
  5
3CF
100
AcDbEntity
  8
レイヤ1
  6
CONTINUOUS
 62
     0
100
AcDbLine
 10
100.5318079277
 20
1041.492704724
 11
90.85719879659
 21
1055.794300831
  0
LINE
  5
3D0
100
AcDbEntity
  8
レイヤ1
  6
CONTINUOUS
 62
     0
100
AcDbLine
 10
75.71433233049
 20
1037.286352928
 11
63.9365473013
 21
1031.818095593
  0
LINE
  5
3D1
100
AcDbEntity
  8
レイヤ1
  6
CONTINUOUS
 62
     0
100
AcDbLine
 10
63.9365473013
 20
1031.818095593
 11
54.6825733498
 21
1024.667297539
  0
LINE
  5
3D2
100
AcDbEntity
  8
レイヤ1
  6
CONTINUOUS
 62
     0
100
AcDbLine
 10
54.6825733498
 20
1024.667297539
 11
45.42859939829
 21
1019.619675384
  0
LINE
  5
3D3
100
AcDbEntity
  8
レイヤ1
  6
CONTINUOUS
 62
     0
100
AcDbLine
 10
45.42859939829
 20
1019.619675384
 11
36.17462544679
 21
1013.31014769
  0
LINE
  5
3D4
100
AcDbEntity
  8
レイヤ1
  6
CONTINUOUS
 62
     0
100
AcDbLine
 10
36.17462544679
 20
1013.31014769
 11
25.23811077683
 21
1008.683160714
  0
LINE
  5
3D5
100
AcDbEntity
  8
レイヤ1
  6
CONTINUOUS
 62
     0
100
AcDbLine
 10
25.23811077683
 20
1008.683160714
 11
22.29366451953
 21
1008.262525534
  0
LINE
  5
3D6
100
AcDbEntity
  8
レイヤ1
  6
CONTINUOUS
 62
     0
100
AcDbLine
 10
76.82905577015
 20
1034.101428814
 11
70.94177180309
 21
1031.452151029
  0
LINE
  5
3D7
100
AcDbEntity
  8
レイヤ1
  6
CONTINUOUS
 62
     0
100
AcDbLine
 10
70.94177180309
 20
1031.452151029
 11
60.05029646403
 21
1023.798681872
  0
LINE
  5
3D8
100
AcDbEntity
  8
レイヤ1
  6
CONTINUOUS
 62
     0
100
AcDbLine
 10
50.05558637405
 20
1022.143486462
 11
57.40101867885
 21
1023.209953475
  0
LINE
  5
3D9
100
AcDbEntity
  8
レイヤ1
  6
CONTINUOUS
 62
     0
100
AcDbLine
 10
57.40101867885
 20
1023.209953475
 11
60.05029646403
 21
1023.798681872
  0
LINE
  5
3DA
100
AcDbEntity
  8
レイヤ1
  6
CONTINUOUS
 62
     0
100
AcDbLine
 10
60.05029646403
 20
1023.798681872
 11
66.23194462944
 21
1020.56067569
  0
LINE
  5
3DB
100
AcDbEntity
  8
レイヤ1
  6
CONTINUOUS
 62
     0
100
AcDbLine
 10
66.23194462944
 20
1020.56067569
 11
71.23613600145
 21
1011.72974974
  0
LINE
  5
3DC
100
AcDbEntity
  8
レイヤ1
  6
CONTINUOUS
 62
     0
100
AcDbLine
 10
71.23613600145
 20
1011.72974974
 11
73.88541378662
 21
1004.370644781
  0
LINE
  5
3DD
100
AcDbEntity
  8
レイヤ1
  6
CONTINUOUS
 62
     0
100
AcDbLine
 10
73.88541378662
 20
1004.370644781
 11
73.29668538992
 21
997.3059040202
  0
LINE
  5
3DE
100
AcDbEntity
  8
レイヤ1
  6
CONTINUOUS
 62
     0
100
AcDbLine
 10
73.29668538992
 20
997.3059040202
 11
69.76431500968
 21
989.6524348631
  0
LINE
  5
3DF
100
AcDbEntity
  8
レイヤ1
  6
CONTINUOUS
 62
     0
100
AcDbLine
 10
69.76431500968
 20
989.6524348631
 11
65.64321623274
 21
984.3538792927
  0
LINE
  5
3E0
100
AcDbEntity
  8
レイヤ1
  6
CONTINUOUS
 62
     0
100
AcDbLine
 10
65.64321623274
 20
984.3538792927
 11
57.6953828772
 21
982.8820583009
  0
LINE
  5
3E1
100
AcDbEntity
  8
レイヤ1
  6
CONTINUOUS
 62
     0
100
AcDbLine
 10
57.6953828772
 20
982.8820583009
 11
50.04191372002
 21
983.1764224993
  0
LINE
  5
3E2
100
AcDbEntity
  8
レイヤ1
  6
CONTINUOUS
 62
     0
100
AcDbLine
 10
50.04191372002
 20
983.1764224993
 11
41.79971616614
 21
989.0637064664
  0
LINE
  5
3E3
100
AcDbEntity
  8
レイヤ1
  6
CONTINUOUS
 62
     0
100
AcDbLine
 10
41.79971616614
 20
989.0637064664
 11
33.8518828106
 21
994.0678978384
  0
LINE
  5
3E4
100
AcDbEntity
  8
レイヤ1
  6
CONTINUOUS
 62
     0
100
AcDbLine
 10
33.8518828106
 20
994.0678978384
 11
28.2589630419
 21
998.4833608137
  0
LINE
  5
3E5
100
AcDbEntity
  8
レイヤ1
  6
CONTINUOUS
 62
     0
100
AcDbLine
 10
28.2589630419
 20
998.4833608137
 11
23.54913586825
 21
999.6608176071
  0
LINE
  5
3E6
100
AcDbEntity
  8
レイヤ1
  6
CONTINUOUS
 62
     0
100
AcDbLine
 10
23.54913586825
 20
1002.898823789
 11
33.8518828106
 21
1004.370644781
  0
LINE
  5
3E7
100
AcDbEntity
  8
レイヤ1
  6
CONTINUOUS
 62
     0
100
AcDbLine
 10
33.8518828106
 20
1004.370644781
 11
41.79971616614
 21
1010.552292946
  0
LINE
  5
3E8
100
AcDbEntity
  8
レイヤ1
  6
CONTINUOUS
 62
     0
100
AcDbLine
 10
41.79971616614
 20
1010.552292946
 11
52.1024631085
 21
1016.733941112
  0
LINE
  5
3E9
100
AcDbEntity
  8
レイヤ1
  6
CONTINUOUS
 62
     0
100
AcDbLine
 10
52.1024631085
 20
1016.733941112
 11
60.93338905909
 21
1017.322669508
  0
LINE
  5
3EA
100
AcDbEntity
  8
レイヤ1
  6
CONTINUOUS
 62
     0
100
AcDbLine
 10
60.93338905909
 20
1017.322669508
 11
65.64321623274
 21
1013.201570731
  0
LINE
  5
3EB
100
AcDbEntity
  8
レイヤ1
  6
CONTINUOUS
 62
     0
100
AcDbLine
 10
65.64321623274
 20
1013.201570731
 11
68.29249401792
 21
1004.665008979
  0
LINE
  5
3EC
100
AcDbEntity
  8
レイヤ1
  6
CONTINUOUS
 62
     0
100
AcDbLine
 10
68.29249401792
 20
1004.665008979
 11
67.1150372245
 21
996.1284472268
  0
LINE
  5
3ED
100
AcDbEntity
  8
レイヤ1
  6
CONTINUOUS
 62
     0
100
AcDbLine
 10
67.1150372245
 20
996.1284472268
 11
63.87703104262
 21
989.9467990614
  0
LINE
  5
3EE
100
AcDbEntity
  8
レイヤ1
  6
CONTINUOUS
 62
     0
100
AcDbLine
 10
63.87703104262
 20
989.9467990614
 11
56.22356188544
 21
987.5918854746
  0
LINE
  5
3EF
100
AcDbEntity
  8
レイヤ1
  6
CONTINUOUS
 62
     0
100
AcDbLine
 10
56.22356188544
 20
987.5918854746
 11
49.45318532332
 21
989.3580706647
  0
LINE
  5
3F0
100
AcDbEntity
  8
レイヤ1
  6
CONTINUOUS
 62
     0
100
AcDbLine
 10
49.45318532332
 20
989.3580706647
 11
41.50535196778
 21
995.8340830285
  0
LINE
  5
3F1
100
AcDbEntity
  8
レイヤ1
  6
CONTINUOUS
 62
     0
100
AcDbLine
 10
41.50535196778
 20
995.8340830285
 11
35.91243219908
 21
999.6608176071
  0
LINE
  5
3F2
100
AcDbEntity
  8
レイヤ1
  6
CONTINUOUS
 62
     0
100
AcDbLine
 10
35.91243219908
 20
999.6608176071
 11
33.55751861225
 21
1001.427002797
  0
LINE
  5
3F3
100
AcDbEntity
  8
レイヤ1
  6
CONTINUOUS
 62
     0
100
AcDbLine
 10
33.55751861225
 20
1001.427002797
 11
28.55332724025
 21
1003.193187987
  0
LINE
  5
3F4
100
AcDbEntity
  8
レイヤ1
  6
CONTINUOUS
 62
     0
100
AcDbLine
 10
46.95108963732
 20
1013.643117029
 11
58.57847547226
 21
1006.431194169
  0
LINE
  5
3F5
100
AcDbEntity
  8
レイヤ1
  6
CONTINUOUS
 62
     0
100
AcDbLine
 10
58.57847547226
 20
1006.431194169
 11
63.28830264591
 21
1004.076280582
  0
LINE
  5
3F6
100
AcDbEntity
  8
レイヤ1
  6
CONTINUOUS
 62
     0
100
AcDbLine
 10
63.28830264591
 20
1004.076280582
 11
68.29249401792
 21
1004.665008979
  0
LINE
  5
3F7
100
AcDbEntity
  8
レイヤ1
  6
CONTINUOUS
 62
     0
100
AcDbLine
 10
68.29249401792
 20
1004.665008979
 11
58.28411127391
 21
1002.898823789
  0
LINE
  5
3F8
100
AcDbEntity
  8
レイヤ1
  6
CONTINUOUS
 62
     0
100
AcDbLine
 10
58.28411127391
 20
1002.898823789
 11
52.39682730685
 21
1000.8382744
  0
LINE
  5
3F9
100
AcDbEntity
  8
レイヤ1
  6
CONTINUOUS
 62
     0
100
AcDbLine
 10
52.39682730685
 20
1000.8382744
 11
41.50535196778
 21
1000.249546004
  0
LINE
  5
3FA
100
AcDbEntity
  8
レイヤ1
  6
CONTINUOUS
 62
     0
100
AcDbLine
 10
41.50535196778
 20
1000.249546004
 11
37.08988899249
 21
1002.604459591
  0
LINE
  5
3FB
100
AcDbEntity
  8
レイヤ1
  6
CONTINUOUS
 62
     0
100
AcDbLine
 10
37.08988899249
 20
1002.604459591
 11
31.05542292625
 21
1002.310095392
  0
LINE
  5
3FC
100
AcDbEntity
  8
レイヤ1
  6
CONTINUOUS
 62
     0
100
AcDbLine
 10
37.08988899249
 20
1002.604459591
 11
43.2715371579
 21
1005.842465772
  0
LINE
  5
3FD
100
AcDbEntity
  8
レイヤ1
  6
CONTINUOUS
 62
     0
100
AcDbLine
 10
43.2715371579
 20
1005.842465772
 11
48.57009272826
 21
1009.963564549
  0
LINE
  5
3FE
100
AcDbEntity
  8
レイヤ1
  6
CONTINUOUS
 62
     0
100
AcDbLine
 10
48.57009272826
 20
1009.963564549
 11
52.76478255479
 21
1010.037155599
  0
LINE
  5
3FF
100
AcDbEntity
  8
レイヤ1
  6
CONTINUOUS
 62
     0
100
AcDbLine
 10
50.05558637405
 20
1022.143486462
 11
41.79971616614
 21
1022.915589277
  0
LINE
  5
400
100
AcDbEntity
  8
レイヤ1
  6
CONTINUOUS
 62
     0
100
AcDbLine
 10
41.79971616614
 20
1022.915589277
 11
35.02933960402
 21
1020.855039888
  0
LINE
  5
401
100
AcDbEntity
  8
レイヤ1
  6
CONTINUOUS
 62
     0
100
AcDbLine
 10
35.02933960402
 20
1020.855039888
 11
27.67023464519
 21
1016.733941112
  0
LINE
  5
402
100
AcDbEntity
  8
レイヤ1
  6
CONTINUOUS
 62
     0
100
AcDbLine
 10
27.67023464519
 20
1016.733941112
 11
20.01676548801
 21
1012.024113938
  0
LINE
  5
403
100
AcDbEntity
  8
レイヤ1
  6
CONTINUOUS
 62
     0
100
AcDbLine
 10
45.47926864555
 20
992.5960768466
 11
52.98555570355
 21
992.3017126482
  0
LINE
  5
404
100
AcDbEntity
  8
レイヤ1
  6
CONTINUOUS
 62
     0
100
AcDbLine
 10
52.98555570355
 20
992.3017126482
 11
61.22775325744
 21
992.8904410449
  0
LINE
  5
405
100
AcDbEntity
  8
レイヤ1
  6
CONTINUOUS
 62
     0
100
AcDbLine
 10
61.22775325744
 20
992.8904410449
 11
65.49603413356
 21
993.0376231441
  0
LINE
  5
406
100
AcDbEntity
  8
レイヤ1
  6
CONTINUOUS
 62
     0
100
AcDbLine
 10
51.51373471179
 20
1024.09304607
 11
42.6828087612
 21
1025.270502864
  0
LINE
  5
407
100
AcDbEntity
  8
レイヤ1
  6
CONTINUOUS
 62
     0
100
AcDbLine
 10
42.6828087612
 20
1025.270502864
 11
22.66604327319
 21
1025.85923126
  0
LINE
  5
408
100
AcDbEntity
  8
レイヤ1
  6
CONTINUOUS
 62
     0
100
AcDbLine
 10
22.66604327319
 20
1025.85923126
 11
0
 21
1023.798681872
  0
LINE
  5
409
100
AcDbEntity
  8
レイヤ1
  6
CONTINUOUS
 62
     0
100
AcDbLine
 10
0
 20
1023.798681872
 11
-12.65766052918
 21
1016.439576913
  0
LINE
  5
40A
100
AcDbEntity
  8
レイヤ1
  6
CONTINUOUS
 62
     0
100
AcDbLine
 10
-12.65766052918
 20
1016.439576913
 11
-20.31112968636
 21
1009.080471954
  0
LINE
  5
40B
100
AcDbEntity
  8
レイヤ1
  6
CONTINUOUS
 62
     0
100
AcDbLine
 10
-20.31112968636
 20
1009.080471954
 11
-20.89985808307
 21
1007.903015161
  0
LINE
  5
40C
100
AcDbEntity
  8
レイヤ1
  6
CONTINUOUS
 62
     0
100
AcDbLine
 10
31.3497871246
 20
1018.7944905
 11
21.48858647977
 21
1018.7944905
  0
LINE
  5
40D
100
AcDbEntity
  8
レイヤ1
  6
CONTINUOUS
 62
     0
100
AcDbLine
 10
21.48858647977
 20
1018.7944905
 11
5.004191372002
 21
1015.850848516
  0
LINE
  5
40E
100
AcDbEntity
  8
レイヤ1
  6
CONTINUOUS
 62
     0
100
AcDbLine
 10
5.004191372002
 20
1015.850848516
 11
-5.298555570355
 21
1008.786107756
  0
LINE
  5
40F
100
AcDbEntity
  8
レイヤ1
  6
CONTINUOUS
 62
     0
100
AcDbLine
 10
-5.298555570355
 20
1008.786107756
 11
-9.419654347299
 21
1006.136829971
  0
LINE
  5
410
100
AcDbEntity
  8
レイヤ1
  6
CONTINUOUS
 62
     0
100
AcDbLine
 10
-9.419654347299
 20
1006.136829971
 11
-11.18583953742
 21
1003.781916384
  0
LINE
  5
411
100
AcDbEntity
  8
レイヤ1
  6
CONTINUOUS
 62
     0
100
AcDbLine
 10
14.71820991765
 20
1017.911397905
 11
17.07312350448
 21
1015.556484318
  0
LINE
  5
412
100
AcDbEntity
  8
レイヤ1
  6
CONTINUOUS
 62
     0
100
AcDbLine
 10
17.07312350448
 20
1015.556484318
 11
20.01676548801
 21
1012.024113938
  0
LINE
  5
413
100
AcDbEntity
  8
レイヤ1
  6
CONTINUOUS
 62
     0
100
AcDbLine
 10
20.01676548801
 20
1012.024113938
 11
22.29366451953
 21
1008.262525534
  0
LINE
  5
414
100
AcDbEntity
  8
レイヤ1
  6
CONTINUOUS
 62
     0
100
AcDbLine
 10
22.29366451953
 20
1008.262525534
 11
23.54913586825
 21
1002.898823789
  0
LINE
  5
415
100
AcDbEntity
  8
レイヤ1
  6
CONTINUOUS
 62
     0
100
AcDbLine
 10
23.54913586825
 20
1002.898823789
 11
23.54913586825
 21
999.6608176071
  0
LINE
  5
416
100
AcDbEntity
  8
レイヤ1
  6
CONTINUOUS
 62
     0
100
AcDbLine
 10
23.54913586825
 20
999.6608176071
 11
19.4280370913
 21
989.9467990614
  0
LINE
  5
417
100
AcDbEntity
  8
レイヤ1
  6
CONTINUOUS
 62
     0
100
AcDbLine
 10
19.4280370913
 20
989.9467990614
 11
16.19003090942
 21
987.5918854746
  0
LINE
  5
418
100
AcDbEntity
  8
レイヤ1
  6
CONTINUOUS
 62
     0
100
AcDbLine
 10
16.19003090942
 20
987.5918854746
 11
12.95202472754
 21
986.7087928795
  0
LINE
  5
419
100
AcDbEntity
  8
レイヤ1
  6
CONTINUOUS
 62
     0
100
AcDbLine
 10
12.95202472754
 20
986.7087928795
 11
8.536561752239
 21
985.5313360861
  0
LINE
  5
41A
100
AcDbEntity
  8
レイヤ1
  6
CONTINUOUS
 62
     0
100
AcDbLine
 10
8.536561752239
 20
985.5313360861
 11
3.532370380237
 21
987.0031570779
  0
LINE
  5
41B
100
AcDbEntity
  8
レイヤ1
  6
CONTINUOUS
 62
     0
100
AcDbLine
 10
3.532370380237
 20
987.0031570779
 11
10.008382744
 21
990.2411632598
  0
LINE
  5
41C
100
AcDbEntity
  8
レイヤ1
  6
CONTINUOUS
 62
     0
100
AcDbLine
 10
10.008382744
 20
990.2411632598
 11
12.65766052918
 21
995.8340830285
  0
LINE
  5
41D
100
AcDbEntity
  8
レイヤ1
  6
CONTINUOUS
 62
     0
100
AcDbLine
 10
12.65766052918
 20
995.8340830285
 11
12.95202472754
 21
1004.370644781
  0
LINE
  5
41E
100
AcDbEntity
  8
レイヤ1
  6
CONTINUOUS
 62
     0
100
AcDbLine
 10
12.95202472754
 20
1004.370644781
 11
11.18583953742
 21
1007.903015161
  0
LINE
  5
41F
100
AcDbEntity
  8
レイヤ1
  6
CONTINUOUS
 62
     0
100
AcDbLine
 10
11.18583953742
 20
1007.903015161
 11
5.887283967062
 21
1011.435385541
  0
LINE
  5
420
100
AcDbEntity
  8
レイヤ1
  6
CONTINUOUS
 62
     0
100
AcDbLine
 10
5.887283967062
 20
1011.435385541
 11
1.471820991765
 21
1012.907206533
  0
LINE
  5
421
100
AcDbEntity
  8
レイヤ1
  6
CONTINUOUS
 62
     0
100
AcDbLine
 10
9.125290148946
 20
1016.439576913
 11
14.71820991765
 21
1013.201570731
  0
LINE
  5
422
100
AcDbEntity
  8
レイヤ1
  6
CONTINUOUS
 62
     0
100
AcDbLine
 10
14.71820991765
 20
1013.201570731
 11
17.66185190118
 21
1006.725558368
  0
LINE
  5
423
100
AcDbEntity
  8
レイヤ1
  6
CONTINUOUS
 62
     0
100
AcDbLine
 10
17.66185190118
 20
1006.725558368
 11
19.13367289295
 21
1001.721366996
  0
LINE
  5
424
100
AcDbEntity
  8
レイヤ1
  6
CONTINUOUS
 62
     0
100
AcDbLine
 10
19.13367289295
 20
1001.721366996
 11
17.66185190118
 21
994.9509904334
  0
LINE
  5
425
100
AcDbEntity
  8
レイヤ1
  6
CONTINUOUS
 62
     0
100
AcDbLine
 10
17.66185190118
 20
994.9509904334
 11
15.60130251271
 21
990.2411632598
  0
LINE
  5
426
100
AcDbEntity
  8
レイヤ1
  6
CONTINUOUS
 62
     0
100
AcDbLine
 10
15.60130251271
 20
990.2411632598
 11
14.57102781848
 21
987.1503391771
  0
LINE
  5
427
100
AcDbEntity
  8
レイヤ1
  6
CONTINUOUS
 62
     0
100
AcDbLine
 10
12.06893213248
 20
1006.136829971
 11
4.415462975296
 21
1000.249546004
  0
LINE
  5
428
100
AcDbEntity
  8
レイヤ1
  6
CONTINUOUS
 62
     0
100
AcDbLine
 10
4.415462975296
 20
1000.249546004
 11
-2.943641983531
 21
987.5918854746
  0
LINE
  5
429
100
AcDbEntity
  8
レイヤ1
  6
CONTINUOUS
 62
     0
100
AcDbLine
 10
-2.943641983531
 20
987.5918854746
 11
-7.947833355533
 21
971.1074903668
  0
LINE
  5
42A
100
AcDbEntity
  8
レイヤ1
  6
CONTINUOUS
 62
     0
100
AcDbLine
 10
-7.947833355533
 20
971.1074903668
 11
-9.125290148946
 21
961.6878360195
  0
LINE
  5
42B
100
AcDbEntity
  8
レイヤ1
  6
CONTINUOUS
 62
     0
100
AcDbLine
 10
-9.125290148946
 20
961.6878360195
 11
-10.30274694236
 21
948.4414470936
  0
LINE
  5
42C
100
AcDbEntity
  8
レイヤ1
  6
CONTINUOUS
 62
     0
100
AcDbLine
 10
-10.30274694236
 20
948.4414470936
 11
-10.30274694236
 21
944.0259841183
  0
LINE
  5
42D
100
AcDbEntity
  8
レイヤ1
  6
CONTINUOUS
 62
     0
100
AcDbLine
 10
12.80484262836
 20
1000.102363905
 11
6.181648165415
 21
993.77353364
  0
LINE
  5
42E
100
AcDbEntity
  8
レイヤ1
  6
CONTINUOUS
 62
     0
100
AcDbLine
 10
6.181648165415
 20
993.77353364
 11
3.532370380237
 21
987.0031570779
  0
LINE
  5
42F
100
AcDbEntity
  8
レイヤ1
  6
CONTINUOUS
 62
     0
100
AcDbLine
 10
3.532370380237
 20
987.0031570779
 11
-3.238006181884
 21
973.4624039536
  0
LINE
  5
430
100
AcDbEntity
  8
レイヤ1
  6
CONTINUOUS
 62
     0
100
AcDbLine
 10
-3.238006181884
 20
973.4624039536
 11
-4.121098776943
 21
962.5709286146
  0
LINE
  5
431
100
AcDbEntity
  8
レイヤ1
  6
CONTINUOUS
 62
     0
100
AcDbLine
 10
-4.121098776943
 20
962.5709286146
 11
-5.887283967062
 21
952.5625458706
  0
LINE
  5
432
100
AcDbEntity
  8
レイヤ1
  6
CONTINUOUS
 62
     0
100
AcDbLine
 10
-5.887283967062
 20
952.5625458706
 11
-6.181648165415
 21
941.0823421348
  0
LINE
  5
433
100
AcDbEntity
  8
レイヤ1
  6
CONTINUOUS
 62
     0
100
AcDbLine
 10
11.33302163659
 20
993.0376231441
 11
4.857009272826
 21
990.3883453589
  0
LINE
  5
434
100
AcDbEntity
  8
レイヤ1
  6
CONTINUOUS
 62
     0
100
AcDbLine
 10
21.48858647977
 20
994.8038083342
 11
24.43222846331
 21
994.6566262351
  0
LINE
  5
435
100
AcDbEntity
  8
レイヤ1
  6
CONTINUOUS
 62
     0
100
AcDbLine
 10
24.43222846331
 20
994.6566262351
 11
31.79133342213
 21
989.6524348631
  0
LINE
  5
436
100
AcDbEntity
  8
レイヤ1
  6
CONTINUOUS
 62
     0
100
AcDbLine
 10
31.79133342213
 20
989.6524348631
 11
42.09408036449
 21
976.9947743339
  0
LINE
  5
437
100
AcDbEntity
  8
レイヤ1
  6
CONTINUOUS
 62
     0
100
AcDbLine
 10
42.09408036449
 20
976.9947743339
 11
43.56590135626
 21
969.0469409783
  0
LINE
  5
438
100
AcDbEntity
  8
レイヤ1
  6
CONTINUOUS
 62
     0
100
AcDbLine
 10
43.56590135626
 20
969.0469409783
 11
43.2715371579
 21
951.0907248788
  0
LINE
  5
439
100
AcDbEntity
  8
レイヤ1
  6
CONTINUOUS
 62
     0
100
AcDbLine
 10
43.2715371579
 20
951.0907248788
 11
45.92081494308
 21
940.1992495397
  0
LINE
  5
43A
100
AcDbEntity
  8
レイヤ1
  6
CONTINUOUS
 62
     0
100
AcDbLine
 10
37.82579948837
 20
991.5658021524
 11
43.56590135626
 21
985.5313360861
  0
LINE
  5
43B
100
AcDbEntity
  8
レイヤ1
  6
CONTINUOUS
 62
     0
100
AcDbLine
 10
43.56590135626
 20
985.5313360861
 11
47.6870001332
 21
976.4060459372
  0
LINE
  5
43C
100
AcDbEntity
  8
レイヤ1
  6
CONTINUOUS
 62
     0
100
AcDbLine
 10
47.6870001332
 20
976.4060459372
 11
48.57009272826
 21
966.6920273915
  0
LINE
  5
43D
100
AcDbEntity
  8
レイヤ1
  6
CONTINUOUS
 62
     0
100
AcDbLine
 10
48.57009272826
 20
966.6920273915
 11
48.57009272826
 21
952.2681816722
  0
LINE
  5
43E
100
AcDbEntity
  8
レイヤ1
  6
CONTINUOUS
 62
     0
100
AcDbLine
 10
48.57009272826
 20
952.2681816722
 11
50.33627791838
 21
942.5541631266
  0
LINE
  5
43F
100
AcDbEntity
  8
レイヤ1
  6
CONTINUOUS
 62
     0
100
AcDbLine
 10
21.48858647978
 20
994.8038083342
 11
28.2589630419
 21
989.6524348631
  0
LINE
  5
440
100
AcDbEntity
  8
レイヤ1
  6
CONTINUOUS
 62
     0
100
AcDbLine
 10
28.2589630419
 20
989.6524348631
 11
34.14624700896
 21
981.9989657059
  0
LINE
  5
441
100
AcDbEntity
  8
レイヤ1
  6
CONTINUOUS
 62
     0
100
AcDbLine
 10
34.14624700896
 20
981.9989657059
 11
37.08988899249
 21
970.2243977718
  0
LINE
  5
442
100
AcDbEntity
  8
レイヤ1
  6
CONTINUOUS
 62
     0
100
AcDbLine
 10
37.08988899249
 20
970.2243977718
 11
37.08988899249
 21
958.1554656393
  0
LINE
  5
443
100
AcDbEntity
  8
レイヤ1
  6
CONTINUOUS
 62
     0
100
AcDbLine
 10
37.08988899249
 20
958.1554656393
 11
36.50116059578
 21
946.9696261019
  0
LINE
  5
444
100
AcDbEntity
  8
レイヤ1
  6
CONTINUOUS
 62
     0
100
AcDbLine
 10
36.50116059578
 20
946.9696261019
 11
34.73497540566
 21
938.1387001513
  0
LINE
  5
445
100
AcDbEntity
  8
レイヤ1
  6
CONTINUOUS
 62
     0
100
AcDbLine
 10
19.4280370913
 20
989.9467990614
 11
25.90404945507
 21
985.2369718878
  0
LINE
  5
446
100
AcDbEntity
  8
レイヤ1
  6
CONTINUOUS
 62
     0
100
AcDbLine
 10
25.90404945507
 20
985.2369718878
 11
29.73078403366
 21
978.1722311273
  0
LINE
  5
447
100
AcDbEntity
  8
レイヤ1
  6
CONTINUOUS
 62
     0
100
AcDbLine
 10
29.73078403366
 20
978.1722311273
 11
32.08569762049
 21
964.6314780031
  0
LINE
  5
448
100
AcDbEntity
  8
レイヤ1
  6
CONTINUOUS
 62
     0
100
AcDbLine
 10
32.08569762049
 20
964.6314780031
 11
31.49696922378
 21
952.5625458706
  0
LINE
  5
449
100
AcDbEntity
  8
レイヤ1
  6
CONTINUOUS
 62
     0
100
AcDbLine
 10
31.49696922378
 20
952.5625458706
 11
29.73078403366
 21
942.8485273249
  0
LINE
  5
44A
100
AcDbEntity
  8
レイヤ1
  6
CONTINUOUS
 62
     0
100
AcDbLine
 10
29.73078403366
 20
942.8485273249
 11
28.2589630419
 21
938.1387001513
  0
LINE
  5
44B
100
AcDbEntity
  8
レイヤ1
  6
CONTINUOUS
 62
     0
100
AcDbLine
 10
0.8830925950592
 20
981.9989657059
 11
9.419654347299
 21
982.2933299042
  0
LINE
  5
44C
100
AcDbEntity
  8
レイヤ1
  6
CONTINUOUS
 62
     0
100
AcDbLine
 10
9.419654347299
 20
982.2933299042
 11
22.37167907483
 21
985.2369718878
  0
LINE
  5
44D
100
AcDbEntity
  8
レイヤ1
  6
CONTINUOUS
 62
     0
100
AcDbLine
 10
22.37167907483
 20
985.2369718878
 11
25.90404945507
 21
985.2369718878
  0
LINE
  5
44E
100
AcDbEntity
  8
レイヤ1
  6
CONTINUOUS
 62
     0
100
AcDbLine
 10
27.81741674437
 20
981.7046015075
 11
28.2589630419
 21
969.9300335734
  0
LINE
  5
44F
100
AcDbEntity
  8
レイヤ1
  6
CONTINUOUS
 62
     0
100
AcDbLine
 10
28.2589630419
 20
969.9300335734
 11
24.13786426495
 21
964.6314780031
  0
LINE
  5
450
100
AcDbEntity
  8
レイヤ1
  6
CONTINUOUS
 62
     0
100
AcDbLine
 10
24.13786426495
 20
964.6314780031
 11
13.54075312424
 21
959.9216508294
  0
LINE
  5
451
100
AcDbEntity
  8
レイヤ1
  6
CONTINUOUS
 62
     0
100
AcDbLine
 10
13.54075312424
 20
959.9216508294
 11
7.359104958827
 21
959.0385582343
  0
LINE
  5
452
100
AcDbEntity
  8
レイヤ1
  6
CONTINUOUS
 62
     0
100
AcDbLine
 10
7.359104958827
 20
959.0385582343
 11
2.060549388472
 21
960.5103792261
  0
LINE
  5
453
100
AcDbEntity
  8
レイヤ1
  6
CONTINUOUS
 62
     0
100
AcDbLine
 10
0.8830925950592
 20
981.9989657059
 11
2.354913586825
 21
974.9342249454
  0
LINE
  5
454
100
AcDbEntity
  8
レイヤ1
  6
CONTINUOUS
 62
     0
100
AcDbLine
 10
2.354913586825
 20
974.9342249454
 11
2.354913586825
 21
964.9258422014
  0
LINE
  5
455
100
AcDbEntity
  8
レイヤ1
  6
CONTINUOUS
 62
     0
100
AcDbLine
 10
2.354913586825
 20
964.9258422014
 11
2.060549388472
 21
960.5103792261
  0
LINE
  5
456
100
AcDbEntity
  8
レイヤ1
  6
CONTINUOUS
 62
     0
100
AcDbLine
 10
2.060549388472
 20
960.5103792261
 11
-0.5887283967062
 21
952.2681816722
  0
LINE
  5
457
100
AcDbEntity
  8
レイヤ1
  6
CONTINUOUS
 62
     0
100
AcDbLine
 10
-0.5887283967062
 20
952.2681816722
 11
-2.649277785178
 21
946.9696261019
  0
LINE
  5
458
100
AcDbEntity
  8
レイヤ1
  6
CONTINUOUS
 62
     0
100
AcDbLine
 10
-2.649277785178
 20
946.9696261019
 11
-6.034466066238
 21
946.8224440027
  0
LINE
  5
459
100
AcDbEntity
  8
レイヤ1
  6
CONTINUOUS
 62
     0
100
AcDbLine
 10
38.85607418261
 20
980.8215089125
 11
38.56170998425
 21
975.2285891438
  0
LINE
  5
45A
100
AcDbEntity
  8
レイヤ1
  6
CONTINUOUS
 62
     0
100
AcDbLine
 10
38.56170998425
 20
975.2285891438
 11
37.08988899249
 21
970.2243977718
  0
LINE
  5
45B
100
AcDbEntity
  8
レイヤ1
  6
CONTINUOUS
 62
     0
100
AcDbLine
 10
31.20260502543
 20
960.8047434245
 11
28.2589630419
 21
954.623095259
  0
LINE
  5
45C
100
AcDbEntity
  8
レイヤ1
  6
CONTINUOUS
 62
     0
100
AcDbLine
 10
28.2589630419
 20
954.623095259
 11
17.95621609954
 21
949.3245396887
  0
LINE
  5
45D
100
AcDbEntity
  8
レイヤ1
  6
CONTINUOUS
 62
     0
100
AcDbLine
 10
17.95621609954
 20
949.3245396887
 11
7.064740760474
 21
948.1470828953
  0
LINE
  5
45E
100
AcDbEntity
  8
レイヤ1
  6
CONTINUOUS
 62
     0
100
AcDbLine
 10
7.064740760474
 20
948.1470828953
 11
-1.619003090942
 21
949.618903887
  0
LINE
  5
45F
100
AcDbEntity
  8
レイヤ1
  6
CONTINUOUS
 62
     0
100
AcDbLine
 10
11.18583953742
 20
1007.903015161
 11
1.766185190118
 21
1001.427002797
  0
LINE
  5
460
100
AcDbEntity
  8
レイヤ1
  6
CONTINUOUS
 62
     0
100
AcDbLine
 10
1.766185190118
 20
1001.427002797
 11
-4.709827173649
 21
1001.132638599
  0
LINE
  5
461
100
AcDbEntity
  8
レイヤ1
  6
CONTINUOUS
 62
     0
100
AcDbLine
 10
-4.709827173649
 20
1001.132638599
 11
-11.18583953742
 21
1003.781916384
  0
LINE
  5
462
100
AcDbEntity
  8
レイヤ1
  6
CONTINUOUS
 62
     0
100
AcDbLine
 10
-11.18583953742
 20
1003.781916384
 11
-20.89985808307
 21
1007.903015161
  0
LINE
  5
463
100
AcDbEntity
  8
レイヤ1
  6
CONTINUOUS
 62
     0
100
AcDbLine
 10
-20.89985808307
 20
1007.903015161
 11
-30.90824082707
 21
1009.374836153
  0
LINE
  5
464
100
AcDbEntity
  8
レイヤ1
  6
CONTINUOUS
 62
     0
100
AcDbLine
 10
-30.90824082707
 20
1009.374836153
 11
-42.97717295955
 21
1007.608650963
  0
LINE
  5
465
100
AcDbEntity
  8
レイヤ1
  6
CONTINUOUS
 62
     0
100
AcDbLine
 10
-42.97717295955
 20
1007.608650963
 11
-49.45318532332
 21
1002.898823789
  0
LINE
  5
466
100
AcDbEntity
  8
レイヤ1
  6
CONTINUOUS
 62
     0
100
AcDbLine
 10
-49.45318532332
 20
1002.898823789
 11
-50.63064211673
 21
1000.249546004
  0
LINE
  5
467
100
AcDbEntity
  8
レイヤ1
  6
CONTINUOUS
 62
     0
100
AcDbLine
 10
-50.63064211673
 20
1000.249546004
 11
-52.29322761642
 21
995.3745394573
  0
LINE
  5
468
100
AcDbEntity
  8
レイヤ1
  6
CONTINUOUS
 62
     0
100
AcDbLine
 10
-52.29322761642
 20
995.3745394573
 11
-52.89429919822
 21
989.3638236394
  0
LINE
  5
469
100
AcDbEntity
  8
レイヤ1
  6
CONTINUOUS
 62
     0
100
AcDbLine
 10
-52.89429919822
 20
989.3638236394
 11
-51.09108445282
 21
983.9541794032
  0
LINE
  5
46A
100
AcDbEntity
  8
レイヤ1
  6
CONTINUOUS
 62
     0
100
AcDbLine
 10
-51.09108445282
 20
983.9541794032
 11
-44.74335814967
 21
974.9342249454
  0
LINE
  5
46B
100
AcDbEntity
  8
レイヤ1
  6
CONTINUOUS
 62
     0
100
AcDbLine
 10
-44.74335814967
 20
974.9342249454
 11
-35.02933960402
 21
970.2243977718
  0
LINE
  5
46C
100
AcDbEntity
  8
レイヤ1
  6
CONTINUOUS
 62
     0
100
AcDbLine
 10
-35.02933960402
 20
970.2243977718
 11
-27.37587044684
 21
969.9300335734
  0
LINE
  5
46D
100
AcDbEntity
  8
レイヤ1
  6
CONTINUOUS
 62
     0
100
AcDbLine
 10
-27.37587044684
 20
969.9300335734
 11
-18.8393086946
 21
971.1074903668
  0
LINE
  5
46E
100
AcDbEntity
  8
レイヤ1
  6
CONTINUOUS
 62
     0
100
AcDbLine
 10
-18.8393086946
 20
971.1074903668
 11
-10.89147533906
 21
977.2891385322
  0
LINE
  5
46F
100
AcDbEntity
  8
レイヤ1
  6
CONTINUOUS
 62
     0
100
AcDbLine
 10
-10.89147533906
 20
977.2891385322
 11
-8.242197553886
 21
983.4707866976
  0
LINE
  5
470
100
AcDbEntity
  8
レイヤ1
  6
CONTINUOUS
 62
     0
100
AcDbLine
 10
-8.242197553886
 20
983.4707866976
 11
-5.004191372002
 21
988.1806138713
  0
LINE
  5
471
100
AcDbEntity
  8
レイヤ1
  6
CONTINUOUS
 62
     0
100
AcDbLine
 10
-5.004191372002
 20
988.1806138713
 11
-1.177456793412
 21
990.5355274581
  0
LINE
  5
472
100
AcDbEntity
  8
レイヤ1
  6
CONTINUOUS
 62
     0
100
AcDbLine
 10
2.943641983531
 20
997.894632417
 11
-3.82673457859
 21
994.6566262351
  0
LINE
  5
473
100
AcDbEntity
  8
レイヤ1
  6
CONTINUOUS
 62
     0
100
AcDbLine
 10
-3.82673457859
 20
994.6566262351
 11
-11.18583953742
 21
995.5397188301
  0
LINE
  5
474
100
AcDbEntity
  8
レイヤ1
  6
CONTINUOUS
 62
     0
100
AcDbLine
 10
-11.18583953742
 20
995.5397188301
 11
-21.48858647977
 21
999.3664534087
  0
LINE
  5
475
100
AcDbEntity
  8
レイヤ1
  6
CONTINUOUS
 62
     0
100
AcDbLine
 10
-21.48858647977
 20
999.3664534087
 11
-30.90824082707
 21
1002.898823789
  0
LINE
  5
476
100
AcDbEntity
  8
レイヤ1
  6
CONTINUOUS
 62
     0
100
AcDbLine
 10
-30.90824082707
 20
1002.898823789
 11
-39.73916677767
 21
1003.487552186
  0
LINE
  5
477
100
AcDbEntity
  8
レイヤ1
  6
CONTINUOUS
 62
     0
100
AcDbLine
 10
-39.73916677767
 20
1003.487552186
 11
-45.62645074473
 21
999.3664534087
  0
LINE
  5
478
100
AcDbEntity
  8
レイヤ1
  6
CONTINUOUS
 62
     0
100
AcDbLine
 10
-45.62645074473
 20
999.3664534087
 11
-47.09827173649
 21
994.9509904334
  0
LINE
  5
479
100
AcDbEntity
  8
レイヤ1
  6
CONTINUOUS
 62
     0
100
AcDbLine
 10
-47.09827173649
 20
994.9509904334
 11
-46.80390753814
 21
987.2975212762
  0
LINE
  5
47A
100
AcDbEntity
  8
レイヤ1
  6
CONTINUOUS
 62
     0
100
AcDbLine
 10
-46.80390753814
 20
987.2975212762
 11
-41.79971616614
 21
979.9384163174
  0
LINE
  5
47B
100
AcDbEntity
  8
レイヤ1
  6
CONTINUOUS
 62
     0
100
AcDbLine
 10
-41.79971616614
 20
979.9384163174
 11
-30.61387662872
 21
974.9342249454
  0
LINE
  5
47C
100
AcDbEntity
  8
レイヤ1
  6
CONTINUOUS
 62
     0
100
AcDbLine
 10
-30.61387662872
 20
974.9342249454
 11
-22.96040747154
 21
975.2285891438
  0
LINE
  5
47D
100
AcDbEntity
  8
レイヤ1
  6
CONTINUOUS
 62
     0
100
AcDbLine
 10
-22.96040747154
 20
975.2285891438
 11
-15.60130251271
 21
980.8215089125
  0
LINE
  5
47E
100
AcDbEntity
  8
レイヤ1
  6
CONTINUOUS
 62
     0
100
AcDbLine
 10
-15.60130251271
 20
980.8215089125
 11
-11.18583953742
 21
988.4749780697
  0
LINE
  5
47F
100
AcDbEntity
  8
レイヤ1
  6
CONTINUOUS
 62
     0
100
AcDbLine
 10
-11.18583953742
 20
988.4749780697
 11
-4.709827173649
 21
993.4791694417
  0
LINE
  5
480
100
AcDbEntity
  8
レイヤ1
  6
CONTINUOUS
 62
     0
100
AcDbLine
 10
-4.709827173649
 20
993.4791694417
 11
-3.238006181884
 21
995.2453546318
  0
LINE
  5
481
100
AcDbEntity
  8
レイヤ1
  6
CONTINUOUS
 62
     0
100
AcDbLine
 10
-13.54075312424
 20
996.4228114252
 11
-21.78295067813
 21
986.4144286812
  0
LINE
  5
482
100
AcDbEntity
  8
レイヤ1
  6
CONTINUOUS
 62
     0
100
AcDbLine
 10
-21.78295067813
 20
986.4144286812
 11
-27.37587044684
 21
981.9989657059
  0
LINE
  5
483
100
AcDbEntity
  8
レイヤ1
  6
CONTINUOUS
 62
     0
100
AcDbLine
 10
-27.37587044684
 20
981.9989657059
 11
-30.61387662872
 21
974.9342249454
  0
LINE
  5
484
100
AcDbEntity
  8
レイヤ1
  6
CONTINUOUS
 62
     0
100
AcDbLine
 10
-7.506287058004
 20
995.0981725326
 11
-15.60130251271
 21
984.6482434911
  0
LINE
  5
485
100
AcDbEntity
  8
レイヤ1
  6
CONTINUOUS
 62
     0
100
AcDbLine
 10
-15.60130251271
 20
984.6482434911
 11
-22.37167907483
 21
978.4665953256
  0
LINE
  5
486
100
AcDbEntity
  8
レイヤ1
  6
CONTINUOUS
 62
     0
100
AcDbLine
 10
-22.37167907483
 20
978.4665953256
 11
-22.96040747154
 21
975.2285891438
  0
LINE
  5
487
100
AcDbEntity
  8
レイヤ1
  6
CONTINUOUS
 62
     0
100
AcDbLine
 10
-21.78295067813
 20
986.4144286812
 11
-37.08988899249
 21
985.5313360861
  0
LINE
  5
488
100
AcDbEntity
  8
レイヤ1
  6
CONTINUOUS
 62
     0
100
AcDbLine
 10
-37.08988899249
 20
985.5313360861
 11
-45.03772234802
 21
985.5313360861
  0
LINE
  5
489
100
AcDbEntity
  8
レイヤ1
  6
CONTINUOUS
 62
     0
100
AcDbLine
 10
-16.3372130086
 20
997.4530861194
 11
-27.37587044684
 21
997.6002682186
  0
LINE
  5
48A
100
AcDbEntity
  8
レイヤ1
  6
CONTINUOUS
 62
     0
100
AcDbLine
 10
-27.37587044684
 20
997.6002682186
 11
-46.36236124061
 21
997.1587219211
  0
LINE
  5
48B
100
AcDbEntity
  8
レイヤ1
  6
CONTINUOUS
 62
     0
100
AcDbLine
 10
-24.93962302331
 20
1000.612274016
 11
-25.66042137659
 21
997.7290806031
  0
LINE
  5
48C
100
AcDbEntity
  8
レイヤ1
  6
CONTINUOUS
 62
     0
100
AcDbLine
 10
-46.95108963732
 20
991.1242558548
 11
-35.61806800072
 21
992.0073484499
  0
LINE
  5
48D
100
AcDbEntity
  8
レイヤ1
  6
CONTINUOUS
 62
     0
100
AcDbLine
 10
-35.61806800072
 20
992.0073484499
 11
-23.25477166989
 21
992.3017126482
  0
LINE
  5
48E
100
AcDbEntity
  8
レイヤ1
  6
CONTINUOUS
 62
     0
100
AcDbLine
 10
-23.25477166989
 20
992.3017126482
 11
-17.66185190118
 21
991.4186200532
  0
LINE
  5
48F
100
AcDbEntity
  8
レイヤ1
  6
CONTINUOUS
 62
     0
100
AcDbLine
 10
-31.20260502543
 20
970.0772156726
 11
-34.31000161588
 21
963.9957176698
  0
LINE
  5
490
100
AcDbEntity
  8
レイヤ1
  6
CONTINUOUS
 62
     0
100
AcDbLine
 10
-34.31000161588
 20
963.9957176698
 11
-35.31911931047
 21
958.3734905143
  0
LINE
  5
491
100
AcDbEntity
  8
レイヤ1
  6
CONTINUOUS
 62
     0
100
AcDbLine
 10
-35.31911931047
 20
958.3734905143
 11
-35.22577001554
 21
950.6837931094
  0
LINE
  5
492
100
AcDbEntity
  8
レイヤ1
  6
CONTINUOUS
 62
     0
100
AcDbLine
 10
-35.22577001554
 20
950.6837931094
 11
-31.92979153455
 21
943.0618428721
  0
LINE
  5
493
100
AcDbEntity
  8
レイヤ1
  6
CONTINUOUS
 62
     0
100
AcDbLine
 10
-31.92979153455
 20
943.0618428721
 11
-26.16182919283
 21
939.9718630462
  0
LINE
  5
494
100
AcDbEntity
  8
レイヤ1
  6
CONTINUOUS
 62
     0
100
AcDbLine
 10
-26.16182919283
 20
939.9718630462
 11
-23.27784802196
 21
939.7658643911
  0
LINE
  5
495
100
AcDbEntity
  8
レイヤ1
  6
CONTINUOUS
 62
     0
100
AcDbLine
 10
-25.31532105837
 20
970.2243977718
 11
-27.96459884354
 21
964.6314780031
  0
LINE
  5
496
100
AcDbEntity
  8
レイヤ1
  6
CONTINUOUS
 62
     0
100
AcDbLine
 10
-27.96459884354
 20
964.6314780031
 11
-30.31951243037
 21
955.2118236558
  0
LINE
  5
497
100
AcDbEntity
  8
レイヤ1
  6
CONTINUOUS
 62
     0
100
AcDbLine
 10
-30.31951243037
 20
955.2118236558
 11
-27.96459884354
 21
949.0301754903
  0
LINE
  5
498
100
AcDbEntity
  8
レイヤ1
  6
CONTINUOUS
 62
     0
100
AcDbLine
 10
-27.96459884354
 20
949.0301754903
 11
-25.02095686001
 21
947.2639903002
  0
LINE
  5
499
100
AcDbEntity
  8
レイヤ1
  6
CONTINUOUS
 62
     0
100
AcDbLine
 10
-25.02095686001
 20
947.2639903002
 11
-21.48858647977
 21
946.6752619035
  0
LINE
  5
49A
100
AcDbEntity
  8
レイヤ1
  6
CONTINUOUS
 62
     0
100
AcDbLine
 10
-18.8393086946
 20
971.1074903668
 11
-19.13367289295
 21
964.9258422014
  0
LINE
  5
49B
100
AcDbEntity
  8
レイヤ1
  6
CONTINUOUS
 62
     0
100
AcDbLine
 10
-19.13367289295
 20
964.9258422014
 11
-20.31112968636
 21
954.0343668623
  0
LINE
  5
49C
100
AcDbEntity
  8
レイヤ1
  6
CONTINUOUS
 62
     0
100
AcDbLine
 10
-20.31112968636
 20
954.0343668623
 11
-21.48858647977
 21
946.6752619035
  0
LINE
  5
49D
100
AcDbEntity
  8
レイヤ1
  6
CONTINUOUS
 62
     0
100
AcDbLine
 10
-10.89147533906
 20
977.2891385322
 11
-12.65766052918
 21
968.4582125816
  0
LINE
  5
49E
100
AcDbEntity
  8
レイヤ1
  6
CONTINUOUS
 62
     0
100
AcDbLine
 10
-12.65766052918
 20
968.4582125816
 11
-13.24638892589
 21
956.9780088459
  0
LINE
  5
49F
100
AcDbEntity
  8
レイヤ1
  6
CONTINUOUS
 62
     0
100
AcDbLine
 10
-13.24638892589
 20
956.9780088459
 11
-13.54075312424
 21
947.5583544986
  0
LINE
  5
4A0
100
AcDbEntity
  8
レイヤ1
  6
CONTINUOUS
 62
     0
100
AcDbLine
 10
-25.31532105837
 20
970.2243977718
 11
-23.8435000666
 21
965.2202063998
  0
LINE
  5
4A1
100
AcDbEntity
  8
レイヤ1
  6
CONTINUOUS
 62
     0
100
AcDbLine
 10
-23.8435000666
 20
965.2202063998
 11
-19.72240128966
 21
959.4801045319
  0
LINE
  5
4A2
100
AcDbEntity
  8
レイヤ1
  6
CONTINUOUS
 62
     0
100
AcDbLine
 10
-27.96459884354
 20
964.6314780031
 11
-24.72659266166
 21
960.5103792261
  0
LINE
  5
4A3
100
AcDbEntity
  8
レイヤ1
  6
CONTINUOUS
 62
     0
100
AcDbLine
 10
-24.72659266166
 20
960.5103792261
 11
-20.31112968636
 21
956.9780088459
  0
LINE
  5
4A4
100
AcDbEntity
  8
レイヤ1
  6
CONTINUOUS
 62
     0
100
AcDbLine
 10
-21.48858647977
 20
946.6752619035
 11
-17.36748770283
 21
949.0301754903
  0
LINE
  5
4A5
100
AcDbEntity
  8
レイヤ1
  6
CONTINUOUS
 62
     0
100
AcDbLine
 10
-17.36748770283
 20
949.0301754903
 11
-13.54075312424
 21
947.5583544986
  0
LINE
  5
4A6
100
AcDbEntity
  8
レイヤ1
  6
CONTINUOUS
 62
     0
100
AcDbLine
 10
-13.54075312424
 20
947.5583544986
 11
-10.30274694236
 21
944.0259841183
  0
LINE
  5
4A7
100
AcDbEntity
  8
レイヤ1
  6
CONTINUOUS
 62
     0
100
AcDbLine
 10
-10.30274694236
 20
944.0259841183
 11
-6.181648165415
 21
941.0823421348
  0
LINE
  5
4A8
100
AcDbEntity
  8
レイヤ1
  6
CONTINUOUS
 62
     0
100
AcDbLine
 10
-6.181648165415
 20
941.0823421348
 11
1.766185190118
 21
926.0697680188
  0
LINE
  5
4A9
100
AcDbEntity
  8
レイヤ1
  6
CONTINUOUS
 62
     0
100
AcDbLine
 10
1.766185190118
 20
926.0697680188
 11
12.36329633083
 21
912.8233790929
  0
LINE
  5
4AA
100
AcDbEntity
  8
レイヤ1
  6
CONTINUOUS
 62
     0
100
AcDbLine
 10
12.36329633083
 20
912.8233790929
 11
5.887283967062
 21
912.5290148946
  0
LINE
  5
4AB
100
AcDbEntity
  8
レイヤ1
  6
CONTINUOUS
 62
     0
100
AcDbLine
 10
5.887283967062
 20
912.5290148946
 11
-2.943641983531
 21
907.8191877209
  0
LINE
  5
4AC
100
AcDbEntity
  8
レイヤ1
  6
CONTINUOUS
 62
     0
100
AcDbLine
 10
-2.943641983531
 20
907.8191877209
 11
-15.60130251271
 21
904.581181539
  0
LINE
  5
4AD
100
AcDbEntity
  8
レイヤ1
  6
CONTINUOUS
 62
     0
100
AcDbLine
 10
-15.60130251271
 20
904.581181539
 11
-22.37167907483
 21
907.2304593242
  0
LINE
  5
4AE
100
AcDbEntity
  8
レイヤ1
  6
CONTINUOUS
 62
     0
100
AcDbLine
 10
-22.37167907483
 20
907.2304593242
 11
-32.38006181884
 21
906.6417309275
  0
LINE
  5
4AF
100
AcDbEntity
  8
レイヤ1
  6
CONTINUOUS
 62
     0
100
AcDbLine
 10
-32.38006181884
 20
906.6417309275
 11
-36.50116059578
 21
905.1699099357
  0
LINE
  5
4B0
100
AcDbEntity
  8
レイヤ1
  6
CONTINUOUS
 62
     0
100
AcDbLine
 10
-36.50116059578
 20
905.1699099357
 11
-29.43641983531
 21
918.1219346633
  0
LINE
  5
4B1
100
AcDbEntity
  8
レイヤ1
  6
CONTINUOUS
 62
     0
100
AcDbLine
 10
-29.43641983531
 20
918.1219346633
 11
-26.49277785178
 21
926.0697680188
  0
LINE
  5
4B2
100
AcDbEntity
  8
レイヤ1
  6
CONTINUOUS
 62
     0
100
AcDbLine
 10
-26.49277785178
 20
926.0697680188
 11
-25.60968525672
 21
932.8401445809
  0
LINE
  5
4B3
100
AcDbEntity
  8
レイヤ1
  6
CONTINUOUS
 62
     0
100
AcDbLine
 10
-25.60968525672
 20
932.8401445809
 11
-23.27784802196
 21
939.7658643911
  0
LINE
  5
4B4
100
AcDbEntity
  8
レイヤ1
  6
CONTINUOUS
 62
     0
100
AcDbLine
 10
-23.27784802196
 20
939.7658643911
 11
-21.48858647977
 21
946.6752619035
  0
LINE
  5
4B5
100
AcDbEntity
  8
レイヤ1
  6
CONTINUOUS
 62
     0
100
AcDbLine
 10
-27.37587044684
 20
906.9360951258
 11
-22.45385340172
 21
905.1580903408
  0
LINE
  5
4B6
100
AcDbEntity
  8
レイヤ1
  6
CONTINUOUS
 62
     0
100
AcDbLine
 10
-22.45385340172
 20
905.1580903408
 11
-18.53987895555
 21
902.8921051351
  0
LINE
  5
4B7
100
AcDbEntity
  8
レイヤ1
  6
CONTINUOUS
 62
     0
100
AcDbLine
 10
-18.53987895555
 20
902.8921051351
 11
-9.887935442958
 21
901.8621118598
  0
LINE
  5
4B8
100
AcDbEntity
  8
レイヤ1
  6
CONTINUOUS
 62
     0
100
AcDbLine
 10
-9.887935442958
 20
901.8621118598
 11
1.647989240493
 21
902.0681105148
  0
LINE
  5
4B9
100
AcDbEntity
  8
レイヤ1
  6
CONTINUOUS
 62
     0
100
AcDbLine
 10
1.647989240493
 20
902.0681105148
 11
2.471983860739
 21
906.8060795813
  0
LINE
  5
4BA
100
AcDbEntity
  8
レイヤ1
  6
CONTINUOUS
 62
     0
100
AcDbLine
 10
2.471983860739
 20
906.8060795813
 11
6.179959651849
 21
910.1020580622
  0
LINE
  5
4BB
100
AcDbEntity
  8
レイヤ1
  6
CONTINUOUS
 62
     0
100
AcDbLine
 10
6.179959651849
 20
910.1020580622
 11
9.125290148946
 21
912.6761969937
  0
LINE
  5
4BC
100
AcDbEntity
  8
レイヤ1
  6
CONTINUOUS
 62
     0
100
AcDbLine
 10
28.2589630419
 20
938.1387001513
 11
32.67442601719
 21
939.610521143
  0
LINE
  5
4BD
100
AcDbEntity
  8
レイヤ1
  6
CONTINUOUS
 62
     0
100
AcDbLine
 10
32.67442601719
 20
939.610521143
 11
34.73497540566
 21
938.1387001513
  0
LINE
  5
4BE
100
AcDbEntity
  8
レイヤ1
  6
CONTINUOUS
 62
     0
100
AcDbLine
 10
34.73497540566
 20
938.1387001513
 11
38.93374580665
 21
931.7319168437
  0
LINE
  5
4BF
100
AcDbEntity
  8
レイヤ1
  6
CONTINUOUS
 62
     0
100
AcDbLine
 10
38.93374580665
 20
931.7319168437
 11
40.37573639208
 21
929.8779289482
  0
LINE
  5
4C0
100
AcDbEntity
  8
レイヤ1
  6
CONTINUOUS
 62
     0
100
AcDbLine
 10
40.37573639208
 20
929.8779289482
 11
40.99373235726
 21
917.7240082995
  0
LINE
  5
4C1
100
AcDbEntity
  8
レイヤ1
  6
CONTINUOUS
 62
     0
100
AcDbLine
 10
40.99373235726
 20
917.7240082995
 11
36.04976463578
 21
905.982084961
  0
LINE
  5
4C2
100
AcDbEntity
  8
レイヤ1
  6
CONTINUOUS
 62
     0
100
AcDbLine
 10
36.04976463578
 20
905.982084961
 11
25.95583053776
 21
896.5061468282
  0
LINE
  5
4C3
100
AcDbEntity
  8
レイヤ1
  6
CONTINUOUS
 62
     0
100
AcDbLine
 10
25.95583053776
 20
896.5061468282
 11
16.68589105999
 21
899.8021253092
  0
LINE
  5
4C4
100
AcDbEntity
  8
レイヤ1
  6
CONTINUOUS
 62
     0
100
AcDbLine
 10
16.68589105999
 20
899.8021253092
 11
7.62195023728
 21
907.6300742015
  0
LINE
  5
4C5
100
AcDbEntity
  8
レイヤ1
  6
CONTINUOUS
 62
     0
100
AcDbLine
 10
7.62195023728
 20
907.6300742015
 11
6.179959651849
 21
910.1020580622
  0
LINE
  5
4C6
100
AcDbEntity
  8
レイヤ1
  6
CONTINUOUS
 62
     0
100
AcDbLine
 10
28.2589630419
 20
938.1387001513
 11
19.77587088592
 21
931.5259181887
  0
LINE
  5
4C7
100
AcDbEntity
  8
レイヤ1
  6
CONTINUOUS
 62
     0
100
AcDbLine
 10
19.77587088592
 20
931.5259181887
 11
12.56591795876
 21
923.4919706413
  0
LINE
  5
4C8
100
AcDbEntity
  8
レイヤ1
  6
CONTINUOUS
 62
     0
100
AcDbLine
 10
12.56591795876
 20
923.4919706413
 11
8.85794216765
 21
917.9300069546
  0
LINE
  5
4C9
100
AcDbEntity
  8
レイヤ1
  6
CONTINUOUS
 62
     0
100
AcDbLine
 10
38.93374580665
 20
931.7319168437
 11
42.02372563257
 21
936.2638872551
  0
LINE
  5
4CA
100
AcDbEntity
  8
レイヤ1
  6
CONTINUOUS
 62
     0
100
AcDbLine
 10
42.02372563257
 20
936.2638872551
 11
45.92081494308
 21
940.1992495397
  0
LINE
  5
4CB
100
AcDbEntity
  8
レイヤ1
  6
CONTINUOUS
 62
     0
100
AcDbLine
 10
45.92081494308
 20
940.1992495397
 11
50.33627791838
 21
942.5541631266
  0
LINE
  5
4CC
100
AcDbEntity
  8
レイヤ1
  6
CONTINUOUS
 62
     0
100
AcDbLine
 10
50.33627791838
 20
942.5541631266
 11
54.79564224639
 21
942.2378482519
  0
LINE
  5
4CD
100
AcDbEntity
  8
レイヤ1
  6
CONTINUOUS
 62
     0
100
AcDbLine
 10
54.79564224639
 20
942.2378482519
 11
57.26762610713
 21
938.1178751506
  0
LINE
  5
4CE
100
AcDbEntity
  8
レイヤ1
  6
CONTINUOUS
 62
     0
100
AcDbLine
 10
57.26762610713
 20
938.1178751506
 11
60.15160727799
 21
919.9899935052
  0
LINE
  5
4CF
100
AcDbEntity
  8
レイヤ1
  6
CONTINUOUS
 62
     0
100
AcDbLine
 10
60.15160727799
 20
919.9899935052
 11
62.82958979379
 21
904.3340957205
  0
LINE
  5
4D0
100
AcDbEntity
  8
レイヤ1
  6
CONTINUOUS
 62
     0
100
AcDbLine
 10
62.82958979379
 20
904.3340957205
 11
56.03163417676
 21
903.9220984104
  0
LINE
  5
4D1
100
AcDbEntity
  8
レイヤ1
  6
CONTINUOUS
 62
     0
100
AcDbLine
 10
56.03163417676
 20
903.9220984104
 11
49.02767990467
 21
900.6261199294
  0
LINE
  5
4D2
100
AcDbEntity
  8
レイヤ1
  6
CONTINUOUS
 62
     0
100
AcDbLine
 10
49.02767990467
 20
900.6261199294
 11
37.28575656615
 21
900.4201212743
  0
LINE
  5
4D3
100
AcDbEntity
  8
レイヤ1
  6
CONTINUOUS
 62
     0
100
AcDbLine
 10
37.28575656615
 20
900.4201212743
 11
32.54778749974
 21
902.480107825
  0
LINE
  5
4D4
100
AcDbEntity
  8
レイヤ1
  6
CONTINUOUS
 62
     0
100
AcDbLine
 10
-53.42066781096
 20
1082.714952326
 11
-28.18255703413
 21
1135.714984957
  0
LINE
  5
4D5
100
AcDbEntity
  8
レイヤ1
  6
CONTINUOUS
 62
     0
100
AcDbLine
 10
-28.18255703413
 20
1135.714984957
 11
0
 21
1181.143584356
  0
LINE
  5
4D6
100
AcDbEntity
  8
レイヤ1
  6
CONTINUOUS
 62
     0
100
AcDbLine
 10
0
 20
1181.143584356
 11
22.71429969915
 21
1221.524561599
  0
ENDSEC
  0
SECTION
  2
OBJECTS
  0
DICTIONARY
  5
4D7
100
AcDbDictionary
  3
ACAD_GROUP
350
4D8
  3
ACAD_MLINESTYLE
350
4D9
  0
DICTIONARY
  5
4D8
100
AcDbDictionary
  0
DICTIONARY
  5
4D9
100
AcDbDictionary
  3
STANDARD
350
4DA
  0
MLINESTYLE
  5
4DA
100
AcDbMlineStyle
  2
STANDARD
 70
     0
  3

 62
   256
 51
90
 52
90
 71
     0
  0
ENDSEC
  0
EOF
