  0
SECTION
  2
HEADER
  9
$DIMSCALE
 40
10
  9
$LTSCALE
 40
10
  9
$EXTMIN
 10
-339.8551558752
 20
-12.82472286322
  9
$EXTMAX
 10
458.0423592365
 20
1569.407646
  9
$LIMMIN
 10
0
 20
0
  9
$LIMMAX
 10
8410
 20
5940
  0
ENDSEC
  0
SECTION
  2
TABLES
  0
TABLE
  2
LTYPE
 70
     9
  0
LTYPE
  2
CONTINUOUS
 70
    64
  3
-------------------------------
 72
    65
 73
     0
 40
0
  0
LTYPE
  2
DOT
 70
    64
  3
...............................
 72
    65
 73
     2
 40
2
 49
1
 49
-1
  0
LTYPE
  2
DASHED
 70
    64
  3
- - - - - - - - - - - - - - - -
 72
    65
 73
     2
 40
4
 49
2
 49
-2
  0
LTYPE
  2
DASHED2
 70
    64
  3
-- -- -- -- -- -- -- -- -- -- -
 72
    65
 73
     2
 40
8
 49
5
 49
-3
  0
LTYPE
  2
CENTER
 70
    64
  3
--------- - --------- - -------
 72
    65
 73
     4
 40
23
 49
20
 49
-1
 49
1
 49
-1
  0
LTYPE
  2
CENTERX2
 70
    64
  3
-------------- - --------------
 72
    65
 73
     4
 40
43
 49
40
 49
-1
 49
1
 49
-1
  0
LTYPE
  2
CENTER2
 70
    64
  3
------ - ----- - ------ - -----
 72
    65
 73
     4
 40
13
 49
10
 49
-1
 49
1
 49
-1
  0
LTYPE
  2
PHANTOM
 70
    64
  3
-------- - - ------- - - ------
 72
    65
 73
     6
 40
25
 49
20
 49
-1
 49
1
 49
-1
 49
1
 49
-1
  0
LTYPE
  2
PHANTOMX2
 70
    64
  3
------------- - - -------------
 72
    65
 73
     6
 40
45
 49
40
 49
-1
 49
1
 49
-1
 49
1
 49
-1
  0
LTYPE
  2
PHANTOM2
 70
    64
  3
---- - - ---- - - ---- - - ----
 72
    65
 73
     6
 40
15
 49
10
 49
-1
 49
1
 49
-1
 49
1
 49
-1
  0
LTYPE
  2
ACAD_ISO06W100
 70
    64
  3
------------ - - - ------------
 72
    65
 73
     8
 40
47
 49
40
 49
-1
 49
1
 49
-1
 49
1
 49
-1
 49
1
 49
-1
  0
LTYPE
  2
ACAD_ISO14W100
 70
    64
  3
---- - - - -------- - - - -----
 72
    65
 73
     8
 40
27
 49
20
 49
-1
 49
1
 49
-1
 49
1
 49
-1
 49
1
 49
-1
  0
LTYPE
  2
ACAD_ISO11W100
 70
    64
  3
------- ------ - ------- ------
 72
    65
 73
     6
 40
44
 49
20
 49
-1
 49
20
 49
-1
 49
1
 49
-1
  0
LTYPE
  2
ACAD_ISO13W100
 70
    64
  3
------ ------ - - ------ ------
 72
    65
 73
     8
 40
46
 49
20
 49
-1
 49
20
 49
-1
 49
1
 49
-1
 49
1
 49
-1
  0
LTYPE
  2
ACAD_ISO15W100
 70
    64
  3
------ ----- - - - ------ -----
 72
    65
 73
    10
 40
48
 49
20
 49
-1
 49
20
 49
-1
 49
1
 49
-1
 49
1
 49
-1
 49
1
 49
-1
  0
LTYPE
  2
HIDDEN
 70
    64
  3
. . . . . . . . . . . . . . . .
 72
    65
 73
     2
 40
1.5
 49
1
 49
-0.5
  0
ENDTAB
  0
TABLE
  2
LAYER
  0
LAYER
  2
LY_00
 70
     0
 62
     1
 61
     1
  0
ENDTAB
  0
TABLE
  2
STYLE
 70
     2
  0
STYLE
  2
STANDARD
 70
    64
 71
     1
 40
     0
 41
     1
 42
     0
 50
     1
  3
monotxt
  4
bigfont
  0
STYLE
  2
VSTANDARD
 70
    68
 71
     1
 40
     0
 41
     1
 42
     0
 50
     1
  3
monotxt
  4
bigfont
  0
ENDTAB
  0
ENDSEC
  0
SECTION
  2
ENTITIES
  0
LINE
  8
LY_00
  6
CONTINUOUS
 62
     3
 10
-23.11146054611
 20
1559.627726955
 11
-29.08807774023
 21
1564.517686478
  0
LINE
  8
LY_00
  6
CONTINUOUS
 62
     3
 10
-29.08807774023
 20
1564.517686478
 11
-74.72769994985
 21
1524.311352626
  0
LINE
  8
LY_00
  6
CONTINUOUS
 62
     3
 10
-74.72769994985
 20
1524.311352626
 11
-80.70431714396
 21
1508.554816387
  0
LINE
  8
LY_00
  6
CONTINUOUS
 62
     3
 10
-80.70431714396
 20
1508.554816387
 11
-86.13760550225
 21
1493.341608984
  0
LINE
  8
LY_00
  6
CONTINUOUS
 62
     3
 10
-86.13760550225
 20
1493.341608984
 11
-85.05094783059
 21
1460.198549999
  0
LINE
  8
LY_00
  6
CONTINUOUS
 62
     3
 10
-85.05094783059
 20
1460.198549999
 11
-84.50761899476
 21
1436.835410058
  0
LINE
  8
LY_00
  6
CONTINUOUS
 62
     3
 10
-84.50761899476
 20
1436.835410058
 11
-76.35768645733
 21
1427.055491013
  0
LINE
  8
LY_00
  6
CONTINUOUS
 62
     3
 10
-76.35768645733
 20
1427.055491013
 11
-76.90101529316
 21
1457.481905819
  0
LINE
  8
LY_00
  6
CONTINUOUS
 62
     3
 10
-76.90101529316
 20
1457.481905819
 11
-73.09771344236
 21
1465.088509521
  0
LINE
  8
LY_00
  6
CONTINUOUS
 62
     3
 10
-73.09771344236
 20
1465.088509521
 11
-69.83774042739
 21
1488.451649462
  0
LINE
  8
LY_00
  6
CONTINUOUS
 62
     3
 10
-69.83774042739
 20
1488.451649462
 11
-51.36456000921
 21
1512.358118238
  0
LINE
  8
LY_00
  6
CONTINUOUS
 62
     3
 10
-51.36456000921
 20
1512.358118238
 11
-44.84461397926
 21
1517.248077761
  0
LINE
  8
LY_00
  6
CONTINUOUS
 62
     3
 10
-44.84461397926
 20
1517.248077761
 11
-32.3480507552
 21
1513.44477591
  0
LINE
  8
LY_00
  6
CONTINUOUS
 62
     3
 10
-32.3480507552
 20
1513.44477591
 11
17.63820214105
 21
1484.105018775
  0
LINE
  8
LY_00
  6
CONTINUOUS
 62
     3
 10
17.63820214105
 20
1484.105018775
 11
57.84453599238
 21
1458.025234655
  0
LINE
  8
LY_00
  6
CONTINUOUS
 62
     3
 10
57.84453599238
 20
1458.025234655
 11
35.02472488757
 21
1476.498415073
  0
LINE
  8
LY_00
  6
CONTINUOUS
 62
     3
 10
35.02472488757
 20
1476.498415073
 11
29.59143652928
 21
1486.278334118
  0
LINE
  8
LY_00
  6
CONTINUOUS
 62
     3
 10
29.59143652928
 20
1486.278334118
 11
70.88442805227
 21
1468.891811372
  0
LINE
  8
LY_00
  6
CONTINUOUS
 62
     3
 10
70.88442805227
 20
1468.891811372
 11
74.14440106724
 21
1462.915194178
  0
LINE
  8
LY_00
  6
CONTINUOUS
 62
     3
 10
74.14440106724
 20
1462.915194178
 11
71.97108572393
 21
1434.662094715
  0
LINE
  8
LY_00
  6
CONTINUOUS
 62
     3
 10
71.97108572393
 20
1434.662094715
 11
70.34109921644
 21
1425.968833341
  0
LINE
  8
LY_00
  6
CONTINUOUS
 62
     3
 10
70.34109921644
 20
1425.968833341
 11
79.57768942553
 21
1426.512162177
  0
LINE
  8
LY_00
  6
CONTINUOUS
 62
     3
 10
79.57768942553
 20
1426.512162177
 11
80.66434709719
 21
1429.772135192
  0
LINE
  8
LY_00
  6
CONTINUOUS
 62
     3
 10
80.66434709719
 20
1429.772135192
 11
84.46764894799
 21
1431.4021217
  0
LINE
  8
LY_00
  6
CONTINUOUS
 62
     3
 10
84.46764894799
 20
1431.4021217
 11
86.09763545547
 21
1440.095383073
  0
LINE
  8
LY_00
  6
CONTINUOUS
 62
     3
 10
86.09763545547
 20
1440.095383073
 11
90.44426614211
 21
1454.221932804
  0
LINE
  8
LY_00
  6
CONTINUOUS
 62
     3
 10
90.44426614211
 20
1454.221932804
 11
89.90093730628
 21
1464.001851849
  0
LINE
  8
LY_00
  6
CONTINUOUS
 62
     3
 10
89.90093730628
 20
1464.001851849
 11
93.70423915708
 21
1471.608455551
  0
LINE
  8
LY_00
  6
CONTINUOUS
 62
     3
 10
93.70423915708
 20
1471.608455551
 11
92.61758148542
 21
1484.105018775
  0
LINE
  8
LY_00
  6
CONTINUOUS
 62
     3
 10
92.61758148542
 20
1484.105018775
 11
78.49103175387
 21
1520.508050776
  0
LINE
  8
LY_00
  6
CONTINUOUS
 62
     3
 10
78.49103175387
 20
1520.508050776
 11
58.93119366404
 21
1540.611217701
  0
LINE
  8
LY_00
  6
CONTINUOUS
 62
     3
 10
58.93119366404
 20
1540.611217701
 11
57.84453599238
 21
1544.957848388
  0
LINE
  8
LY_00
  6
CONTINUOUS
 62
     3
 10
57.84453599238
 20
1544.957848388
 11
29.59143652928
 21
1565.604344149
  0
LINE
  8
LY_00
  6
CONTINUOUS
 62
     3
 10
29.59143652928
 20
1565.604344149
 11
6.228296588643
 21
1569.407646
  0
LINE
  8
LY_00
  6
CONTINUOUS
 62
     3
 10
6.228296588643
 20
1569.407646
 11
-13.33154150119
 21
1565.604344149
  0
LINE
  8
LY_00
  6
CONTINUOUS
 62
     3
 10
-13.33154150119
 20
1565.604344149
 11
-23.11146054611
 21
1559.627726955
  0
LINE
  8
LY_00
  6
CONTINUOUS
 62
     3
 10
-76.35768645733
 20
1427.055491013
 11
-76.90101529316
 21
1388.479143669
  0
LINE
  8
LY_00
  6
CONTINUOUS
 62
     3
 10
-76.90101529316
 20
1388.479143669
 11
-56.25451953167
 21
1355.879413519
  0
LINE
  8
LY_00
  6
CONTINUOUS
 62
     3
 10
-56.25451953167
 20
1355.879413519
 11
-21.48147403863
 21
1334.689588922
  0
LINE
  8
LY_00
  6
CONTINUOUS
 62
     3
 10
-21.48147403863
 20
1334.689588922
 11
-10.61489732205
 21
1333.059602415
  0
LINE
  8
LY_00
  6
CONTINUOUS
 62
     3
 10
-10.61489732205
 20
1333.059602415
 11
3.511652409499
 21
1332.516273579
  0
LINE
  8
LY_00
  6
CONTINUOUS
 62
     3
 10
3.511652409499
 20
1332.516273579
 11
27.41812118597
 21
1335.232917758
  0
LINE
  8
LY_00
  6
CONTINUOUS
 62
     3
 10
27.41812118597
 20
1335.232917758
 11
42.63132858917
 21
1342.83952146
  0
LINE
  8
LY_00
  6
CONTINUOUS
 62
     3
 10
42.63132858917
 20
1342.83952146
 11
57.30120715655
 21
1359.139386534
  0
LINE
  8
LY_00
  6
CONTINUOUS
 62
     3
 10
57.30120715655
 20
1359.139386534
 11
63.82115318649
 21
1371.092620923
  0
LINE
  8
LY_00
  6
CONTINUOUS
 62
     3
 10
63.82115318649
 20
1371.092620923
 11
64.36448202232
 21
1380.329211132
  0
LINE
  8
LY_00
  6
CONTINUOUS
 62
     3
 10
64.36448202232
 20
1380.329211132
 11
70.34109921644
 21
1425.968833341
  0
LINE
  8
LY_00
  6
CONTINUOUS
 62
     3
 10
64.36448202232
 20
1380.329211132
 11
73.60107223141
 21
1383.045855311
  0
LINE
  8
LY_00
  6
CONTINUOUS
 62
     3
 10
73.60107223141
 20
1383.045855311
 11
78.49103175387
 21
1399.345720386
  0
LINE
  8
LY_00
  6
CONTINUOUS
 62
     3
 10
78.49103175387
 20
1399.345720386
 11
79.57768942553
 21
1407.495652923
  0
LINE
  8
LY_00
  6
CONTINUOUS
 62
     3
 10
79.57768942553
 20
1407.495652923
 11
79.44014187926
 21
1418.969748814
  0
LINE
  8
LY_00
  6
CONTINUOUS
 62
     3
 10
79.44014187926
 20
1418.969748814
 11
76.38627925093
 21
1426.187969572
  0
LINE
  8
LY_00
  6
CONTINUOUS
 62
     3
 10
73.05479274731
 20
1424.799850195
 11
75.83103150033
 21
1417.304005562
  0
LINE
  8
LY_00
  6
CONTINUOUS
 62
     3
 10
75.83103150033
 20
1417.304005562
 11
75.83103150033
 21
1408.420041552
  0
LINE
  8
LY_00
  6
CONTINUOUS
 62
     3
 10
75.83103150033
 20
1408.420041552
 11
69.72330624369
 21
1403.145187922
  0
LINE
  8
LY_00
  6
CONTINUOUS
 62
     3
 10
86.95350483894
 20
1497.026492038
 11
98.29240346623
 21
1496.459547107
  0
LINE
  8
LY_00
  6
CONTINUOUS
 62
     3
 10
98.29240346623
 20
1496.459547107
 11
101.6940730544
 21
1491.923987656
  0
LINE
  8
LY_00
  6
CONTINUOUS
 62
     3
 10
101.6940730544
 20
1491.923987656
 11
105.662687574
 21
1490.790097793
  0
LINE
  8
LY_00
  6
CONTINUOUS
 62
     3
 10
105.662687574
 20
1490.790097793
 11
106.2296325053
 21
1483.986758617
  0
LINE
  8
LY_00
  6
CONTINUOUS
 62
     3
 10
106.2296325053
 20
1483.986758617
 11
103.9618527799
 21
1480.018144097
  0
LINE
  8
LY_00
  6
CONTINUOUS
 62
     3
 10
103.9618527799
 20
1480.018144097
 11
93.75684401531
 21
1478.884254235
  0
LINE
  8
LY_00
  6
CONTINUOUS
 62
     3
 10
99.42629332896
 20
1479.451199166
 11
110.1982470249
 21
1472.080915058
  0
LINE
  8
LY_00
  6
CONTINUOUS
 62
     3
 10
110.1982470249
 20
1472.080915058
 11
115.3007514072
 21
1462.442851225
  0
LINE
  8
LY_00
  6
CONTINUOUS
 62
     3
 10
115.3007514072
 20
1462.442851225
 11
114.7338064758
 21
1449.970062735
  0
LINE
  8
LY_00
  6
CONTINUOUS
 62
     3
 10
114.7338064758
 20
1449.970062735
 11
110.1982470249
 21
1440.331998902
  0
LINE
  8
LY_00
  6
CONTINUOUS
 62
     3
 10
110.1982470249
 20
1440.331998902
 11
103.3949078485
 21
1438.631164108
  0
LINE
  8
LY_00
  6
CONTINUOUS
 62
     3
 10
103.3949078485
 20
1438.631164108
 11
86.38655990758
 21
1438.064219176
  0
LINE
  8
LY_00
  6
CONTINUOUS
 62
     3
 10
101.3504037331
 20
1438.552360951
 11
102.9724353707
 21
1435.43306934
  0
LINE
  8
LY_00
  6
CONTINUOUS
 62
     3
 10
102.9724353707
 20
1435.43306934
 11
100.8513170754
 21
1428.071541139
  0
LINE
  8
LY_00
  6
CONTINUOUS
 62
     3
 10
100.8513170754
 20
1428.071541139
 11
92.61638722287
 21
1427.572454481
  0
LINE
  8
LY_00
  6
CONTINUOUS
 62
     3
 10
92.61638722287
 20
1427.572454481
 11
92.86593055174
 21
1419.212752964
  0
LINE
  8
LY_00
  6
CONTINUOUS
 62
     3
 10
92.86593055174
 20
1419.212752964
 11
84.63100069925
 21
1414.720973045
  0
LINE
  8
LY_00
  6
CONTINUOUS
 62
     3
 10
84.63100069925
 20
1414.720973045
 11
79.64013412199
 21
1407.983303165
  0
LINE
  8
LY_00
  6
CONTINUOUS
 62
     3
 10
-85.29679537485
 20
1495.444294497
 11
-88.66514235847
 21
1502.882727419
  0
LINE
  8
LY_00
  6
CONTINUOUS
 62
     3
 10
-88.66514235847
 20
1502.882727419
 11
-87.96340340355
 21
1515.79472419
  0
LINE
  8
LY_00
  6
CONTINUOUS
 62
     3
 10
-87.96340340355
 20
1515.79472419
 11
-85.85818653878
 21
1523.934896067
  0
LINE
  8
LY_00
  6
CONTINUOUS
 62
     3
 10
-85.85818653878
 20
1523.934896067
 11
-90.06862026831
 21
1521.829679202
  0
LINE
  8
LY_00
  6
CONTINUOUS
 62
     3
 10
-90.06862026831
 20
1521.829679202
 11
-93.85801062489
 21
1513.128116161
  0
LINE
  8
LY_00
  6
CONTINUOUS
 62
     3
 10
-88.66514235847
 20
1502.882727419
 11
-93.85801062489
 21
1513.128116161
  0
LINE
  8
LY_00
  6
CONTINUOUS
 62
     3
 10
-93.85801062489
 20
1513.128116161
 11
-99.05087889131
 21
1517.619245472
  0
LINE
  8
LY_00
  6
CONTINUOUS
 62
     3
 10
-99.05087889131
 20
1517.619245472
 11
-101.857834711
 21
1518.180636636
  0
LINE
  8
LY_00
  6
CONTINUOUS
 62
     3
 10
-101.857834711
 20
1518.180636636
 11
-108.5945286782
 21
1509.900116968
  0
LINE
  8
LY_00
  6
CONTINUOUS
 62
     3
 10
-108.5945286782
 20
1509.900116968
 11
-108.8752242602
 21
1506.952813358
  0
LINE
  8
LY_00
  6
CONTINUOUS
 62
     3
 10
-108.8752242602
 20
1506.952813358
 11
-101.71748692
 21
1494.040816587
  0
LINE
  8
LY_00
  6
CONTINUOUS
 62
     3
 10
-101.71748692
 20
1494.040816587
 11
-96.66496644457
 21
1493.05838205
  0
LINE
  8
LY_00
  6
CONTINUOUS
 62
     3
 10
-96.66496644457
 20
1493.05838205
 11
-107.8927897233
 21
1493.479425423
  0
LINE
  8
LY_00
  6
CONTINUOUS
 62
     3
 10
-107.8927897233
 20
1493.479425423
 11
-113.3663535717
 21
1480.988472025
  0
LINE
  8
LY_00
  6
CONTINUOUS
 62
     3
 10
-113.3663535717
 20
1480.988472025
 11
-112.9010108278
 21
1474.075967988
  0
LINE
  8
LY_00
  6
CONTINUOUS
 62
     3
 10
-112.9010108278
 20
1474.075967988
 11
-120.6394506623
 21
1470.350052512
  0
LINE
  8
LY_00
  6
CONTINUOUS
 62
     3
 10
-120.6394506623
 20
1470.350052512
 11
-117.2001440692
 21
1460.032132733
  0
LINE
  8
LY_00
  6
CONTINUOUS
 62
     3
 10
-117.2001440692
 20
1460.032132733
 11
-111.4679664141
 21
1456.879435022
  0
LINE
  8
LY_00
  6
CONTINUOUS
 62
     3
 10
-111.4679664141
 20
1456.879435022
 11
-105.4491798762
 21
1458.599088319
  0
LINE
  8
LY_00
  6
CONTINUOUS
 62
     3
 10
-105.4491798762
 20
1458.599088319
 11
-97.99734892452
 21
1467.197354802
  0
LINE
  8
LY_00
  6
CONTINUOUS
 62
     3
 10
-97.99734892452
 20
1467.197354802
 11
-85.673166966
 21
1476.942056815
  0
LINE
  8
LY_00
  6
CONTINUOUS
 62
     3
 10
-105.4491798762
 20
1458.599088319
 11
-98.85717557279
 21
1456.019608374
  0
LINE
  8
LY_00
  6
CONTINUOUS
 62
     3
 10
-98.85717557279
 20
1456.019608374
 11
-95.41786897972
 21
1456.59282614
  0
LINE
  8
LY_00
  6
CONTINUOUS
 62
     3
 10
-95.41786897972
 20
1456.59282614
 11
-93.41160680042
 21
1452.293692898
  0
LINE
  8
LY_00
  6
CONTINUOUS
 62
     3
 10
-93.41160680042
 20
1452.293692898
 11
-85.09994920049
 21
1450.860648484
  0
LINE
  8
LY_00
  6
CONTINUOUS
 62
     3
 10
-111.4679664141
 20
1456.879435022
 11
-115.4804907727
 21
1452.007084015
  0
LINE
  8
LY_00
  6
CONTINUOUS
 62
     3
 10
-115.4804907727
 20
1452.007084015
 11
-108.8884864693
 21
1446.848124126
  0
LINE
  8
LY_00
  6
CONTINUOUS
 62
     3
 10
-108.8884864693
 20
1446.848124126
 11
-118.633188483
 21
1446.27490636
  0
LINE
  8
LY_00
  6
CONTINUOUS
 62
     3
 10
-118.633188483
 20
1446.27490636
 11
-122.072495076
 21
1443.695426416
  0
LINE
  8
LY_00
  6
CONTINUOUS
 62
     3
 10
-122.072495076
 20
1443.695426416
 11
-116.6269263037
 21
1437.103422112
  0
LINE
  8
LY_00
  6
CONTINUOUS
 62
     3
 10
-116.6269263037
 20
1437.103422112
 11
-107.7420509382
 21
1433.664115519
  0
LINE
  8
LY_00
  6
CONTINUOUS
 62
     3
 10
-107.7420509382
 20
1433.664115519
 11
-89.97230020735
 21
1431.944462223
  0
LINE
  8
LY_00
  6
CONTINUOUS
 62
     3
 10
-89.97230020735
 20
1431.944462223
 11
-84.50761899476
 21
1436.835410058
  0
LINE
  8
LY_00
  6
CONTINUOUS
 62
     3
 10
-119.3497106899
 20
1440.399424264
 11
-124.6519750209
 21
1435.956986581
  0
LINE
  8
LY_00
  6
CONTINUOUS
 62
     3
 10
-124.6519750209
 20
1435.956986581
 11
-124.9385839036
 21
1428.505155629
  0
LINE
  8
LY_00
  6
CONTINUOUS
 62
     3
 10
-124.9385839036
 20
1428.505155629
 11
-117.2001440692
 21
1417.614018085
  0
LINE
  8
LY_00
  6
CONTINUOUS
 62
     3
 10
-117.2001440692
 20
1417.614018085
 11
-109.7483131175
 21
1415.03453814
  0
LINE
  8
LY_00
  6
CONTINUOUS
 62
     3
 10
-109.7483131175
 20
1415.03453814
 11
-98.57056669004
 21
1415.03453814
  0
LINE
  8
LY_00
  6
CONTINUOUS
 62
     3
 10
-98.57056669004
 20
1415.03453814
 11
-92.55178015215
 21
1417.327409202
  0
LINE
  8
LY_00
  6
CONTINUOUS
 62
     3
 10
-92.55178015215
 20
1417.327409202
 11
-85.95977584876
 21
1423.059586857
  0
LINE
  8
LY_00
  6
CONTINUOUS
 62
     3
 10
-85.95977584876
 20
1423.059586857
 11
-80.43265272605
 21
1431.945450535
  0
LINE
  8
LY_00
  6
CONTINUOUS
 62
     3
 10
-108.8884864693
 20
1446.848124126
 11
-106.6337930383
 21
1444.532567805
  0
LINE
  8
LY_00
  6
CONTINUOUS
 62
     3
 10
-106.6337930383
 20
1444.532567805
 11
-115.9590944089
 21
1443.828771475
  0
LINE
  8
LY_00
  6
CONTINUOUS
 62
     3
 10
-115.9590944089
 20
1443.828771475
 11
-116.75086528
 21
1442.685102439
  0
LINE
  8
LY_00
  6
CONTINUOUS
 62
     3
 10
-116.75086528
 20
1442.685102439
 11
-112.8799854658
 21
1439.254095331
  0
LINE
  8
LY_00
  6
CONTINUOUS
 62
     3
 10
-112.8799854658
 20
1439.254095331
 11
-105.5780985435
 21
1435.735113682
  0
LINE
  8
LY_00
  6
CONTINUOUS
 62
     3
 10
-105.5780985435
 20
1435.735113682
 11
-93.52558639472
 21
1434.503470104
  0
LINE
  8
LY_00
  6
CONTINUOUS
 62
     3
 10
-93.52558639472
 20
1434.503470104
 11
-84.50761899476
 21
1436.835410058
  0
LINE
  8
LY_00
  6
CONTINUOUS
 62
     3
 10
-116.6269263037
 20
1437.103422112
 11
-120.2698469293
 21
1435.735113682
  0
LINE
  8
LY_00
  6
CONTINUOUS
 62
     3
 10
-120.2698469293
 20
1435.735113682
 11
-120.9736432591
 21
1430.544615749
  0
LINE
  8
LY_00
  6
CONTINUOUS
 62
     3
 10
-120.9736432591
 20
1430.544615749
 11
-118.7742797283
 21
1424.91424511
  0
LINE
  8
LY_00
  6
CONTINUOUS
 62
     3
 10
-118.7742797283
 20
1424.91424511
 11
-112.0002400535
 21
1419.459823554
  0
LINE
  8
LY_00
  6
CONTINUOUS
 62
     3
 10
-112.0002400535
 20
1419.459823554
 11
-99.94772790467
 21
1417.348434564
  0
LINE
  8
LY_00
  6
CONTINUOUS
 62
     3
 10
-99.94772790467
 20
1417.348434564
 11
-93.26166277102
 21
1420.075645342
  0
LINE
  8
LY_00
  6
CONTINUOUS
 62
     3
 10
-93.26166277102
 20
1420.075645342
 11
-85.95977584876
 21
1423.059586857
  0
LINE
  8
LY_00
  6
CONTINUOUS
 62
     3
 10
-112.184488621
 20
1435.383768816
 11
-112.633317006
 21
1430.709048807
  0
LINE
  8
LY_00
  6
CONTINUOUS
 62
     3
 10
-112.633317006
 20
1430.709048807
 11
-99.94772790467
 21
1417.348434564
  0
LINE
  8
LY_00
  6
CONTINUOUS
 62
     3
 10
-107.7420509382
 20
1433.664115519
 11
-96.60469533785
 21
1418.712039953
  0
LINE
  8
LY_00
  6
CONTINUOUS
 62
     3
 10
-98.57056669004
 20
1415.03453814
 11
-91.19127128686
 21
1401.001903105
  0
LINE
  8
LY_00
  6
CONTINUOUS
 62
     3
 10
-91.19127128686
 20
1401.001903105
 11
-91.19127128686
 21
1356.747134765
  0
LINE
  8
LY_00
  6
CONTINUOUS
 62
     3
 10
-91.19127128686
 20
1356.747134765
 11
-88.78984974903
 21
1354.688773447
  0
LINE
  8
LY_00
  6
CONTINUOUS
 62
     3
 10
-88.78984974903
 20
1354.688773447
 11
-86.73148843089
 21
1356.747134765
  0
LINE
  8
LY_00
  6
CONTINUOUS
 62
     3
 10
-86.73148843089
 20
1356.747134765
 11
-85.95977584876
 21
1423.059586857
  0
LINE
  8
LY_00
  6
CONTINUOUS
 62
     3
 10
-85.95977584876
 20
1423.059586857
 11
-82.61476579461
 21
1417.46879365
  0
LINE
  8
LY_00
  6
CONTINUOUS
 62
     3
 10
-82.61476579461
 20
1417.46879365
 11
-82.61476579461
 21
1349.885930371
  0
LINE
  8
LY_00
  6
CONTINUOUS
 62
     3
 10
-82.61476579461
 20
1349.885930371
 11
-78.15498293863
 21
1340.966364659
  0
LINE
  8
LY_00
  6
CONTINUOUS
 62
     3
 10
-78.15498293863
 20
1340.966364659
 11
-83.30088623399
 21
1347.484508833
  0
LINE
  8
LY_00
  6
CONTINUOUS
 62
     3
 10
-83.30088623399
 20
1347.484508833
 11
-90.84821106717
 21
1347.827569053
  0
LINE
  8
LY_00
  6
CONTINUOUS
 62
     3
 10
-90.84821106717
 20
1347.827569053
 11
-91.87739172624
 21
1297.054656539
  0
LINE
  8
LY_00
  6
CONTINUOUS
 62
     3
 10
-91.87739172624
 20
1297.054656539
 11
-87.07454865058
 21
1300.142198516
  0
LINE
  8
LY_00
  6
CONTINUOUS
 62
     3
 10
-87.07454865058
 20
1300.142198516
 11
-86.3884282112
 21
1341.995545318
  0
LINE
  8
LY_00
  6
CONTINUOUS
 62
     3
 10
-86.3884282112
 20
1341.995545318
 11
-79.1841635977
 21
1336.849642023
  0
LINE
  8
LY_00
  6
CONTINUOUS
 62
     3
 10
-79.1841635977
 20
1336.849642023
 11
-71.63683876452
 21
1336.849642023
  0
LINE
  8
LY_00
  6
CONTINUOUS
 62
     3
 10
-71.63683876452
 20
1336.849642023
 11
-72.3229592039
 21
1349.885930371
  0
LINE
  8
LY_00
  6
CONTINUOUS
 62
     3
 10
-72.3229592039
 20
1349.885930371
 11
-80.21334425677
 21
1355.717954106
  0
LINE
  8
LY_00
  6
CONTINUOUS
 62
     3
 10
-80.21334425677
 20
1355.717954106
 11
-80.21334425677
 21
1394.826819151
  0
LINE
  8
LY_00
  6
CONTINUOUS
 62
     3
 10
-80.21334425677
 20
1394.826819151
 11
-76.90101529316
 21
1388.479143669
  0
LINE
  8
LY_00
  6
CONTINUOUS
 62
     3
 10
-48.65180404528
 20
1351.60123147
 11
-48.30874382559
 21
1326.214775213
  0
LINE
  8
LY_00
  6
CONTINUOUS
 62
     3
 10
-48.30874382559
 20
1326.214775213
 11
-42.13365987117
 21
1309.404824448
  0
LINE
  8
LY_00
  6
CONTINUOUS
 62
     3
 10
-42.13365987117
 20
1309.404824448
 11
-11.60130031875
 21
1268.923718524
  0
LINE
  8
LY_00
  6
CONTINUOUS
 62
     3
 10
-11.60130031875
 20
1268.923718524
 11
5.208650446067
 21
1286.076729509
  0
LINE
  8
LY_00
  6
CONTINUOUS
 62
     3
 10
5.208650446067
 20
1286.076729509
 11
16.87269791553
 21
1297.054656539
  0
LINE
  8
LY_00
  6
CONTINUOUS
 62
     3
 10
16.87269791553
 20
1297.054656539
 11
50.49259944516
 21
1325.185594553
  0
LINE
  8
LY_00
  6
CONTINUOUS
 62
     3
 10
50.49259944516
 20
1325.185594553
 11
49.96626787286
 21
1350.989453997
  0
LINE
  8
LY_00
  6
CONTINUOUS
 62
     3
 10
-48.30874382559
 20
1326.214775213
 11
-56.8907825472
 21
1325.078249904
  0
LINE
  8
LY_00
  6
CONTINUOUS
 62
     3
 10
-56.8907825472
 20
1325.078249904
 11
-66.69566495511
 21
1311.841658653
  0
LINE
  8
LY_00
  6
CONTINUOUS
 62
     3
 10
-66.69566495511
 20
1311.841658653
 11
-73.55908264066
 21
1305.468485088
  0
LINE
  8
LY_00
  6
CONTINUOUS
 62
     3
 10
-73.55908264066
 20
1305.468485088
 11
-95.79973938477
 21
1293.809910894
  0
LINE
  8
LY_00
  6
CONTINUOUS
 62
     3
 10
-95.79973938477
 20
1293.809910894
 11
-108.5231692031
 21
1282.526869357
  0
LINE
  8
LY_00
  6
CONTINUOUS
 62
     3
 10
-108.5231692031
 20
1282.526869357
 11
-139.4915172514
 21
1273.404410242
  0
LINE
  8
LY_00
  6
CONTINUOUS
 62
     3
 10
-139.4915172514
 20
1273.404410242
 11
-174.7810301437
 21
1250.598262455
  0
LINE
  8
LY_00
  6
CONTINUOUS
 62
     3
 10
-174.7810301437
 20
1250.598262455
 11
-183.7302405363
 21
1233.303541089
  0
LINE
  8
LY_00
  6
CONTINUOUS
 62
     3
 10
-183.7302405363
 20
1233.303541089
 11
-184.2395135674
 21
1224.136626529
  0
LINE
  8
LY_00
  6
CONTINUOUS
 62
     3
 10
-184.2395135674
 20
1224.136626529
 11
-195.4435202513
 21
1201.219340131
  0
LINE
  8
LY_00
  6
CONTINUOUS
 62
     3
 10
-195.4435202513
 20
1201.219340131
 11
-196.9713393445
 21
1188.996787384
  0
LINE
  8
LY_00
  6
CONTINUOUS
 62
     3
 10
-196.9713393445
 20
1188.996787384
 11
-211.7402572461
 21
1158.440405519
  0
LINE
  8
LY_00
  6
CONTINUOUS
 62
     3
 10
-211.7402572461
 20
1158.440405519
 11
-222.94426393
 21
1133.486026996
  0
LINE
  8
LY_00
  6
CONTINUOUS
 62
     3
 10
-222.94426393
 20
1133.486026996
 11
-225.4906290854
 21
1119.735655157
  0
LINE
  8
LY_00
  6
CONTINUOUS
 62
     3
 10
-225.4906290854
 20
1119.735655157
 11
-238.7317278937
 21
1105.985283317
  0
LINE
  8
LY_00
  6
CONTINUOUS
 62
     3
 10
-238.7317278937
 20
1105.985283317
 11
-242.2966391113
 21
1081.030904794
  0
LINE
  8
LY_00
  6
CONTINUOUS
 62
     3
 10
-242.2966391113
 20
1081.030904794
 11
-241.2780930491
 21
1063.206348706
  0
LINE
  8
LY_00
  6
CONTINUOUS
 62
     3
 10
-241.2780930491
 20
1063.206348706
 11
-234.657543645
 21
1030.612874716
  0
LINE
  8
LY_00
  6
CONTINUOUS
 62
     3
 10
-234.657543645
 20
1030.612874716
 11
-237.2039088004
 21
987.3246670741
  0
LINE
  8
LY_00
  6
CONTINUOUS
 62
     3
 10
-237.2039088004
 20
987.3246670741
 11
-229.5648133341
 21
908.3873472556
  0
LINE
  8
LY_00
  6
CONTINUOUS
 62
     3
 10
-229.5648133341
 20
908.3873472556
 11
-227.5277212097
 21
854.4044059604
  0
LINE
  8
LY_00
  6
CONTINUOUS
 62
     3
 10
-227.5277212097
 20
854.4044059604
 11
-234.1482706139
 21
784.1247276704
  0
LINE
  8
LY_00
  6
CONTINUOUS
 62
     3
 10
-234.1482706139
 20
784.1247276704
 11
-233.6389975828
 21
779.0319973596
  0
LINE
  8
LY_00
  6
CONTINUOUS
 62
     3
 10
-233.6389975828
 20
779.0319973596
 11
-230.0740863652
 21
775.9763591731
  0
LINE
  8
LY_00
  6
CONTINUOUS
 62
     3
 10
-230.0740863652
 20
775.9763591731
 11
-222.94426393
 21
772.9207209865
  0
LINE
  8
LY_00
  6
CONTINUOUS
 62
     3
 10
-222.94426393
 20
772.9207209865
 11
-203.0826157176
 21
772.4114479555
  0
LINE
  8
LY_00
  6
CONTINUOUS
 62
     3
 10
-203.0826157176
 20
772.4114479555
 11
-181.1838753808
 21
782.5969085772
  0
LINE
  8
LY_00
  6
CONTINUOUS
 62
     3
 10
-181.1838753808
 20
782.5969085772
 11
-155.2109507954
 21
804.4956489139
  0
LINE
  8
LY_00
  6
CONTINUOUS
 62
     3
 10
-161.8315001995
 20
813.6625634735
 11
-146.5533092669
 21
793.29164223
  0
LINE
  8
LY_00
  6
CONTINUOUS
 62
     3
 10
-146.5533092669
 20
793.29164223
 11
-131.7843913654
 21
757.1332570228
  0
LINE
  8
LY_00
  6
CONTINUOUS
 62
     3
 10
-131.7843913654
 20
757.1332570228
 11
-103.2651016246
 21
731.6696054685
  0
LINE
  8
LY_00
  6
CONTINUOUS
 62
     3
 10
-103.2651016246
 20
731.6696054685
 11
-100.209463438
 21
730.6510594063
  0
LINE
  8
LY_00
  6
CONTINUOUS
 62
     3
 10
-100.209463438
 20
730.6510594063
 11
-102.2465555624
 21
740.327246997
  0
LINE
  8
LY_00
  6
CONTINUOUS
 62
     3
 10
-102.2465555624
 20
740.327246997
 11
-109.3763779976
 21
749.4941615565
  0
LINE
  8
LY_00
  6
CONTINUOUS
 62
     3
 10
-109.3763779976
 20
749.4941615565
 11
-115.9969274017
 21
754.0776188363
  0
LINE
  8
LY_00
  6
CONTINUOUS
 62
     3
 10
-155.2109507954
 20
804.4956489139
 11
-187.3963165998
 21
787.8712757705
  0
LINE
  8
LY_00
  6
CONTINUOUS
 62
     3
 10
-187.3963165998
 20
787.8712757705
 11
-201.4789229899
 21
785.3364066203
  0
LINE
  8
LY_00
  6
CONTINUOUS
 62
     3
 10
-201.4789229899
 20
785.3364066203
 11
-214.153268741
 21
785.4772326842
  0
LINE
  8
LY_00
  6
CONTINUOUS
 62
     3
 10
-214.153268741
 20
785.4772326842
 11
-221.194571936
 21
790.5469709846
  0
LINE
  8
LY_00
  6
CONTINUOUS
 62
     3
 10
-221.194571936
 20
790.5469709846
 11
-220.9129198082
 21
792.3777098153
  0
LINE
  8
LY_00
  6
CONTINUOUS
 62
     3
 10
-220.9129198082
 20
792.3777098153
 11
-218.2372245941
 21
793.6451443904
  0
LINE
  8
LY_00
  6
CONTINUOUS
 62
     3
 10
-218.2372245941
 20
793.6451443904
 11
-213.3083123576
 21
788.7162321539
  0
LINE
  8
LY_00
  6
CONTINUOUS
 62
     3
 10
-213.3083123576
 20
788.7162321539
 11
-193.8743155392
 21
788.57540609
  0
LINE
  8
LY_00
  6
CONTINUOUS
 62
     3
 10
-193.8743155392
 20
788.57540609
 11
-182.7490564911
 21
792.6593619431
  0
LINE
  8
LY_00
  6
CONTINUOUS
 62
     3
 10
-182.7490564911
 20
792.6593619431
 11
-156.1329304138
 21
805.7561858859
  0
LINE
  8
LY_00
  6
CONTINUOUS
 62
     3
 10
-233.8936340983
 20
781.578362515
 11
-228.2358751311
 21
790.1244927929
  0
LINE
  8
LY_00
  6
CONTINUOUS
 62
     3
 10
-228.2358751311
 20
790.1244927929
 11
-223.8702671501
 21
794.7717529016
  0
LINE
  8
LY_00
  6
CONTINUOUS
 62
     3
 10
-223.8702671501
 20
794.7717529016
 11
-193.8743155392
 21
802.9396646079
  0
LINE
  8
LY_00
  6
CONTINUOUS
 62
     3
 10
-193.8743155392
 20
802.9396646079
 11
-161.8315001995
 21
813.6625634735
  0
LINE
  8
LY_00
  6
CONTINUOUS
 62
     3
 10
-161.8315001995
 20
813.6625634735
 11
-135.4314990203
 21
826.7392694071
  0
LINE
  8
LY_00
  6
CONTINUOUS
 62
     3
 10
-135.4314990203
 20
826.7392694071
 11
-121.3005037479
 21
833.0726226563
  0
LINE
  8
LY_00
  6
CONTINUOUS
 62
     3
 10
-121.3005037479
 20
833.0726226563
 11
-103.666509811
 21
834.6757130142
  0
LINE
  8
LY_00
  6
CONTINUOUS
 62
     3
 10
-103.666509811
 20
834.6757130142
 11
-101.5290560005
 21
844.8286186143
  0
LINE
  8
LY_00
  6
CONTINUOUS
 62
     3
 10
-101.5290560005
 20
844.8286186143
 11
-109.54450779
 21
852.8440704038
  0
LINE
  8
LY_00
  6
CONTINUOUS
 62
     3
 10
-109.54450779
 20
852.8440704038
 11
-118.6286864847
 21
862.9969760038
  0
LINE
  8
LY_00
  6
CONTINUOUS
 62
     3
 10
-118.6286864847
 20
862.9969760038
 11
-121.3005037479
 21
885.9746044671
  0
LINE
  8
LY_00
  6
CONTINUOUS
 62
     3
 10
-121.3005037479
 20
885.9746044671
 11
-135.728316969
 21
915.364594362
  0
LINE
  8
LY_00
  6
CONTINUOUS
 62
     3
 10
-135.728316969
 20
915.364594362
 11
-141.0719514954
 21
939.9453131831
  0
LINE
  8
LY_00
  6
CONTINUOUS
 62
     3
 10
-141.0719514954
 20
939.9453131831
 11
-155.4997647165
 21
967.7322127201
  0
LINE
  8
LY_00
  6
CONTINUOUS
 62
     3
 10
-155.4997647165
 20
967.7322127201
 11
-161.3777626955
 21
994.9847488044
  0
LINE
  8
LY_00
  6
CONTINUOUS
 62
     3
 10
-161.3777626955
 20
994.9847488044
 11
-159.2403088849
 21
1024.374738699
  0
LINE
  8
LY_00
  6
CONTINUOUS
 62
     3
 10
-159.2403088849
 20
1024.374738699
 11
-159.2403088849
 21
1062.848907289
  0
LINE
  8
LY_00
  6
CONTINUOUS
 62
     3
 10
-159.2403088849
 20
1062.848907289
 11
-176.3399393692
 21
1103.994893142
  0
LINE
  8
LY_00
  6
CONTINUOUS
 62
     3
 10
-176.3399393692
 20
1103.994893142
 11
-186.4928449693
 21
1133.919246489
  0
LINE
  8
LY_00
  6
CONTINUOUS
 62
     3
 10
-186.4928449693
 20
1133.919246489
 11
-189.1646622324
 21
1178.805776511
  0
LINE
  8
LY_00
  6
CONTINUOUS
 62
     3
 10
-189.1646622324
 20
1178.805776511
 11
-184.2395135674
 21
1224.136626529
  0
LINE
  8
LY_00
  6
CONTINUOUS
 62
     3
 10
-103.666509811
 20
834.6757130142
 11
-78.01706408456
 21
822.9197170563
  0
LINE
  8
LY_00
  6
CONTINUOUS
 62
     3
 10
-78.01706408456
 20
822.9197170563
 11
-67.86415848452
 21
814.3699018142
  0
LINE
  8
LY_00
  6
CONTINUOUS
 62
     3
 10
-13.89344976849
 20
830.4008053932
 11
-20.84017465273
 21
827.1946246774
  0
LINE
  8
LY_00
  6
CONTINUOUS
 62
     3
 10
-20.84017465273
 20
827.1946246774
 11
-39.00853204228
 21
825.5915343195
  0
LINE
  8
LY_00
  6
CONTINUOUS
 62
     3
 10
-39.00853204228
 20
825.5915343195
 11
-52.90198181076
 21
820.2478997931
  0
LINE
  8
LY_00
  6
CONTINUOUS
 62
     3
 10
-52.90198181076
 20
820.2478997931
 11
-67.86415848452
 21
814.3699018142
  0
LINE
  8
LY_00
  6
CONTINUOUS
 62
     3
 10
-67.86415848452
 20
814.3699018142
 11
-83.3606986109
 21
809.5606307405
  0
LINE
  8
LY_00
  6
CONTINUOUS
 62
     3
 10
-83.3606986109
 20
809.5606307405
 11
-104.2008732636
 21
809.5606307405
  0
LINE
  8
LY_00
  6
CONTINUOUS
 62
     3
 10
-104.2008732636
 20
809.5606307405
 11
-104.7352367163
 21
807.9575403826
  0
LINE
  8
LY_00
  6
CONTINUOUS
 62
     3
 10
-104.7352367163
 20
807.9575403826
 11
-102.0634194531
 21
798.8733616878
  0
LINE
  8
LY_00
  6
CONTINUOUS
 62
     3
 10
-102.0634194531
 20
798.8733616878
 11
-92.97924075831
 21
792.9953637088
  0
LINE
  8
LY_00
  6
CONTINUOUS
 62
     3
 10
-92.97924075831
 20
792.9953637088
 11
-73.20779301086
 21
796.2015444246
  0
LINE
  8
LY_00
  6
CONTINUOUS
 62
     3
 10
-73.20779301086
 20
796.2015444246
 11
-68.93288538978
 21
796.2015444246
  0
LINE
  8
LY_00
  6
CONTINUOUS
 62
     3
 10
-54.50507216867
 20
814.3699018142
 11
-59.84870669501
 21
806.8888134773
  0
LINE
  8
LY_00
  6
CONTINUOUS
 62
     3
 10
-59.84870669501
 20
806.8888134773
 11
-68.93288538978
 21
796.2015444246
  0
LINE
  8
LY_00
  6
CONTINUOUS
 62
     3
 10
-68.93288538978
 20
796.2015444246
 11
-84.42942551617
 21
776.4300966771
  0
LINE
  8
LY_00
  6
CONTINUOUS
 62
     3
 10
-84.42942551617
 20
776.4300966771
 11
-95.65105802148
 21
755.5899220244
  0
LINE
  8
LY_00
  6
CONTINUOUS
 62
     3
 10
-95.65105802148
 20
755.5899220244
 11
-102.2465555624
 21
740.327246997
  0
LINE
  8
LY_00
  6
CONTINUOUS
 62
     3
 10
-102.2465555624
 20
740.327246997
 11
-100.209463438
 21
730.6510594063
  0
LINE
  8
LY_00
  6
CONTINUOUS
 62
     3
 10
-100.209463438
 20
730.6510594063
 11
-96.71978492675
 21
727.2686590348
  0
LINE
  8
LY_00
  6
CONTINUOUS
 62
     3
 10
-96.71978492675
 20
727.2686590348
 11
-88.70433313724
 21
732.6122935612
  0
LINE
  8
LY_00
  6
CONTINUOUS
 62
     3
 10
-88.70433313724
 20
732.6122935612
 11
-82.82633515827
 21
740.6277453507
  0
LINE
  8
LY_00
  6
CONTINUOUS
 62
     3
 10
-82.82633515827
 20
740.6277453507
 11
-82.29197170563
 21
748.6431971402
  0
LINE
  8
LY_00
  6
CONTINUOUS
 62
     3
 10
-82.29197170563
 20
748.6431971402
 11
-68.39852193715
 21
764.6741007192
  0
LINE
  8
LY_00
  6
CONTINUOUS
 62
     3
 10
-68.39852193715
 20
764.6741007192
 11
-61.98616050554
 21
775.3613697719
  0
LINE
  8
LY_00
  6
CONTINUOUS
 62
     3
 10
-61.98616050554
 20
775.3613697719
 11
-61.98616050554
 21
771.6208256034
  0
LINE
  8
LY_00
  6
CONTINUOUS
 62
     3
 10
-61.98616050554
 20
771.6208256034
 11
-74.27651991612
 21
752.3837413086
  0
LINE
  8
LY_00
  6
CONTINUOUS
 62
     3
 10
-74.27651991612
 20
752.3837413086
 11
-81.757608253
 21
728.8717493927
  0
LINE
  8
LY_00
  6
CONTINUOUS
 62
     3
 10
-81.757608253
 20
728.8717493927
 11
-80.1545178951
 21
717.1157534348
  0
LINE
  8
LY_00
  6
CONTINUOUS
 62
     3
 10
-80.1545178951
 20
717.1157534348
 11
-74.81088336876
 21
717.6501168874
  0
LINE
  8
LY_00
  6
CONTINUOUS
 62
     3
 10
-74.81088336876
 20
717.6501168874
 11
-68.39852193715
 21
724.062478319
  0
LINE
  8
LY_00
  6
CONTINUOUS
 62
     3
 10
-68.39852193715
 20
724.062478319
 11
-58.2456163371
 21
744.3682895191
  0
LINE
  8
LY_00
  6
CONTINUOUS
 62
     3
 10
-58.2456163371
 20
744.3682895191
 11
-46.48962037916
 21
759.3304661929
  0
LINE
  8
LY_00
  6
CONTINUOUS
 62
     3
 10
-46.48962037916
 20
759.3304661929
 11
-55.0394356213
 21
741.1621088033
  0
LINE
  8
LY_00
  6
CONTINUOUS
 62
     3
 10
-55.0394356213
 20
741.1621088033
 11
-62.52052395818
 21
717.6501168874
  0
LINE
  8
LY_00
  6
CONTINUOUS
 62
     3
 10
-62.52052395818
 20
717.6501168874
 11
-61.45179705291
 21
713.3752092663
  0
LINE
  8
LY_00
  6
CONTINUOUS
 62
     3
 10
-61.45179705291
 20
713.3752092663
 11
-56.6425259792
 21
713.3752092663
  0
LINE
  8
LY_00
  6
CONTINUOUS
 62
     3
 10
-56.6425259792
 20
713.3752092663
 11
-44.88653002126
 21
726.1999321296
  0
LINE
  8
LY_00
  6
CONTINUOUS
 62
     3
 10
-44.88653002126
 20
726.1999321296
 11
-35.80235132648
 21
742.2308357086
  0
LINE
  8
LY_00
  6
CONTINUOUS
 62
     3
 10
-35.80235132648
 20
742.2308357086
 11
-25.1150822738
 21
757.1930123823
  0
LINE
  8
LY_00
  6
CONTINUOUS
 62
     3
 10
-25.1150822738
 20
757.1930123823
 11
-24.04635536853
 21
753.4524682139
  0
LINE
  8
LY_00
  6
CONTINUOUS
 62
     3
 10
-24.04635536853
 20
753.4524682139
 11
-47.02398383179
 21
717.1157534348
  0
LINE
  8
LY_00
  6
CONTINUOUS
 62
     3
 10
-47.02398383179
 20
717.1157534348
 11
-46.48962037916
 21
711.2377554558
  0
LINE
  8
LY_00
  6
CONTINUOUS
 62
     3
 10
-46.48962037916
 20
711.2377554558
 11
-41.14598585282
 21
710.1690285505
  0
LINE
  8
LY_00
  6
CONTINUOUS
 62
     3
 10
-41.14598585282
 20
710.1690285505
 11
-33.13053406331
 21
716.5813899821
  0
LINE
  8
LY_00
  6
CONTINUOUS
 62
     3
 10
-33.13053406331
 20
716.5813899821
 11
-18.16835738956
 21
735.2841108243
  0
LINE
  8
LY_00
  6
CONTINUOUS
 62
     3
 10
-18.16835738956
 20
735.2841108243
 11
1.068726905265
 21
756.6586489297
  0
LINE
  8
LY_00
  6
CONTINUOUS
 62
     3
 10
1.068726905265
 20
756.6586489297
 11
14.42781322111
 21
768.9490083403
  0
LINE
  8
LY_00
  6
CONTINUOUS
 62
     3
 10
14.42781322111
 20
768.9490083403
 11
35.80235132647
 21
806.8888134773
  0
LINE
  8
LY_00
  6
CONTINUOUS
 62
     3
 10
-95.65105802148
 20
755.5899220244
 11
-106.3383270742
 21
760.9335565508
  0
LINE
  8
LY_00
  6
CONTINUOUS
 62
     3
 10
-106.3383270742
 20
760.9335565508
 11
-97.25414837938
 21
752.9181047613
  0
LINE
  8
LY_00
  6
CONTINUOUS
 62
     3
 10
-88.27491239427
 20
771.00685044
 11
-96.87538963418
 21
775.1201221635
  0
LINE
  8
LY_00
  6
CONTINUOUS
 62
     3
 10
-96.87538963418
 20
775.1201221635
 11
-86.40524342907
 21
773.9983207843
  0
LINE
  8
LY_00
  6
CONTINUOUS
 62
     3
 10
-97.5213301057
 20
795.9343626983
 11
-100.6147275646
 21
793.8168118154
  0
LINE
  8
LY_00
  6
CONTINUOUS
 62
     3
 10
-100.6147275646
 20
793.8168118154
 11
-97.24932342722
 21
790.8253414711
  0
LINE
  8
LY_00
  6
CONTINUOUS
 62
     3
 10
-97.24932342722
 20
790.8253414711
 11
-74.4393620518
 21
789.329606299
  0
LINE
  8
LY_00
  6
CONTINUOUS
 62
     3
 10
-81.17017032651
 20
794.9386131946
 11
-74.4393620518
 21
789.329606299
  0
LINE
  8
LY_00
  6
CONTINUOUS
 62
     3
 10
50.49259944516
 20
1325.185594553
 11
65.68451901712
 21
1326.13055833
  0
LINE
  8
LY_00
  6
CONTINUOUS
 62
     3
 10
65.68451901712
 20
1326.13055833
 11
67.77787298267
 21
1324.29887361
  0
LINE
  8
LY_00
  6
CONTINUOUS
 62
     3
 10
67.77787298267
 20
1324.29887361
 11
78.50631205611
 21
1324.29887361
  0
LINE
  8
LY_00
  6
CONTINUOUS
 62
     3
 10
78.50631205611
 20
1324.29887361
 11
85.57138168984
 21
1318.803819451
  0
LINE
  8
LY_00
  6
CONTINUOUS
 62
     3
 10
85.57138168984
 20
1318.803819451
 11
97.86983623744
 21
1303.6270032
  0
LINE
  8
LY_00
  6
CONTINUOUS
 62
     3
 10
97.86983623744
 20
1303.6270032
 11
117.2333604188
 21
1286.880171476
  0
LINE
  8
LY_00
  6
CONTINUOUS
 62
     3
 10
117.2333604188
 20
1286.880171476
 11
151.2503623589
 21
1275.366724665
  0
LINE
  8
LY_00
  6
CONTINUOUS
 62
     3
 10
151.2503623589
 20
1275.366724665
 11
167.9971940833
 21
1257.834885204
  0
LINE
  8
LY_00
  6
CONTINUOUS
 62
     3
 10
167.9971940833
 20
1257.834885204
 11
183.9590180706
 21
1223.294544772
  0
LINE
  8
LY_00
  6
CONTINUOUS
 62
     3
 10
183.9590180706
 20
1223.294544772
 11
190.2390799673
 21
1219.892844578
  0
LINE
  8
LY_00
  6
CONTINUOUS
 62
     3
 10
190.2390799673
 20
1219.892844578
 11
232.5602820337
 21
1150.923584168
  0
LINE
  8
LY_00
  6
CONTINUOUS
 62
     3
 10
232.5602820337
 20
1150.923584168
 11
233.3081496198
 21
1128.487556586
  0
LINE
  8
LY_00
  6
CONTINUOUS
 62
     3
 10
233.3081496198
 20
1128.487556586
 11
228.4470103102
 21
1087.728773145
  0
LINE
  8
LY_00
  6
CONTINUOUS
 62
     3
 10
228.4470103102
 20
1087.728773145
 11
228.0730765172
 21
1068.284215906
  0
LINE
  8
LY_00
  6
CONTINUOUS
 62
     3
 10
228.0730765172
 20
1068.284215906
 11
224.7076723799
 21
1063.049142804
  0
LINE
  8
LY_00
  6
CONTINUOUS
 62
     3
 10
224.7076723799
 20
1063.049142804
 11
220.9683344495
 21
1061.927341425
  0
LINE
  8
LY_00
  6
CONTINUOUS
 62
     3
 10
220.9683344495
 20
1061.927341425
 11
217.2289965191
 21
1064.918811769
  0
LINE
  8
LY_00
  6
CONTINUOUS
 62
     3
 10
217.2289965191
 20
1064.918811769
 11
220.2204668634
 21
1085.859104179
  0
LINE
  8
LY_00
  6
CONTINUOUS
 62
     3
 10
220.2204668634
 20
1085.859104179
 11
213.8635923817
 21
1119.887079346
  0
LINE
  8
LY_00
  6
CONTINUOUS
 62
     3
 10
213.8635923817
 20
1119.887079346
 11
199.6541082462
 21
1178.968618646
  0
LINE
  8
LY_00
  6
CONTINUOUS
 62
     3
 10
199.6541082462
 20
1178.968618646
 11
186.9403592829
 21
1208.509388296
  0
LINE
  8
LY_00
  6
CONTINUOUS
 62
     3
 10
186.9403592829
 20
1208.509388296
 11
182.8270875594
 21
1221.22313726
  0
LINE
  8
LY_00
  6
CONTINUOUS
 62
     3
 10
182.8270875594
 20
1221.22313726
 11
183.5749551455
 21
1224.214607604
  0
LINE
  8
LY_00
  6
CONTINUOUS
 62
     3
 10
217.2289965191
 20
1064.918811769
 11
214.9853937608
 21
1035.378042119
  0
LINE
  8
LY_00
  6
CONTINUOUS
 62
     3
 10
214.9853937608
 20
1035.378042119
 11
217.2289965191
 21
983.4012448865
  0
LINE
  8
LY_00
  6
CONTINUOUS
 62
     3
 10
217.2289965191
 20
983.4012448865
 11
214.2375261747
 21
945.2599979965
  0
LINE
  8
LY_00
  6
CONTINUOUS
 62
     3
 10
214.2375261747
 20
945.2599979965
 11
208.2545854861
 21
899.2661414526
  0
LINE
  8
LY_00
  6
CONTINUOUS
 62
     3
 10
208.2545854861
 20
899.2661414526
 11
202.6455785905
 21
884.6827235241
  0
LINE
  8
LY_00
  6
CONTINUOUS
 62
     3
 10
202.6455785905
 20
884.6827235241
 11
262.4749854769
 21
723.143324931
  0
LINE
  8
LY_00
  6
CONTINUOUS
 62
     3
 10
262.4749854769
 20
723.143324931
 11
306.2252392625
 21
624.7987373616
  0
LINE
  8
LY_00
  6
CONTINUOUS
 62
     3
 10
306.2252392625
 20
624.7987373616
 11
348.479757876
 21
534.306759446
  0
LINE
  8
LY_00
  6
CONTINUOUS
 62
     3
 10
348.479757876
 20
534.306759446
 11
370.1679178722
 21
488.3129029021
  0
LINE
  8
LY_00
  6
CONTINUOUS
 62
     3
 10
370.1679178722
 20
488.3129029021
 11
411.6745688996
 21
406.4214022265
  0
LINE
  8
LY_00
  6
CONTINUOUS
 62
     3
 10
411.6745688996
 20
406.4214022265
 11
451.6854847549
 21
342.4787236167
  0
LINE
  8
LY_00
  6
CONTINUOUS
 62
     3
 10
451.6854847549
 20
342.4787236167
 11
458.0423592365
 21
334.6261139629
  0
LINE
  8
LY_00
  6
CONTINUOUS
 62
     3
 10
458.0423592365
 20
334.6261139629
 11
413.5442378648
 21
293.1194629355
  0
LINE
  8
LY_00
  6
CONTINUOUS
 62
     3
 10
413.5442378648
 20
293.1194629355
 11
356.7063013228
 21
248.2474077707
  0
LINE
  8
LY_00
  6
CONTINUOUS
 62
     3
 10
356.7063013228
 20
248.2474077707
 11
303.9816365042
 21
216.8369691554
  0
LINE
  8
LY_00
  6
CONTINUOUS
 62
     3
 10
303.9816365042
 20
216.8369691554
 11
256.4920447882
 21
191.7834050217
  0
LINE
  8
LY_00
  6
CONTINUOUS
 62
     3
 10
256.4920447882
 20
191.7834050217
 11
233.3081496198
 21
188.4180008844
  0
LINE
  8
LY_00
  6
CONTINUOUS
 62
     3
 10
233.3081496198
 20
188.4180008844
 11
215.7332613469
 21
189.1658684705
  0
LINE
  8
LY_00
  6
CONTINUOUS
 62
     3
 10
215.7332613469
 20
189.1658684705
 11
184.6967565246
 21
201.1317498477
  0
LINE
  8
LY_00
  6
CONTINUOUS
 62
     3
 10
184.6967565246
 20
201.1317498477
 11
167.4958020448
 21
217.9587705345
  0
LINE
  8
LY_00
  6
CONTINUOUS
 62
     3
 10
167.4958020448
 20
217.9587705345
 11
148.7991123928
 21
258.7175539758
  0
LINE
  8
LY_00
  6
CONTINUOUS
 62
     3
 10
148.7991123928
 20
258.7175539758
 11
124.1194820522
 21
317.425159483
  0
LINE
  8
LY_00
  6
CONTINUOUS
 62
     3
 10
124.1194820522
 20
317.425159483
 11
109.5360641237
 21
341.7308560306
  0
LINE
  8
LY_00
  6
CONTINUOUS
 62
     3
 10
202.6455785905
 20
884.6827235241
 11
187.5615718745
 21
818.6448094352
  0
LINE
  8
LY_00
  6
CONTINUOUS
 62
     3
 10
187.5615718745
 20
818.6448094352
 11
169.393214485
 21
764.6741007192
  0
LINE
  8
LY_00
  6
CONTINUOUS
 62
     3
 10
169.393214485
 20
764.6741007192
 11
161.9121261481
 21
758.7961027402
  0
LINE
  8
LY_00
  6
CONTINUOUS
 62
     3
 10
161.9121261481
 20
758.7961027402
 11
141.606314948
 21
761.4679200034
  0
LINE
  8
LY_00
  6
CONTINUOUS
 62
     3
 10
141.606314948
 20
761.4679200034
 11
91.91051385304
 21
783.3768215614
  0
LINE
  8
LY_00
  6
CONTINUOUS
 62
     3
 10
91.91051385304
 20
783.3768215614
 11
52.90198181076
 21
803.6826327615
  0
LINE
  8
LY_00
  6
CONTINUOUS
 62
     3
 10
52.90198181076
 20
803.6826327615
 11
31.5274437054
 21
806.8888134773
  0
LINE
  8
LY_00
  6
CONTINUOUS
 62
     3
 10
31.5274437054
 20
806.8888134773
 11
-5.343634526341
 21
822.9197170563
  0
LINE
  8
LY_00
  6
CONTINUOUS
 62
     3
 10
-5.343634526341
 20
822.9197170563
 11
-13.89344976849
 21
830.4008053932
  0
LINE
  8
LY_00
  6
CONTINUOUS
 62
     3
 10
-13.89344976849
 20
830.4008053932
 11
-15.49654012639
 21
839.484984088
  0
LINE
  8
LY_00
  6
CONTINUOUS
 62
     3
 10
-15.49654012639
 20
839.484984088
 11
-6.412361431609
 21
843.759891709
  0
LINE
  8
LY_00
  6
CONTINUOUS
 62
     3
 10
-6.412361431609
 20
843.759891709
 11
8.015451789508
 21
871.546791246
  0
LINE
  8
LY_00
  6
CONTINUOUS
 62
     3
 10
8.015451789508
 20
871.546791246
 11
17.63399393692
 21
883.3027872039
  0
LINE
  8
LY_00
  6
CONTINUOUS
 62
     3
 10
17.63399393692
 20
883.3027872039
 11
20.30581120009
 21
892.3869658987
  0
LINE
  8
LY_00
  6
CONTINUOUS
 62
     3
 10
20.30581120009
 20
892.3869658987
 11
65.19234122134
 21
934.0673152042
  0
LINE
  8
LY_00
  6
CONTINUOUS
 62
     3
 10
65.19234122134
 20
934.0673152042
 11
67.32979503188
 21
944.2202208042
  0
LINE
  8
LY_00
  6
CONTINUOUS
 62
     3
 10
67.32979503188
 20
944.2202208042
 11
75.87961027402
 21
949.5638553306
  0
LINE
  8
LY_00
  6
CONTINUOUS
 62
     3
 10
75.87961027402
 20
949.5638553306
 11
92.97924075831
 21
984.8318432044
  0
LINE
  8
LY_00
  6
CONTINUOUS
 62
     3
 10
92.97924075831
 20
984.8318432044
 11
104.2008732636
 21
1006.740744762
  0
LINE
  8
LY_00
  6
CONTINUOUS
 62
     3
 10
104.2008732636
 20
1006.740744762
 11
100.4603290952
 21
1029.184009773
  0
LINE
  8
LY_00
  6
CONTINUOUS
 62
     3
 10
100.4603290952
 20
1029.184009773
 11
109.54450779
 21
1052.161638236
  0
LINE
  8
LY_00
  6
CONTINUOUS
 62
     3
 10
109.54450779
 20
1052.161638236
 11
115.9568692216
 21
1075.673630152
  0
LINE
  8
LY_00
  6
CONTINUOUS
 62
     3
 10
115.9568692216
 20
1075.673630152
 11
114.3537788637
 21
1097.58253171
  0
LINE
  8
LY_00
  6
CONTINUOUS
 62
     3
 10
114.3537788637
 20
1097.58253171
 11
119.1630499374
 21
1117.88834291
  0
LINE
  8
LY_00
  6
CONTINUOUS
 62
     3
 10
119.1630499374
 20
1117.88834291
 11
121.3005037479
 21
1143.003425184
  0
LINE
  8
LY_00
  6
CONTINUOUS
 62
     3
 10
121.3005037479
 20
1143.003425184
 11
132.5221362532
 21
1182.011957226
  0
LINE
  8
LY_00
  6
CONTINUOUS
 62
     3
 10
132.5221362532
 20
1182.011957226
 11
143.7437687585
 21
1237.051392848
  0
LINE
  8
LY_00
  6
CONTINUOUS
 62
     3
 10
143.7437687585
 20
1237.051392848
 11
156.0341281691
 21
1270.181926911
  0
LINE
  8
LY_00
  6
CONTINUOUS
 62
     3
 10
-9.618542147413
 20
826.6602612247
 11
3.661251527078
 21
826.925719198
  0
LINE
  8
LY_00
  6
CONTINUOUS
 62
     3
 10
3.661251527078
 20
826.925719198
 11
28.86079770145
 21
813.9441348051
  0
LINE
  8
LY_00
  6
CONTINUOUS
 62
     3
 10
28.86079770145
 20
813.9441348051
 11
63.22381521196
 21
802.489795635
  0
LINE
  8
LY_00
  6
CONTINUOUS
 62
     3
 10
63.22381521196
 20
802.489795635
 11
138.8224537351
 21
778.8174946833
  0
LINE
  8
LY_00
  6
CONTINUOUS
 62
     3
 10
138.8224537351
 20
778.8174946833
 11
166.3128677435
 21
769.6540233471
  0
LINE
  8
LY_00
  6
CONTINUOUS
 62
     3
 10
166.3128677435
 20
769.6540233471
 11
165.6526703165
 21
761.7351017297
  0
LINE
  8
LY_00
  6
CONTINUOUS
 62
     3
 10
81.86496343874
 20
790.4514076781
 11
127.4848861896
 21
771.3807842331
  0
LINE
  8
LY_00
  6
CONTINUOUS
 62
     3
 10
127.4848861896
 20
771.3807842331
 11
139.0768337738
 21
769.8850490609
  0
LINE
  8
LY_00
  6
CONTINUOUS
 62
     3
 10
139.0768337738
 20
769.8850490609
 11
144.6858406694
 21
772.1286518192
  0
LINE
  8
LY_00
  6
CONTINUOUS
 62
     3
 10
144.6858406694
 20
772.1286518192
 11
144.6858406694
 21
775.4940559565
  0
LINE
  8
LY_00
  6
CONTINUOUS
 62
     3
 10
144.6858406694
 20
775.4940559565
 11
133.0938930852
 21
780.7291290591
  0
LINE
  8
LY_00
  6
CONTINUOUS
 62
     3
 10
35.80235132647
 20
806.8888134773
 11
37.26064642624
 21
774.9993816265
  0
LINE
  8
LY_00
  6
CONTINUOUS
 62
     3
 10
37.26064642624
 20
774.9993816265
 11
54.82396648717
 21
727.6547797232
  0
LINE
  8
LY_00
  6
CONTINUOUS
 62
     3
 10
54.82396648717
 20
727.6547797232
 11
99.11407794516
 21
639.0745568072
  0
LINE
  8
LY_00
  6
CONTINUOUS
 62
     3
 10
99.11407794516
 20
639.0745568072
 11
137.2952085124
 21
552.7852017252
  0
LINE
  8
LY_00
  6
CONTINUOUS
 62
     3
 10
137.2952085124
 20
552.7852017252
 11
135.7679632897
 21
523.0039198828
  0
LINE
  8
LY_00
  6
CONTINUOUS
 62
     3
 10
135.7679632897
 20
523.0039198828
 11
132.7134728443
 21
500.0952415425
  0
LINE
  8
LY_00
  6
CONTINUOUS
 62
     3
 10
132.7134728443
 20
500.0952415425
 11
133.4770954557
 21
485.5864119269
  0
LINE
  8
LY_00
  6
CONTINUOUS
 62
     3
 10
133.4770954557
 20
485.5864119269
 11
125.8408693422
 21
467.2594692546
  0
LINE
  8
LY_00
  6
CONTINUOUS
 62
     3
 10
125.8408693422
 20
467.2594692546
 11
125.8408693422
 21
461.1504883639
  0
LINE
  8
LY_00
  6
CONTINUOUS
 62
     3
 10
125.8408693422
 20
461.1504883639
 11
110.5684171153
 21
445.1144135257
  0
LINE
  8
LY_00
  6
CONTINUOUS
 62
     3
 10
110.5684171153
 20
445.1144135257
 11
107.51392667
 21
436.7145648009
  0
LINE
  8
LY_00
  6
CONTINUOUS
 62
     3
 10
107.51392667
 20
436.7145648009
 11
108.2775492813
 21
351.1888323303
  0
LINE
  8
LY_00
  6
CONTINUOUS
 62
     3
 10
108.2775492813
 20
351.1888323303
 11
109.5360641237
 21
341.7308560306
  0
LINE
  8
LY_00
  6
CONTINUOUS
 62
     3
 10
-222.94426393
 20
772.9207209865
 11
-222.8295597484
 21
749.7119240455
  0
LINE
  8
LY_00
  6
CONTINUOUS
 62
     3
 10
-222.8295597484
 20
749.7119240455
 11
-230.3106480852
 21
700.5504864031
  0
LINE
  8
LY_00
  6
CONTINUOUS
 62
     3
 10
-230.3106480852
 20
700.5504864031
 11
-238.8604633274
 21
654.5952294766
  0
LINE
  8
LY_00
  6
CONTINUOUS
 62
     3
 10
-238.8604633274
 20
654.5952294766
 11
-242.6010074958
 21
640.1674162555
  0
LINE
  8
LY_00
  6
CONTINUOUS
 62
     3
 10
-242.6010074958
 20
640.1674162555
 11
-247.4102785695
 21
634.2894182765
  0
LINE
  8
LY_00
  6
CONTINUOUS
 62
     3
 10
-247.4102785695
 20
634.2894182765
 11
-251.150822738
 21
617.1897877922
  0
LINE
  8
LY_00
  6
CONTINUOUS
 62
     3
 10
-251.150822738
 20
617.1897877922
 11
-251.6851861906
 21
608.1056090975
  0
LINE
  8
LY_00
  6
CONTINUOUS
 62
     3
 10
-251.6851861906
 20
608.1056090975
 11
-263.4411821485
 21
580.8530730131
  0
LINE
  8
LY_00
  6
CONTINUOUS
 62
     3
 10
-263.4411821485
 20
580.8530730131
 11
-272.5253608433
 21
547.1881754972
  0
LINE
  8
LY_00
  6
CONTINUOUS
 62
     3
 10
-272.5253608433
 20
547.1881754972
 11
-273.5940877486
 21
541.3101775182
  0
LINE
  8
LY_00
  6
CONTINUOUS
 62
     3
 10
-126.6441382742
 20
753.9868316665
 11
-168.3244875797
 21
692.000671161
  0
LINE
  8
LY_00
  6
CONTINUOUS
 62
     3
 10
-168.3244875797
 20
692.000671161
 11
-218.0202886747
 21
639.6330528029
  0
LINE
  8
LY_00
  6
CONTINUOUS
 62
     3
 10
-218.0202886747
 20
639.6330528029
 11
-236.7230095168
 21
620.395968508
  0
LINE
  8
LY_00
  6
CONTINUOUS
 62
     3
 10
-236.7230095168
 20
620.395968508
 11
-263.4411821485
 21
570.7001674131
  0
LINE
  8
LY_00
  6
CONTINUOUS
 62
     3
 10
-263.4411821485
 20
570.7001674131
 11
-273.5940877486
 21
541.3101775182
  0
LINE
  8
LY_00
  6
CONTINUOUS
 62
     3
 10
-273.5940877486
 20
541.3101775182
 11
-302.4497141908
 21
472.9116555811
  0
LINE
  8
LY_00
  6
CONTINUOUS
 62
     3
 10
-302.4497141908
 20
472.9116555811
 11
-336.6489751594
 21
397.032045307
  0
LINE
  8
LY_00
  6
CONTINUOUS
 62
     3
 10
-336.6489751594
 20
397.032045307
 11
-339.8551558752
 21
382.0698686333
  0
LINE
  8
LY_00
  6
CONTINUOUS
 62
     3
 10
-339.8551558752
 20
382.0698686333
 11
-330.2366137278
 21
333.4427944436
  0
LINE
  8
LY_00
  6
CONTINUOUS
 62
     3
 10
-330.2366137278
 20
333.4427944436
 11
-302.9840776435
 21
239.9291902326
  0
LINE
  8
LY_00
  6
CONTINUOUS
 62
     3
 10
-302.9840776435
 20
239.9291902326
 11
-277.8689953697
 21
197.1801140219
  0
LINE
  8
LY_00
  6
CONTINUOUS
 62
     3
 10
-277.8689953697
 20
197.1801140219
 11
-250.6164592853
 21
177.4086662745
  0
LINE
  8
LY_00
  6
CONTINUOUS
 62
     3
 10
-250.6164592853
 20
177.4086662745
 11
-224.9670135589
 21
169.9275779376
  0
LINE
  8
LY_00
  6
CONTINUOUS
 62
     3
 10
-224.9670135589
 20
169.9275779376
 11
-201.9893850956
 21
170.4619413902
  0
LINE
  8
LY_00
  6
CONTINUOUS
 62
     3
 10
-201.9893850956
 20
170.4619413902
 11
-150.1561301901
 21
189.6990256851
  0
LINE
  8
LY_00
  6
CONTINUOUS
 62
     3
 10
-150.1561301901
 20
189.6990256851
 11
-83.3606986109
 21
220.6921059378
  0
LINE
  8
LY_00
  6
CONTINUOUS
 62
     3
 10
-83.3606986109
 20
220.6921059378
 11
-92.44487730568
 21
182.2179373482
  0
LINE
  8
LY_00
  6
CONTINUOUS
 62
     3
 10
-92.44487730568
 20
182.2179373482
 11
-104.2008732636
 21
150.6904936428
  0
LINE
  8
LY_00
  6
CONTINUOUS
 62
     3
 10
-104.2008732636
 20
150.6904936428
 11
-103.666509811
 21
141.0719514954
  0
LINE
  8
LY_00
  6
CONTINUOUS
 62
     3
 10
-103.666509811
 20
141.0719514954
 11
-84.9637889688
 21
114.8881423163
  0
LINE
  8
LY_00
  6
CONTINUOUS
 62
     3
 10
-84.9637889688
 20
114.8881423163
 11
-76.41397372666
 21
82.82633515826
  0
LINE
  8
LY_00
  6
CONTINUOUS
 62
     3
 10
-76.41397372666
 20
82.82633515826
 11
-57.17688943183
 21
57.17688943183
  0
LINE
  8
LY_00
  6
CONTINUOUS
 62
     3
 10
-57.17688943183
 20
57.17688943183
 11
-44.35216656862
 21
49.16143764232
  0
LINE
  8
LY_00
  6
CONTINUOUS
 62
     3
 10
-44.35216656862
 20
49.16143764232
 11
-5.34363452634
 21
43.28343966335
  0
LINE
  8
LY_00
  6
CONTINUOUS
 62
     3
 10
-5.34363452634
 20
43.28343966335
 11
46.48962037915
 21
43.28343966335
  0
LINE
  8
LY_00
  6
CONTINUOUS
 62
     3
 10
46.48962037915
 20
43.28343966335
 11
117.0255961268
 21
56.6425259792
  0
LINE
  8
LY_00
  6
CONTINUOUS
 62
     3
 10
117.0255961268
 20
56.6425259792
 11
145.8812225691
 21
82.82633515826
  0
LINE
  8
LY_00
  6
CONTINUOUS
 62
     3
 10
145.8812225691
 20
82.82633515826
 11
152.8279474533
 21
104.7352367163
  0
LINE
  8
LY_00
  6
CONTINUOUS
 62
     3
 10
152.8279474533
 20
104.7352367163
 11
152.8279474533
 21
217.485925222
  0
LINE
  8
LY_00
  6
CONTINUOUS
 62
     3
 10
152.8279474533
 20
217.485925222
 11
153.8966743586
 21
246.3415516643
  0
LINE
  8
LY_00
  6
CONTINUOUS
 62
     3
 10
152.8279474533
 20
109.54450779
 11
159.2403088849
 21
104.7352367163
  0
LINE
  8
LY_00
  6
CONTINUOUS
 62
     3
 10
159.2403088849
 20
104.7352367163
 11
158.1715819797
 21
60.91743360027
  0
LINE
  8
LY_00
  6
CONTINUOUS
 62
     3
 10
158.1715819797
 20
60.91743360027
 11
143.7437687585
 21
44.35216656862
  0
LINE
  8
LY_00
  6
CONTINUOUS
 62
     3
 10
143.7437687585
 20
44.35216656862
 11
106.8726905268
 21
17.63399393692
  0
LINE
  8
LY_00
  6
CONTINUOUS
 62
     3
 10
106.8726905268
 20
17.63399393692
 11
79.62015444246
 21
8.549815242143
  0
LINE
  8
LY_00
  6
CONTINUOUS
 62
     3
 10
79.62015444246
 20
8.549815242143
 11
60.91743360027
 21
5.877997978974
  0
LINE
  8
LY_00
  6
CONTINUOUS
 62
     3
 10
60.91743360027
 20
5.877997978974
 11
35.26798787384
 21
7.481088336875
  0
LINE
  8
LY_00
  6
CONTINUOUS
 62
     3
 10
35.26798787384
 20
7.481088336875
 11
11.22163250531
 21
16.03090357902
  0
LINE
  8
LY_00
  6
CONTINUOUS
 62
     3
 10
11.22163250531
 20
16.03090357902
 11
6.412361431608
 21
42.74907621072
  0
LINE
  8
LY_00
  6
CONTINUOUS
 62
     3
 10
11.22163250531
 20
16.03090357902
 11
0
 21
0
  0
LINE
  8
LY_00
  6
CONTINUOUS
 62
     3
 10
0
 20
0
 11
-11.22163250531
 21
-9.618542147411
  0
LINE
  8
LY_00
  6
CONTINUOUS
 62
     3
 10
-11.22163250531
 20
-9.618542147411
 11
-38.47416858965
 21
-12.82472286322
  0
LINE
  8
LY_00
  6
CONTINUOUS
 62
     3
 10
-38.47416858965
 20
-12.82472286322
 11
-63.05488741081
 21
-12.29035941058
  0
LINE
  8
LY_00
  6
CONTINUOUS
 62
     3
 10
-63.05488741081
 20
-12.29035941058
 11
-75.87961027402
 21
-8.015451789509
  0
LINE
  8
LY_00
  6
CONTINUOUS
 62
     3
 10
-75.87961027402
 20
-8.015451789509
 11
-79.08579098983
 21
14.96217667375
  0
LINE
  8
LY_00
  6
CONTINUOUS
 62
     3
 10
-79.08579098983
 20
14.96217667375
 11
-78.01706408456
 21
19.77144774746
  0
LINE
  8
LY_00
  6
CONTINUOUS
 62
     3
 10
-78.01706408456
 20
19.77144774746
 11
-74.27651991612
 21
13.35908631585
  0
LINE
  8
LY_00
  6
CONTINUOUS
 62
     3
 10
-74.27651991612
 20
13.35908631585
 11
-55.0394356213
 21
12.29035941058
  0
LINE
  8
LY_00
  6
CONTINUOUS
 62
     3
 10
-55.0394356213
 20
12.29035941058
 11
-21.90890155799
 21
12.29035941058
  0
LINE
  8
LY_00
  6
CONTINUOUS
 62
     3
 10
-21.90890155799
 20
12.29035941058
 11
-15.49654012638
 21
14.96217667375
  0
LINE
  8
LY_00
  6
CONTINUOUS
 62
     3
 10
-76.94833717929
 20
-3.740544168438
 11
-65.72670467398
 21
-5.877997978974
  0
LINE
  8
LY_00
  6
CONTINUOUS
 62
     3
 10
-65.72670467398
 20
-5.877997978974
 11
-32.06180715804
 21
-8.015451789509
  0
LINE
  8
LY_00
  6
CONTINUOUS
 62
     3
 10
-32.06180715804
 20
-8.015451789509
 11
-10.15290560005
 21
-4.809271073706
  0
LINE
  8
LY_00
  6
CONTINUOUS
 62
     3
 10
-10.15290560005
 20
-4.809271073706
 11
-2.67181726317
 21
3.206180715804
  0
LINE
  8
LY_00
  6
CONTINUOUS
 62
     3
 10
-2.67181726317
 20
3.206180715804
 11
11.22163250531
 21
16.03090357902
  0
LINE
  8
LY_00
  6
CONTINUOUS
 62
     3
 10
10.15290560005
 20
21.90890155799
 11
29.9243533475
 21
14.96217667375
  0
LINE
  8
LY_00
  6
CONTINUOUS
 62
     3
 10
29.9243533475
 20
14.96217667375
 11
52.36761835813
 21
11.75599595795
  0
LINE
  8
LY_00
  6
CONTINUOUS
 62
     3
 10
52.36761835813
 20
11.75599595795
 11
71.07033920032
 21
11.22163250531
  0
LINE
  8
LY_00
  6
CONTINUOUS
 62
     3
 10
71.07033920032
 20
11.22163250531
 11
87.10124277934
 21
13.89344976848
  0
LINE
  8
LY_00
  6
CONTINUOUS
 62
     3
 10
87.10124277934
 20
13.89344976848
 11
107.9414174321
 21
22.97762846326
  0
LINE
  8
LY_00
  6
CONTINUOUS
 62
     3
 10
107.9414174321
 20
22.97762846326
 11
150.9576753691
 21
52.63480008445
  0
LINE
  8
LY_00
  6
CONTINUOUS
 62
     3
 10
158.7059454323
 20
82.82633515826
 11
145.8812225691
 21
65.19234122134
  0
LINE
  8
LY_00
  6
CONTINUOUS
 62
     3
 10
145.8812225691
 20
65.19234122134
 11
122.3692306532
 21
41.14598585282
  0
LINE
  8
LY_00
  6
CONTINUOUS
 62
     3
 10
122.3692306532
 20
41.14598585282
 11
146.4155860217
 21
57.71125288447
  0
LINE
  8
LY_00
  6
CONTINUOUS
 62
     3
 10
146.4155860217
 20
57.71125288447
 11
158.7059454323
 21
73.74215646349
  0
LINE
  8
LY_00
  6
CONTINUOUS
 62
     3
 10
-66.79543157925
 20
70.00161229505
 11
-68.39852193715
 21
64.12361431608
  0
LINE
  8
LY_00
  6
CONTINUOUS
 62
     3
 10
-68.39852193715
 20
64.12361431608
 11
-82.29197170563
 21
46.48962037915
  0
LINE
  8
LY_00
  6
CONTINUOUS
 62
     3
 10
-82.29197170563
 20
46.48962037915
 11
-85.49815242143
 21
35.80235132648
  0
LINE
  8
LY_00
  6
CONTINUOUS
 62
     3
 10
-85.49815242143
 20
35.80235132648
 11
-82.82633515826
 21
25.1150822738
  0
LINE
  8
LY_00
  6
CONTINUOUS
 62
     3
 10
-82.82633515826
 20
25.1150822738
 11
-78.01706408456
 21
19.77144774746
  0
LINE
  8
LY_00
  6
CONTINUOUS
 62
     3
 10
-78.01706408456
 20
19.77144774746
 11
-65.72670467398
 21
17.09963048429
  0
LINE
  8
LY_00
  6
CONTINUOUS
 62
     3
 10
-65.72670467398
 20
17.09963048429
 11
-49.69580109496
 21
20.84017465272
  0
LINE
  8
LY_00
  6
CONTINUOUS
 62
     3
 10
-49.69580109496
 20
20.84017465272
 11
-46.48962037915
 21
24.58071882116
  0
LINE
  8
LY_00
  6
CONTINUOUS
 62
     3
 10
-46.48962037915
 20
24.58071882116
 11
-43.81780311599
 21
35.80235132648
  0
LINE
  8
LY_00
  6
CONTINUOUS
 62
     3
 10
-46.48962037915
 20
24.58071882116
 11
-43.81780311599
 21
18.16835738955
  0
LINE
  8
LY_00
  6
CONTINUOUS
 62
     3
 10
-43.81780311599
 20
18.16835738955
 11
-36.33671477911
 21
16.03090357902
  0
LINE
  8
LY_00
  6
CONTINUOUS
 62
     3
 10
-36.33671477911
 20
16.03090357902
 11
-15.49654012638
 21
14.96217667375
  0
LINE
  8
LY_00
  6
CONTINUOUS
 62
     3
 10
-15.49654012638
 20
14.96217667375
 11
-5.877997978974
 21
24.04635536853
  0
LINE
  8
LY_00
  6
CONTINUOUS
 62
     3
 10
-5.877997978974
 20
24.04635536853
 11
6.412361431608
 21
42.74907621072
  0
LINE
  8
LY_00
  6
CONTINUOUS
 62
     3
 10
131.453409348
 20
69.73443056873
 11
129.3159555374
 21
58.77997978974
  0
LINE
  8
LY_00
  6
CONTINUOUS
 62
     3
 10
129.3159555374
 20
58.77997978974
 11
118.6286864847
 21
43.81780311599
  0
LINE
  8
LY_00
  6
CONTINUOUS
 62
     3
 10
118.6286864847
 20
43.81780311599
 11
104.2008732636
 21
33.66489751594
  0
LINE
  8
LY_00
  6
CONTINUOUS
 62
     3
 10
104.2008732636
 20
33.66489751594
 11
67.32979503188
 21
30.99308025277
  0
LINE
  8
LY_00
  6
CONTINUOUS
 62
     3
 10
67.32979503188
 20
30.99308025277
 11
53.4363452634
 21
35.80235132648
  0
LINE
  8
LY_00
  6
CONTINUOUS
 62
     3
 10
53.4363452634
 20
35.80235132648
 11
46.48962037915
 21
43.28343966335
  0
LINE
  8
LY_00
  6
CONTINUOUS
 62
     3
 10
-147.484312927
 20
722.9937514138
 11
-142.6750418533
 21
641.2361431608
  0
LINE
  8
LY_00
  6
CONTINUOUS
 62
     3
 10
-142.6750418533
 20
641.2361431608
 11
-133.8948351451
 21
547.7683759954
  0
LINE
  8
LY_00
  6
CONTINUOUS
 62
     3
 10
-133.8948351451
 20
547.7683759954
 11
-119.2819888994
 21
431.3692065215
  0
LINE
  8
LY_00
  6
CONTINUOUS
 62
     3
 10
-119.2819888994
 20
431.3692065215
 11
-99.42780100445
 21
296.9716269248
  0
LINE
  8
LY_00
  6
CONTINUOUS
 62
     3
 10
-99.42780100445
 20
296.9716269248
 11
-83.3606986109
 21
220.6921059378
  0
LINE
  8
LY_00
  6
CONTINUOUS
 62
     3
 10
-47.74207021929
 20
1324.444283784
 11
-53.2518859329
 21
1322.778525545
  0
LINE
  8
LY_00
  6
CONTINUOUS
 62
     3
 10
-53.2518859329
 20
1322.778525545
 11
-57.09594340751
 21
1317.52498033
  0
LINE
  8
LY_00
  6
CONTINUOUS
 62
     3
 10
-57.09594340751
 20
1317.52498033
 11
-55.43018516851
 21
1302.661291428
  0
LINE
  8
LY_00
  6
CONTINUOUS
 62
     3
 10
-55.43018516851
 20
1302.661291428
 11
-49.44994908806
 21
1275.366724665
  0
LINE
  8
LY_00
  6
CONTINUOUS
 62
     3
 10
-49.44994908806
 20
1275.366724665
 11
-31.91810962659
 21
1214.92112891
  0
LINE
  8
LY_00
  6
CONTINUOUS
 62
     3
 10
-47.09492587682
 20
1322.205519645
 11
-49.71161833375
 21
1320.112165679
  0
LINE
  8
LY_00
  6
CONTINUOUS
 62
     3
 10
-49.71161833375
 20
1320.112165679
 11
-51.01996456222
 21
1314.093773028
  0
LINE
  8
LY_00
  6
CONTINUOUS
 62
     3
 10
-51.01996456222
 20
1314.093773028
 11
-45.78657964835
 21
1286.880171476
  0
LINE
  8
LY_00
  6
CONTINUOUS
 62
     3
 10
-45.78657964835
 20
1286.880171476
 11
-36.36648680338
 21
1259.928239169
  0
LINE
  8
LY_00
  6
CONTINUOUS
 62
     3
 10
-36.36648680338
 20
1259.928239169
 11
-26.16138622133
 21
1220.154513824
  0
LINE
  8
LY_00
  6
CONTINUOUS
 62
     3
 10
67.77787298267
 20
1324.29887361
 11
53.81992896077
 21
1315.080519313
  0
LINE
  8
LY_00
  6
CONTINUOUS
 62
     3
 10
53.81992896077
 20
1315.080519313
 11
27.27062965496
 21
1288.9051538
  0
LINE
  8
LY_00
  6
CONTINUOUS
 62
     3
 10
27.27062965496
 20
1288.9051538
 11
-26.16138622133
 21
1220.154513824
  0
LINE
  8
LY_00
  6
CONTINUOUS
 62
     3
 10
-26.16138622133
 20
1220.154513824
 11
-31.91810962659
 21
1214.92112891
  0
LINE
  8
LY_00
  6
CONTINUOUS
 62
     3
 10
-31.91810962659
 20
1214.92112891
 11
-63.59528205365
 21
1173.733545544
  0
LINE
  8
LY_00
  6
CONTINUOUS
 62
     3
 10
-63.59528205365
 20
1173.733545544
 11
-90.14458135946
 21
1128.861490379
  0
LINE
  8
LY_00
  6
CONTINUOUS
 62
     3
 10
-90.14458135946
 20
1128.861490379
 11
-97.99719101329
 21
1110.912668313
  0
LINE
  8
LY_00
  6
CONTINUOUS
 62
     3
 10
-97.99719101329
 20
1110.912668313
 11
-100.6147275646
 21
1093.33778004
  0
LINE
  8
LY_00
  6
CONTINUOUS
 62
     3
 10
-105.6624101313
 20
1266.459504392
 11
-103.4799274421
 21
1190.07261027
  0
LINE
  8
LY_00
  6
CONTINUOUS
 62
     3
 10
-103.4799274421
 20
1190.07261027
 11
-89.29378996228
 21
1135.51054304
  0
LINE
  8
LY_00
  6
CONTINUOUS
 62
     3
 10
99.49096265334
 20
1278.463159182
 11
48.20261945719
 21
1212.988678506
  0
LINE
  8
LY_00
  6
CONTINUOUS
 62
     3
 10
48.20261945719
 20
1212.988678506
 11
12.19165508542
 21
1160.609093966
  0
LINE
  8
LY_00
  6
CONTINUOUS
 62
     3
 10
12.19165508542
 20
1160.609093966
 11
-18.36310256335
 21
1101.682061357
  0
LINE
  8
LY_00
  6
CONTINUOUS
 62
     3
 10
-176.3399393692
 20
1103.994893142
 11
-173.668122106
 21
1107.73543731
  0
LINE
  8
LY_00
  6
CONTINUOUS
 62
     3
 10
-173.668122106
 20
1107.73543731
 11
-174.7368490113
 21
1115.7508891
  0
LINE
  8
LY_00
  6
CONTINUOUS
 62
     3
 10
-174.7368490113
 20
1115.7508891
 11
-172.0650317481
 21
1120.025796721
  0
LINE
  8
LY_00
  6
CONTINUOUS
 62
     3
 10
-172.0650317481
 20
1120.025796721
 11
-165.1183068639
 21
1134.987973395
  0
LINE
  8
LY_00
  6
CONTINUOUS
 62
     3
 10
-165.1183068639
 20
1134.987973395
 11
-161.3777626955
 21
1136.0567003
  0
LINE
  8
LY_00
  6
CONTINUOUS
 62
     3
 10
-161.3777626955
 20
1136.0567003
 11
-154.9654012638
 21
1132.316156131
  0
LINE
  8
LY_00
  6
CONTINUOUS
 62
     3
 10
-154.9654012638
 20
1132.316156131
 11
-156.5684916217
 21
1124.300704342
  0
LINE
  8
LY_00
  6
CONTINUOUS
 62
     3
 10
-156.5684916217
 20
1124.300704342
 11
-166.7213972218
 21
1112.010344931
  0
LINE
  8
LY_00
  6
CONTINUOUS
 62
     3
 10
-166.7213972218
 20
1112.010344931
 11
-167.7901241271
 21
1108.804164215
  0
LINE
  8
LY_00
  6
CONTINUOUS
 62
     3
 10
-167.7901241271
 20
1108.804164215
 11
-169.9275779376
 21
1107.201073858
  0
LINE
  8
LY_00
  6
CONTINUOUS
 62
     3
 10
-169.9275779376
 20
1107.201073858
 11
-168.8588510323
 21
1102.391802784
  0
LINE
  8
LY_00
  6
CONTINUOUS
 62
     3
 10
-168.8588510323
 20
1102.391802784
 11
-155.4997647165
 21
1081.551628131
  0
LINE
  8
LY_00
  6
CONTINUOUS
 62
     3
 10
-155.4997647165
 20
1081.551628131
 11
-153.8966743586
 21
1080.482901226
  0
LINE
  8
LY_00
  6
CONTINUOUS
 62
     3
 10
-160.8433992428
 20
1068.726905268
 11
-154.6982195375
 21
1081.017264679
  0
LINE
  8
LY_00
  6
CONTINUOUS
 62
     3
 10
-154.6982195375
 20
1081.017264679
 11
-140.5375880427
 21
1086.895262657
  0
LINE
  8
LY_00
  6
CONTINUOUS
 62
     3
 10
-140.5375880427
 20
1086.895262657
 11
-117.5599595795
 21
1091.704533731
  0
LINE
  8
LY_00
  6
CONTINUOUS
 62
     3
 10
-117.5599595795
 20
1091.704533731
 11
-100.6147275646
 21
1093.33778004
  0
LINE
  8
LY_00
  6
CONTINUOUS
 62
     3
 10
-100.6147275646
 20
1093.33778004
 11
-91.37615040041
 21
1089.567079921
  0
LINE
  8
LY_00
  6
CONTINUOUS
 62
     3
 10
-91.37615040041
 20
1089.567079921
 11
-51.29889145286
 21
1085.2921723
  0
LINE
  8
LY_00
  6
CONTINUOUS
 62
     3
 10
-51.29889145286
 20
1085.2921723
 11
-43.81780311598
 21
1081.017264679
  0
LINE
  8
LY_00
  6
CONTINUOUS
 62
     3
 10
-159.2403088849
 20
1043.611822994
 11
-150.6904936428
 21
1053.230365142
  0
LINE
  8
LY_00
  6
CONTINUOUS
 62
     3
 10
-150.6904936428
 20
1053.230365142
 11
-149.0874032849
 21
1061.780180384
  0
LINE
  8
LY_00
  6
CONTINUOUS
 62
     3
 10
-149.0874032849
 20
1061.780180384
 11
-141.606314948
 21
1059.108363121
  0
LINE
  8
LY_00
  6
CONTINUOUS
 62
     3
 10
-141.606314948
 20
1059.108363121
 11
-118.0943230321
 21
1057.505272763
  0
LINE
  8
LY_00
  6
CONTINUOUS
 62
     3
 10
-118.0943230321
 20
1057.505272763
 11
-104.2008732636
 21
1054.833455499
  0
LINE
  8
LY_00
  6
CONTINUOUS
 62
     3
 10
-104.2008732636
 20
1054.833455499
 11
-21.90890155799
 21
1056.436545857
  0
LINE
  8
LY_00
  6
CONTINUOUS
 62
     3
 10
-21.90890155799
 20
1056.436545857
 11
61.45179705291
 21
1059.642726573
  0
LINE
  8
LY_00
  6
CONTINUOUS
 62
     3
 10
61.45179705291
 20
1059.642726573
 11
109.54450779
 21
1067.12381491
  0
LINE
  8
LY_00
  6
CONTINUOUS
 62
     3
 10
109.54450779
 20
1067.12381491
 11
112.7506885058
 21
1063.917634194
  0
LINE
  8
LY_00
  6
CONTINUOUS
 62
     3
 10
109.54450779
 20
1067.12381491
 11
90.84178694778
 21
1074.604903247
  0
LINE
  8
LY_00
  6
CONTINUOUS
 62
     3
 10
90.84178694778
 20
1074.604903247
 11
57.71125288447
 21
1078.879810868
  0
LINE
  8
LY_00
  6
CONTINUOUS
 62
     3
 10
57.71125288447
 20
1078.879810868
 11
19.23708429482
 21
1078.879810868
  0
LINE
  8
LY_00
  6
CONTINUOUS
 62
     3
 10
115.1553240426
 20
1086.628080931
 11
74.27651991612
 21
1089.032716468
  0
LINE
  8
LY_00
  6
CONTINUOUS
 62
     3
 10
74.27651991612
 20
1089.032716468
 11
3.206180715806
 21
1089.032716468
  0
LINE
  8
LY_00
  6
CONTINUOUS
 62
     3
 10
3.206180715806
 20
1089.032716468
 11
-43.81780311598
 21
1081.017264679
  0
LINE
  8
LY_00
  6
CONTINUOUS
 62
     3
 10
-43.81780311598
 20
1081.017264679
 11
-81.75760825299
 21
1073.001812889
  0
LINE
  8
LY_00
  6
CONTINUOUS
 62
     3
 10
-81.75760825299
 20
1073.001812889
 11
-104.7352367163
 21
1067.658178363
  0
LINE
  8
LY_00
  6
CONTINUOUS
 62
     3
 10
-104.7352367163
 20
1067.658178363
 11
-113.819415411
 21
1062.848907289
  0
LINE
  8
LY_00
  6
CONTINUOUS
 62
     3
 10
-113.819415411
 20
1062.848907289
 11
-118.0943230321
 21
1057.505272763
  0
LINE
  8
LY_00
  6
CONTINUOUS
 62
     3
 10
-150.6904936428
 20
1053.230365142
 11
-151.759220548
 21
1037.199461563
  0
LINE
  8
LY_00
  6
CONTINUOUS
 62
     3
 10
-151.759220548
 20
1037.199461563
 11
-145.8812225691
 21
1021.702921436
  0
LINE
  8
LY_00
  6
CONTINUOUS
 62
     3
 10
-145.8812225691
 20
1021.702921436
 11
-138.4001342322
 21
1007.275108215
  0
LINE
  8
LY_00
  6
CONTINUOUS
 62
     3
 10
-145.8812225691
 20
1021.702921436
 11
-151.759220548
 21
1012.618742741
  0
LINE
  8
LY_00
  6
CONTINUOUS
 62
     3
 10
-151.759220548
 20
1012.618742741
 11
-150.6904936428
 21
1004.068927499
  0
LINE
  8
LY_00
  6
CONTINUOUS
 62
     3
 10
-150.6904936428
 20
1004.068927499
 11
-143.2094053059
 21
998.1909295202
  0
LINE
  8
LY_00
  6
CONTINUOUS
 62
     3
 10
-143.2094053059
 20
998.1909295202
 11
-120.2317768426
 21
993.3816584465
  0
LINE
  8
LY_00
  6
CONTINUOUS
 62
     3
 10
-120.2317768426
 20
993.3816584465
 11
-77.48270063192
 21
990.1754777307
  0
LINE
  8
LY_00
  6
CONTINUOUS
 62
     3
 10
-77.48270063192
 20
990.1754777307
 11
-27.78689953696
 21
989.6411142781
  0
LINE
  8
LY_00
  6
CONTINUOUS
 62
     3
 10
-146.9499494743
 20
1001.12992851
 11
-150.6904936428
 21
991.244204636
  0
LINE
  8
LY_00
  6
CONTINUOUS
 62
     3
 10
-150.6904936428
 20
991.244204636
 11
-152.8279474533
 21
973.6102106991
  0
LINE
  8
LY_00
  6
CONTINUOUS
 62
     3
 10
-152.8279474533
 20
973.6102106991
 11
-153.3623109059
 21
963.457305099
  0
LINE
  8
LY_00
  6
CONTINUOUS
 62
     3
 10
-142.1406784006
 20
1014.489014826
 11
-142.6750418533
 21
1011.550015836
  0
LINE
  8
LY_00
  6
CONTINUOUS
 62
     3
 10
-142.6750418533
 20
1011.550015836
 11
-138.4001342322
 21
1007.275108215
  0
LINE
  8
LY_00
  6
CONTINUOUS
 62
     3
 10
-138.4001342322
 20
1007.275108215
 11
-112.7506885058
 21
1001.397110236
  0
LINE
  8
LY_00
  6
CONTINUOUS
 62
     3
 10
-112.7506885058
 20
1001.397110236
 11
-57.17688943183
 21
999.7940198781
  0
LINE
  8
LY_00
  6
CONTINUOUS
 62
     3
 10
-57.17688943183
 20
999.7940198781
 11
-30.99308025277
 21
1001.397110236
  0
LINE
  8
LY_00
  6
CONTINUOUS
 62
     3
 10
-30.31517447313
 20
996.4889276429
 11
-62.84741446757
 21
994.9931924707
  0
LINE
  8
LY_00
  6
CONTINUOUS
 62
     3
 10
25.40096068977
 20
1007.706941434
 11
13.4350793125
 21
1007.706941434
  0
LINE
  8
LY_00
  6
CONTINUOUS
 62
     3
 10
13.4350793125
 20
1007.706941434
 11
4.460668279551
 21
1012.194146951
  0
LINE
  8
LY_00
  6
CONTINUOUS
 62
     3
 10
4.460668279551
 20
1012.194146951
 11
-11.99241861419
 21
1017.05528626
  0
LINE
  8
LY_00
  6
CONTINUOUS
 62
     3
 10
-11.99241861419
 20
1017.05528626
 11
-23.21043240538
 21
1012.942014537
  0
LINE
  8
LY_00
  6
CONTINUOUS
 62
     3
 10
-23.21043240538
 20
1012.942014537
 11
-28.44550550793
 21
1008.080875227
  0
LINE
  8
LY_00
  6
CONTINUOUS
 62
     3
 10
-28.44550550793
 20
1008.080875227
 11
-30.99308025277
 21
1001.397110236
  0
LINE
  8
LY_00
  6
CONTINUOUS
 62
     3
 10
-30.99308025277
 20
1001.397110236
 11
-30.31517447313
 21
996.4889276429
  0
LINE
  8
LY_00
  6
CONTINUOUS
 62
     3
 10
-30.31517447313
 20
996.4889276429
 11
-27.78689953696
 21
989.6411142781
  0
LINE
  8
LY_00
  6
CONTINUOUS
 62
     3
 10
-27.78689953696
 20
989.6411142781
 11
-20.96682964714
 21
980.4097745422
  0
LINE
  8
LY_00
  6
CONTINUOUS
 62
     3
 10
-20.96682964714
 20
980.4097745422
 11
-11.24455102811
 21
977.7922379909
  0
LINE
  8
LY_00
  6
CONTINUOUS
 62
     3
 10
-11.24455102811
 20
977.7922379909
 11
0.3473965561163
 21
977.7922379909
  0
LINE
  8
LY_00
  6
CONTINUOUS
 62
     3
 10
0.3473965561163
 20
977.7922379909
 11
11.5654103473
 21
983.4012448865
  0
LINE
  8
LY_00
  6
CONTINUOUS
 62
     3
 10
11.5654103473
 20
983.4012448865
 11
16.42654965682
 21
990.5059869543
  0
LINE
  8
LY_00
  6
CONTINUOUS
 62
     3
 10
16.42654965682
 20
990.5059869543
 11
21.66162275937
 21
994.2453248847
  0
LINE
  8
LY_00
  6
CONTINUOUS
 62
     3
 10
21.28768896633
 20
1002.471868332
 11
14.18294689858
 21
1002.471868332
  0
LINE
  8
LY_00
  6
CONTINUOUS
 62
     3
 10
14.18294689858
 20
1002.471868332
 11
5.208535865631
 21
1005.089404883
  0
LINE
  8
LY_00
  6
CONTINUOUS
 62
     3
 10
5.208535865631
 20
1005.089404883
 11
-5.635544132517
 21
1010.698411778
  0
LINE
  8
LY_00
  6
CONTINUOUS
 62
     3
 10
-5.635544132517
 20
1010.698411778
 11
-14.23602137243
 21
1011.446279364
  0
LINE
  8
LY_00
  6
CONTINUOUS
 62
     3
 10
-14.23602137243
 20
1011.446279364
 11
-20.96682964714
 21
1008.828742813
  0
LINE
  8
LY_00
  6
CONTINUOUS
 62
     3
 10
-20.96682964714
 20
1008.828742813
 11
-23.58436619842
 21
1005.463338676
  0
LINE
  8
LY_00
  6
CONTINUOUS
 62
     3
 10
-23.58436619842
 20
1005.463338676
 11
-24.70616757753
 21
997.236795229
  0
LINE
  8
LY_00
  6
CONTINUOUS
 62
     3
 10
-24.70616757753
 20
997.236795229
 11
-19.84502826802
 21
988.262384196
  0
LINE
  8
LY_00
  6
CONTINUOUS
 62
     3
 10
-19.84502826802
 20
988.262384196
 11
-8.627014476834
 21
982.2794435074
  0
LINE
  8
LY_00
  6
CONTINUOUS
 62
     3
 10
-8.627014476834
 20
982.2794435074
 11
0.7213303491559
 21
983.7751786795
  0
LINE
  8
LY_00
  6
CONTINUOUS
 62
     3
 10
0.7213303491559
 20
983.7751786795
 11
8.947873796027
 21
987.888450403
  0
LINE
  8
LY_00
  6
CONTINUOUS
 62
     3
 10
8.947873796027
 20
987.888450403
 11
15.67868207074
 21
996.4889276429
  0
LINE
  8
LY_00
  6
CONTINUOUS
 62
     3
 10
15.67868207074
 20
996.4889276429
 11
23.90522551761
 21
1002.097934538
  0
LINE
  8
LY_00
  6
CONTINUOUS
 62
     3
 10
-24.14526688798
 20
1001.350066952
 11
-9.000948269873
 21
1003.219735918
  0
LINE
  8
LY_00
  6
CONTINUOUS
 62
     3
 10
-9.000948269873
 20
1003.219735918
 11
5.208535865631
 21
1005.089404883
  0
LINE
  8
LY_00
  6
CONTINUOUS
 62
     3
 10
-24.70616757753
 20
997.236795229
 11
-4.887676546438
 21
997.236795229
  0
LINE
  8
LY_00
  6
CONTINUOUS
 62
     3
 10
-4.887676546438
 20
997.236795229
 11
8.947873796027
 21
999.4803979872
  0
LINE
  8
LY_00
  6
CONTINUOUS
 62
     3
 10
-20.96682964714
 20
990.5059869543
 11
-4.139808960358
 21
991.6277883334
  0
LINE
  8
LY_00
  6
CONTINUOUS
 62
     3
 10
12.31327793338
 20
1002.845802125
 11
8.947873796027
 21
999.4803979872
  0
LINE
  8
LY_00
  6
CONTINUOUS
 62
     3
 10
8.947873796027
 20
999.4803979872
 11
-1.148338616042
 21
989.3841855751
  0
LINE
  8
LY_00
  6
CONTINUOUS
 62
     3
 10
-1.148338616042
 20
989.3841855751
 11
-3.952842063839
 21
983.0273110935
  0
LINE
  8
LY_00
  6
CONTINUOUS
 62
     3
 10
17.73531793246
 20
1002.471868332
 11
8.947873796027
 21
993.8713910916
  0
LINE
  8
LY_00
  6
CONTINUOUS
 62
     3
 10
8.947873796027
 20
993.8713910916
 11
0.7213303491559
 21
983.7751786795
  0
LINE
  8
LY_00
  6
CONTINUOUS
 62
     3
 10
-5.448577235997
 20
977.7922379909
 11
-11.99241861419
 21
969.191760751
  0
LINE
  8
LY_00
  6
CONTINUOUS
 62
     3
 10
-11.99241861419
 20
969.191760751
 11
-11.99241861419
 21
960.9652173041
  0
LINE
  8
LY_00
  6
CONTINUOUS
 62
     3
 10
-11.99241861419
 20
960.9652173041
 11
-7.505213097715
 21
952.3647400642
  0
LINE
  8
LY_00
  6
CONTINUOUS
 62
     3
 10
-7.505213097715
 20
952.3647400642
 11
0.3473965561163
 21
948.9993359269
  0
LINE
  8
LY_00
  6
CONTINUOUS
 62
     3
 10
0.3473965561163
 20
948.9993359269
 11
4.086734486512
 21
948.9993359269
  0
LINE
  8
LY_00
  6
CONTINUOUS
 62
     3
 10
5.208535865631
 20
978.540105577
 11
-2.270139995161
 21
974.4268338536
  0
LINE
  8
LY_00
  6
CONTINUOUS
 62
     3
 10
-2.270139995161
 20
974.4268338536
 11
-6.009477925556
 21
968.0699593719
  0
LINE
  8
LY_00
  6
CONTINUOUS
 62
     3
 10
-6.009477925556
 20
968.0699593719
 11
-6.009477925556
 21
958.7216145459
  0
LINE
  8
LY_00
  6
CONTINUOUS
 62
     3
 10
-6.009477925556
 20
958.7216145459
 11
-2.6440737882
 21
954.2344090294
  0
LINE
  8
LY_00
  6
CONTINUOUS
 62
     3
 10
-2.6440737882
 20
954.2344090294
 11
2.590999314354
 21
953.8604752364
  0
LINE
  8
LY_00
  6
CONTINUOUS
 62
     3
 10
5.95640345171
 20
980.5967414387
 11
6.330337244749
 21
968.817826958
  0
LINE
  8
LY_00
  6
CONTINUOUS
 62
     3
 10
6.330337244749
 20
968.817826958
 11
4.086734486512
 21
956.1040779946
  0
LINE
  8
LY_00
  6
CONTINUOUS
 62
     3
 10
4.086734486512
 20
956.1040779946
 11
4.086734486512
 21
948.9993359269
  0
LINE
  8
LY_00
  6
CONTINUOUS
 62
     3
 10
4.086734486512
 20
948.9993359269
 11
-8.253080683794
 21
914.2234931742
  0
LINE
  8
LY_00
  6
CONTINUOUS
 62
     3
 10
-8.253080683794
 20
914.2234931742
 11
-0.02653723692333
 21
912.727758002
  0
LINE
  8
LY_00
  6
CONTINUOUS
 62
     3
 10
-0.02653723692333
 20
912.727758002
 11
17.54835103594
 21
912.727758002
  0
LINE
  8
LY_00
  6
CONTINUOUS
 62
     3
 10
17.54835103594
 20
912.727758002
 11
31.3839013784
 21
920.5803676559
  0
LINE
  8
LY_00
  6
CONTINUOUS
 62
     3
 10
31.3839013784
 20
920.5803676559
 11
31.3839013784
 21
926.9372421375
  0
LINE
  8
LY_00
  6
CONTINUOUS
 62
     3
 10
31.3839013784
 20
926.9372421375
 11
15.67868207074
 21
949.7472035129
  0
LINE
  8
LY_00
  6
CONTINUOUS
 62
     3
 10
15.67868207074
 20
949.7472035129
 11
8.947873796027
 21
951.9908062712
  0
LINE
  8
LY_00
  6
CONTINUOUS
 62
     3
 10
8.947873796027
 20
951.9908062712
 11
4.086734486512
 21
948.9993359269
  0
LINE
  8
LY_00
  6
CONTINUOUS
 62
     3
 10
17.54835103594
 20
986.0187814378
 11
11.5654103473
 21
969.9396283371
  0
LINE
  8
LY_00
  6
CONTINUOUS
 62
     3
 10
11.5654103473
 20
969.9396283371
 11
8.947873796027
 21
951.9908062712
  0
LINE
  8
LY_00
  6
CONTINUOUS
 62
     3
 10
35.1232393088
 20
1012.942014537
 11
27.644563448
 21
1006.959073848
  0
LINE
  8
LY_00
  6
CONTINUOUS
 62
     3
 10
27.644563448
 20
1006.959073848
 11
23.90522551761
 21
1002.097934538
  0
LINE
  8
LY_00
  6
CONTINUOUS
 62
     3
 10
23.90522551761
 20
1002.097934538
 11
21.66162275937
 21
994.2453248847
  0
LINE
  8
LY_00
  6
CONTINUOUS
 62
     3
 10
21.66162275937
 20
994.2453248847
 11
17.92228482898
 21
983.0273110935
  0
LINE
  8
LY_00
  6
CONTINUOUS
 62
     3
 10
17.92228482898
 20
983.0273110935
 11
13.4350793125
 21
966.5742241997
  0
LINE
  8
LY_00
  6
CONTINUOUS
 62
     3
 10
13.4350793125
 20
966.5742241997
 11
12.31327793338
 21
950.8690048921
  0
LINE
  8
LY_00
  6
CONTINUOUS
 62
     3
 10
36.61897448095
 20
1007.706941434
 11
26.52276206889
 21
995.7410600568
  0
LINE
  8
LY_00
  6
CONTINUOUS
 62
     3
 10
26.52276206889
 20
995.7410600568
 11
22.40949034545
 21
980.7837083352
  0
LINE
  8
LY_00
  6
CONTINUOUS
 62
     3
 10
22.40949034545
 20
980.7837083352
 11
17.92228482898
 21
965.4524228206
  0
LINE
  8
LY_00
  6
CONTINUOUS
 62
     3
 10
17.92228482898
 20
965.4524228206
 11
17.54835103594
 21
948.2514683408
  0
LINE
  8
LY_00
  6
CONTINUOUS
 62
     3
 10
26.52276206889
 20
995.7410600568
 11
28.01849724104
 21
960.5912835111
  0
LINE
  8
LY_00
  6
CONTINUOUS
 62
     3
 10
28.01849724104
 20
960.5912835111
 11
24.27915931065
 21
955.7301442016
  0
LINE
  8
LY_00
  6
CONTINUOUS
 62
     3
 10
24.27915931065
 20
955.7301442016
 11
17.54835103594
 21
951.6168724781
  0
LINE
  8
LY_00
  6
CONTINUOUS
 62
     3
 10
23.53129172457
 20
984.8969800587
 11
23.90522551761
 21
966.2002904067
  0
LINE
  8
LY_00
  6
CONTINUOUS
 62
     3
 10
23.90522551761
 20
966.2002904067
 11
20.16588758721
 21
959.469482132
  0
LINE
  8
LY_00
  6
CONTINUOUS
 62
     3
 10
20.16588758721
 20
959.469482132
 11
17.73531793246
 21
956.8519455807
  0
LINE
  8
LY_00
  6
CONTINUOUS
 62
     3
 10
32.87963655056
 20
1015.185617295
 11
35.1232393088
 21
1012.942014537
  0
LINE
  8
LY_00
  6
CONTINUOUS
 62
     3
 10
35.1232393088
 20
1012.942014537
 11
36.61897448095
 21
1007.706941434
  0
LINE
  8
LY_00
  6
CONTINUOUS
 62
     3
 10
36.61897448095
 20
1007.706941434
 11
36.24504068791
 21
1000.228265573
  0
LINE
  8
LY_00
  6
CONTINUOUS
 62
     3
 10
36.24504068791
 20
1000.228265573
 11
35.1232393088
 21
997.236795229
  0
LINE
  8
LY_00
  6
CONTINUOUS
 62
     3
 10
35.1232393088
 20
997.236795229
 11
33.62750413664
 21
995.3671262638
  0
LINE
  8
LY_00
  6
CONTINUOUS
 62
     3
 10
33.62750413664
 20
995.3671262638
 11
38.48864344615
 21
995.7410600568
  0
LINE
  8
LY_00
  6
CONTINUOUS
 62
     3
 10
38.48864344615
 20
995.7410600568
 11
41.85404758351
 21
999.4803979872
  0
LINE
  8
LY_00
  6
CONTINUOUS
 62
     3
 10
41.85404758351
 20
999.4803979872
 11
42.22798137655
 21
1008.828742813
  0
LINE
  8
LY_00
  6
CONTINUOUS
 62
     3
 10
42.22798137655
 20
1008.828742813
 11
39.23651103223
 21
1016.681352467
  0
LINE
  8
LY_00
  6
CONTINUOUS
 62
     3
 10
39.23651103223
 20
1016.681352467
 11
36.24504068791
 21
1021.168557984
  0
LINE
  8
LY_00
  6
CONTINUOUS
 62
     3
 10
36.24504068791
 20
1021.168557984
 11
31.00996758536
 21
1020.046756604
  0
LINE
  8
LY_00
  6
CONTINUOUS
 62
     3
 10
31.00996758536
 20
1020.046756604
 11
31.75783517144
 21
1015.933484881
  0
LINE
  8
LY_00
  6
CONTINUOUS
 62
     3
 10
27.27062965497
 20
992.0017221264
 11
32.50570275752
 21
998.7325304011
  0
LINE
  8
LY_00
  6
CONTINUOUS
 62
     3
 10
32.50570275752
 20
998.7325304011
 11
36.24504068791
 21
1000.228265573
  0
LINE
  8
LY_00
  6
CONTINUOUS
 62
     3
 10
39.23651103223
 20
1016.681352467
 11
52.32419378862
 21
1020.79462419
  0
LINE
  8
LY_00
  6
CONTINUOUS
 62
     3
 10
52.32419378862
 20
1020.79462419
 11
62.79433999372
 21
1026.029697293
  0
LINE
  8
LY_00
  6
CONTINUOUS
 62
     3
 10
62.79433999372
 20
1026.029697293
 11
72.51661861275
 21
1026.777564879
  0
LINE
  8
LY_00
  6
CONTINUOUS
 62
     3
 10
4.460668279551
 20
1012.194146951
 11
10.06967517514
 21
1020.79462419
  0
LINE
  8
LY_00
  6
CONTINUOUS
 62
     3
 10
10.06967517514
 20
1020.79462419
 11
20.53982138025
 21
1028.273300051
  0
LINE
  8
LY_00
  6
CONTINUOUS
 62
     3
 10
20.53982138025
 20
1028.273300051
 11
48.58485585822
 21
1032.012637982
  0
LINE
  8
LY_00
  6
CONTINUOUS
 62
     3
 10
48.58485585822
 20
1032.012637982
 11
77.37775792227
 21
1030.142969016
  0
LINE
  8
LY_00
  6
CONTINUOUS
 62
     3
 10
77.37775792227
 20
1030.142969016
 11
79.62136068051
 21
1029.39510143
  0
LINE
  8
LY_00
  6
CONTINUOUS
 62
     3
 10
43.72371654871
 20
1017.429220053
 11
47.08912068606
 21
1009.576610399
  0
LINE
  8
LY_00
  6
CONTINUOUS
 62
     3
 10
47.08912068606
 20
1009.576610399
 11
47.83698827214
 21
1003.593669711
  0
LINE
  8
LY_00
  6
CONTINUOUS
 62
     3
 10
47.83698827214
 20
1003.593669711
 11
45.21945172086
 21
997.236795229
  0
LINE
  8
LY_00
  6
CONTINUOUS
 62
     3
 10
45.21945172086
 20
997.236795229
 11
41.85404758351
 21
996.1149938499
  0
LINE
  8
LY_00
  6
CONTINUOUS
 62
     3
 10
41.85404758351
 20
996.1149938499
 11
40.17134551483
 21
997.610729022
  0
LINE
  8
LY_00
  6
CONTINUOUS
 62
     3
 10
45.40641861738
 20
1013.502915226
 11
52.69812758166
 21
1015.559551088
  0
LINE
  8
LY_00
  6
CONTINUOUS
 62
     3
 10
52.69812758166
 20
1015.559551088
 11
65.411876545
 21
1021.91642557
  0
LINE
  8
LY_00
  6
CONTINUOUS
 62
     3
 10
65.411876545
 20
1021.91642557
 11
72.51661861275
 21
1026.777564879
  0
LINE
  8
LY_00
  6
CONTINUOUS
 62
     3
 10
72.51661861275
 20
1026.777564879
 11
79.62136068051
 21
1029.39510143
  0
LINE
  8
LY_00
  6
CONTINUOUS
 62
     3
 10
79.62136068051
 20
1029.39510143
 11
89.34363929953
 21
1027.151498672
  0
LINE
  8
LY_00
  6
CONTINUOUS
 62
     3
 10
89.34363929953
 20
1027.151498672
 11
96.44838136729
 21
1023.038226949
  0
LINE
  8
LY_00
  6
CONTINUOUS
 62
     3
 10
96.44838136729
 20
1023.038226949
 11
101.6834544698
 21
1014.437749709
  0
LINE
  8
LY_00
  6
CONTINUOUS
 62
     3
 10
101.6834544698
 20
1014.437749709
 11
104.2008732636
 21
1006.740744762
  0
LINE
  8
LY_00
  6
CONTINUOUS
 62
     3
 10
104.2008732636
 20
1006.740744762
 11
95.32657998817
 21
989.3841855751
  0
LINE
  8
LY_00
  6
CONTINUOUS
 62
     3
 10
95.32657998817
 20
989.3841855751
 11
86.35216895522
 21
985.6448476447
  0
LINE
  8
LY_00
  6
CONTINUOUS
 62
     3
 10
86.35216895522
 20
985.6448476447
 11
76.25595654315
 21
987.888450403
  0
LINE
  8
LY_00
  6
CONTINUOUS
 62
     3
 10
76.25595654315
 20
987.888450403
 11
66.15974413108
 21
994.2453248847
  0
LINE
  8
LY_00
  6
CONTINUOUS
 62
     3
 10
66.15974413108
 20
994.2453248847
 11
60.55073723549
 21
1000.602199366
  0
LINE
  8
LY_00
  6
CONTINUOUS
 62
     3
 10
60.55073723549
 20
1000.602199366
 11
47.83698827214
 21
1003.593669711
  0
LINE
  8
LY_00
  6
CONTINUOUS
 62
     3
 10
47.83698827214
 20
1003.593669711
 11
56.81139930509
 21
1010.324477985
  0
LINE
  8
LY_00
  6
CONTINUOUS
 62
     3
 10
56.81139930509
 20
1010.324477985
 11
70.64694964756
 21
1017.803153846
  0
LINE
  8
LY_00
  6
CONTINUOUS
 62
     3
 10
70.64694964756
 20
1017.803153846
 11
79.24742688747
 21
1022.290359363
  0
LINE
  8
LY_00
  6
CONTINUOUS
 62
     3
 10
79.24742688747
 20
1022.290359363
 11
85.97823516218
 21
1022.290359363
  0
LINE
  8
LY_00
  6
CONTINUOUS
 62
     3
 10
85.97823516218
 20
1022.290359363
 11
91.21330826473
 21
1020.046756604
  0
LINE
  8
LY_00
  6
CONTINUOUS
 62
     3
 10
91.21330826473
 20
1020.046756604
 11
95.32657998817
 21
1015.559551088
  0
LINE
  8
LY_00
  6
CONTINUOUS
 62
     3
 10
95.32657998817
 20
1015.559551088
 11
97.5701827464
 21
1005.837272469
  0
LINE
  8
LY_00
  6
CONTINUOUS
 62
     3
 10
97.5701827464
 20
1005.837272469
 11
94.95264619513
 21
997.9846628151
  0
LINE
  8
LY_00
  6
CONTINUOUS
 62
     3
 10
94.95264619513
 20
997.9846628151
 11
88.22183792041
 21
991.6277883334
  0
LINE
  8
LY_00
  6
CONTINUOUS
 62
     3
 10
88.22183792041
 20
991.6277883334
 11
77.37775792227
 21
992.7495897125
  0
LINE
  8
LY_00
  6
CONTINUOUS
 62
     3
 10
77.37775792227
 20
992.7495897125
 11
69.89908206148
 21
998.7325304011
  0
LINE
  8
LY_00
  6
CONTINUOUS
 62
     3
 10
69.89908206148
 20
998.7325304011
 11
62.42040620068
 21
1003.967603504
  0
LINE
  8
LY_00
  6
CONTINUOUS
 62
     3
 10
62.42040620068
 20
1003.967603504
 11
57.18533309813
 21
1006.959073848
  0
LINE
  8
LY_00
  6
CONTINUOUS
 62
     3
 10
57.18533309813
 20
1006.959073848
 11
52.32419378862
 21
1007.333007641
  0
LINE
  8
LY_00
  6
CONTINUOUS
 62
     3
 10
59.80286964941
 20
1011.072345571
 11
66.90761171716
 21
1004.341537297
  0
LINE
  8
LY_00
  6
CONTINUOUS
 62
     3
 10
66.90761171716
 20
1004.341537297
 11
69.89908206148
 21
998.7325304011
  0
LINE
  8
LY_00
  6
CONTINUOUS
 62
     3
 10
66.15974413108
 20
1006.959073848
 11
75.13415516403
 21
1012.942014537
  0
LINE
  8
LY_00
  6
CONTINUOUS
 62
     3
 10
75.13415516403
 20
1012.942014537
 11
70.64694964756
 21
1017.803153846
  0
LINE
  8
LY_00
  6
CONTINUOUS
 62
     3
 10
66.90761171716
 20
1004.341537297
 11
90.09150688561
 21
1004.71547109
  0
LINE
  8
LY_00
  6
CONTINUOUS
 62
     3
 10
73.63841999187
 20
995.7410600568
 11
90.46544067865
 21
996.8628614359
  0
LINE
  8
LY_00
  6
CONTINUOUS
 62
     3
 10
74.94718826751
 20
1020.046756604
 11
81.4910296457
 21
1018.551021432
  0
LINE
  8
LY_00
  6
CONTINUOUS
 62
     3
 10
81.4910296457
 20
1018.551021432
 11
89.34363929953
 21
1014.063815916
  0
LINE
  8
LY_00
  6
CONTINUOUS
 62
     3
 10
89.34363929953
 20
1014.063815916
 11
90.83937447169
 21
1007.706941434
  0
LINE
  8
LY_00
  6
CONTINUOUS
 62
     3
 10
90.83937447169
 20
1007.706941434
 11
90.09150688561
 21
1004.71547109
  0
LINE
  8
LY_00
  6
CONTINUOUS
 62
     3
 10
90.09150688561
 20
1004.71547109
 11
90.46544067865
 21
996.8628614359
  0
LINE
  8
LY_00
  6
CONTINUOUS
 62
     3
 10
90.46544067865
 20
996.8628614359
 11
88.22183792041
 21
991.6277883334
  0
LINE
  8
LY_00
  6
CONTINUOUS
 62
     3
 10
47.83698827214
 20
1003.593669711
 11
58.30713447725
 21
999.4803979872
  0
LINE
  8
LY_00
  6
CONTINUOUS
 62
     3
 10
58.30713447725
 20
999.4803979872
 11
68.02941309628
 21
990.8799207473
  0
LINE
  8
LY_00
  6
CONTINUOUS
 62
     3
 10
68.02941309628
 20
990.8799207473
 11
72.51661861275
 21
981.1576421283
  0
LINE
  8
LY_00
  6
CONTINUOUS
 62
     3
 10
72.51661861275
 20
981.1576421283
 11
73.26448619883
 21
967.3220917858
  0
LINE
  8
LY_00
  6
CONTINUOUS
 62
     3
 10
73.26448619883
 20
967.3220917858
 11
74.01235378491
 21
950.495071099
  0
LINE
  8
LY_00
  6
CONTINUOUS
 62
     3
 10
46.5282199965
 20
1000.41523247
 11
54.94173033989
 21
996.4889276429
  0
LINE
  8
LY_00
  6
CONTINUOUS
 62
     3
 10
54.94173033989
 20
996.4889276429
 11
65.411876545
 21
984.8969800587
  0
LINE
  8
LY_00
  6
CONTINUOUS
 62
     3
 10
65.411876545
 20
984.8969800587
 11
69.1512144754
 21
971.8092973023
  0
LINE
  8
LY_00
  6
CONTINUOUS
 62
     3
 10
69.1512144754
 20
971.8092973023
 11
69.1512144754
 21
950.121137306
  0
LINE
  8
LY_00
  6
CONTINUOUS
 62
     3
 10
69.1512144754
 20
950.121137306
 11
68.77728068236
 21
946.0078655826
  0
LINE
  8
LY_00
  6
CONTINUOUS
 62
     3
 10
46.5282199965
 20
1000.41523247
 11
55.31566413293
 21
992.7495897125
  0
LINE
  8
LY_00
  6
CONTINUOUS
 62
     3
 10
55.31566413293
 20
992.7495897125
 11
59.05500206333
 21
987.1405828169
  0
LINE
  8
LY_00
  6
CONTINUOUS
 62
     3
 10
59.05500206333
 20
987.1405828169
 11
61.29860482157
 21
978.540105577
  0
LINE
  8
LY_00
  6
CONTINUOUS
 62
     3
 10
61.29860482157
 20
978.540105577
 11
60.92467102853
 21
958.7216145459
  0
LINE
  8
LY_00
  6
CONTINUOUS
 62
     3
 10
60.92467102853
 20
958.7216145459
 11
57.93320068421
 21
943.0163952382
  0
LINE
  8
LY_00
  6
CONTINUOUS
 62
     3
 10
57.93320068421
 20
943.0163952382
 11
50.82845861646
 21
944.1381966174
  0
LINE
  8
LY_00
  6
CONTINUOUS
 62
     3
 10
50.82845861646
 20
944.1381966174
 11
54.56779654685
 21
953.8604752364
  0
LINE
  8
LY_00
  6
CONTINUOUS
 62
     3
 10
54.56779654685
 20
953.8604752364
 11
56.06353171901
 21
970.6874959232
  0
LINE
  8
LY_00
  6
CONTINUOUS
 62
     3
 10
56.06353171901
 20
970.6874959232
 11
54.56779654685
 21
986.3927152308
  0
LINE
  8
LY_00
  6
CONTINUOUS
 62
     3
 10
54.56779654685
 20
986.3927152308
 11
47.08912068606
 21
993.4974572986
  0
LINE
  8
LY_00
  6
CONTINUOUS
 62
     3
 10
47.08912068606
 20
993.4974572986
 11
45.21945172086
 21
997.236795229
  0
LINE
  8
LY_00
  6
CONTINUOUS
 62
     3
 10
57.93320068421
 20
943.0163952382
 11
62.04647240764
 21
937.7813221357
  0
LINE
  8
LY_00
  6
CONTINUOUS
 62
     3
 10
62.04647240764
 20
937.7813221357
 11
62.42040620068
 21
932.9201828262
  0
LINE
  8
LY_00
  6
CONTINUOUS
 62
     3
 10
50.82845861646
 20
944.1381966174
 11
41.10617999743
 21
946.3817993756
  0
LINE
  8
LY_00
  6
CONTINUOUS
 62
     3
 10
41.10617999743
 20
946.3817993756
 11
33.62750413664
 21
943.3903290313
  0
LINE
  8
LY_00
  6
CONTINUOUS
 62
     3
 10
33.62750413664
 20
943.3903290313
 11
28.39243103408
 21
931.424447654
  0
LINE
  8
LY_00
  6
CONTINUOUS
 62
     3
 10
31.3839013784
 20
920.5803676559
 11
40.73224620439
 21
914.2234931742
  0
LINE
  8
LY_00
  6
CONTINUOUS
 62
     3
 10
40.73224620439
 20
914.2234931742
 11
42.74907621072
 21
913.2271405514
  0
LINE
  8
LY_00
  6
CONTINUOUS
 62
     3
 10
57.55926689117
 20
1023.412160742
 11
45.96731930694
 21
1023.038226949
  0
LINE
  8
LY_00
  6
CONTINUOUS
 62
     3
 10
45.96731930694
 20
1023.038226949
 11
36.24504068791
 21
1021.168557984
  0
LINE
  8
LY_00
  6
CONTINUOUS
 62
     3
 10
36.24504068791
 20
1021.168557984
 11
25.02702689673
 21
1018.924955225
  0
LINE
  8
LY_00
  6
CONTINUOUS
 62
     3
 10
25.02702689673
 20
1018.924955225
 11
16.05261586378
 21
1014.063815916
  0
LINE
  8
LY_00
  6
CONTINUOUS
 62
     3
 10
16.05261586378
 20
1014.063815916
 11
13.4350793125
 21
1007.706941434
  0
LINE
  8
LY_00
  6
CONTINUOUS
 62
     3
 10
43.72371654871
 20
1017.429220053
 11
39.23651103223
 21
1021.542491777
  0
LINE
  8
LY_00
  6
CONTINUOUS
 62
     3
 10
-10.68726905268
 20
1057.505272763
 11
-22.97762846326
 21
1048.421094068
  0
LINE
  8
LY_00
  6
CONTINUOUS
 62
     3
 10
-22.97762846326
 20
1048.421094068
 11
-41.68034930545
 21
1037.199461563
  0
LINE
  8
LY_00
  6
CONTINUOUS
 62
     3
 10
-41.68034930545
 20
1037.199461563
 11
-61.98616050554
 21
1000.862746783
  0
LINE
  8
LY_00
  6
CONTINUOUS
 62
     3
 10
-65.72670467398
 20
989.6411142781
 11
-68.93288538978
 21
980.5569355833
  0
LINE
  8
LY_00
  6
CONTINUOUS
 62
     3
 10
-68.93288538978
 20
980.5569355833
 11
-50.23016454759
 21
957.5793071201
  0
LINE
  8
LY_00
  6
CONTINUOUS
 62
     3
 10
-50.23016454759
 20
957.5793071201
 11
-21.37453810536
 21
932.9985882989
  0
LINE
  8
LY_00
  6
CONTINUOUS
 62
     3
 10
-21.37453810536
 20
932.9985882989
 11
-5.343634526339
 21
925.517499962
  0
LINE
  8
LY_00
  6
CONTINUOUS
 62
     3
 10
-99.39160218992
 20
1054.833455499
 11
-99.92596564255
 21
1046.81800371
  0
LINE
  8
LY_00
  6
CONTINUOUS
 62
     3
 10
-99.92596564255
 20
1046.81800371
 11
-109.0101443373
 21
1038.80255192
  0
LINE
  8
LY_00
  6
CONTINUOUS
 62
     3
 10
-109.0101443373
 20
1038.80255192
 11
-109.54450779
 21
1011.015652383
  0
LINE
  8
LY_00
  6
CONTINUOUS
 62
     3
 10
-109.54450779
 20
1011.015652383
 11
-108.4757808847
 21
1001.931473689
  0
LINE
  8
LY_00
  6
CONTINUOUS
 62
     3
 10
-110.0788712426
 20
993.3816584465
 11
-113.819415411
 21
984.8318432044
  0
LINE
  8
LY_00
  6
CONTINUOUS
 62
     3
 10
-113.819415411
 20
984.8318432044
 11
-111.6819616005
 21
974.1445741517
  0
LINE
  8
LY_00
  6
CONTINUOUS
 62
     3
 10
-111.6819616005
 20
974.1445741517
 11
-110.0788712426
 21
961.8542147411
  0
LINE
  8
LY_00
  6
CONTINUOUS
 62
     3
 10
-110.0788712426
 20
961.8542147411
 11
-105.2696001689
 21
954.3731264043
  0
LINE
  8
LY_00
  6
CONTINUOUS
 62
     3
 10
-105.2696001689
 20
954.3731264043
 11
-106.3383270742
 21
948.4951284253
  0
LINE
  8
LY_00
  6
CONTINUOUS
 62
     3
 10
-106.3383270742
 20
948.4951284253
 11
-97.78851183201
 21
923.9144096041
  0
LINE
  8
LY_00
  6
CONTINUOUS
 62
     3
 10
-97.78851183201
 20
923.9144096041
 11
-94.58233111621
 21
921.242592341
  0
LINE
  8
LY_00
  6
CONTINUOUS
 62
     3
 10
-128.5144103585
 20
900.6695994145
 11
-102.5977829057
 21
897.1962369724
  0
LINE
  8
LY_00
  6
CONTINUOUS
 62
     3
 10
-74.81088336875
 20
895.5931466145
 11
-27.78689953697
 21
892.9213293514
  0
LINE
  8
LY_00
  6
CONTINUOUS
 62
     3
 10
-27.78689953697
 20
892.9213293514
 11
22.44326501063
 21
895.5931466145
  0
LINE
  8
LY_00
  6
CONTINUOUS
 62
     3
 10
-102.5977829057
 20
875.2873354144
 11
-105.2696001689
 21
885.4402410145
  0
LINE
  8
LY_00
  6
CONTINUOUS
 62
     3
 10
-105.2696001689
 20
885.4402410145
 11
-102.5977829057
 21
897.1962369724
  0
LINE
  8
LY_00
  6
CONTINUOUS
 62
     3
 10
-102.5977829057
 20
897.1962369724
 11
-96.71978492675
 21
912.6927770988
  0
LINE
  8
LY_00
  6
CONTINUOUS
 62
     3
 10
-96.71978492675
 20
912.6927770988
 11
-94.58233111621
 21
921.242592341
  0
LINE
  8
LY_00
  6
CONTINUOUS
 62
     3
 10
-94.58233111621
 20
921.242592341
 11
-90.84178694777
 21
934.6016786568
  0
LINE
  8
LY_00
  6
CONTINUOUS
 62
     3
 10
-90.84178694777
 20
934.6016786568
 11
-92.44487730567
 21
938.8765862779
  0
LINE
  8
LY_00
  6
CONTINUOUS
 62
     3
 10
-92.44487730567
 20
938.8765862779
 11
-82.82633515826
 21
938.3422228252
  0
LINE
  8
LY_00
  6
CONTINUOUS
 62
     3
 10
-82.82633515826
 20
938.3422228252
 11
-82.29197170563
 21
932.9985882989
  0
LINE
  8
LY_00
  6
CONTINUOUS
 62
     3
 10
-82.29197170563
 20
932.9985882989
 11
-90.84178694777
 21
932.9985882989
  0
LINE
  8
LY_00
  6
CONTINUOUS
 62
     3
 10
-82.29197170563
 20
932.9985882989
 11
-81.757608253
 21
927.6549537726
  0
LINE
  8
LY_00
  6
CONTINUOUS
 62
     3
 10
-81.757608253
 20
927.6549537726
 11
-76.94833717929
 21
912.6927770988
  0
LINE
  8
LY_00
  6
CONTINUOUS
 62
     3
 10
-76.94833717929
 20
912.6927770988
 11
-74.81088336875
 21
895.5931466145
  0
LINE
  8
LY_00
  6
CONTINUOUS
 62
     3
 10
-74.81088336875
 20
895.5931466145
 11
-76.94833717929
 21
872.6155181513
  0
LINE
  8
LY_00
  6
CONTINUOUS
 62
     3
 10
-76.94833717929
 20
872.6155181513
 11
-90.84178694777
 21
871.546791246
  0
LINE
  8
LY_00
  6
CONTINUOUS
 62
     3
 10
-90.84178694777
 20
871.546791246
 11
-102.5977829057
 21
875.2873354144
  0
LINE
  8
LY_00
  6
CONTINUOUS
 62
     3
 10
-92.44487730567
 20
938.8765862779
 11
-93.88391928986
 21
947.8775345477
  0
LINE
  8
LY_00
  6
CONTINUOUS
 62
     3
 10
-93.88391928986
 20
947.8775345477
 11
-93.88391928986
 21
956.4780117877
  0
LINE
  8
LY_00
  6
CONTINUOUS
 62
     3
 10
-93.88391928986
 20
956.4780117877
 11
-92.76211791074
 21
986.3927152308
  0
LINE
  8
LY_00
  6
CONTINUOUS
 62
     3
 10
-92.76211791074
 20
986.3927152308
 11
-88.6488461873
 21
990.8799207473
  0
LINE
  8
LY_00
  6
CONTINUOUS
 62
     3
 10
-82.82633515826
 20
938.3422228252
 11
-84.16164067083
 21
983.7751786795
  0
LINE
  8
LY_00
  6
CONTINUOUS
 62
     3
 10
-84.16164067083
 20
983.7751786795
 11
-77.48270063192
 21
990.1754777307
  0
LINE
  8
LY_00
  6
CONTINUOUS
 62
     3
 10
-78.55263377523
 20
1000.976133159
 11
-67.33461998405
 21
1003.593669711
  0
LINE
  8
LY_00
  6
CONTINUOUS
 62
     3
 10
-67.33461998405
 20
1003.593669711
 11
-40.78532067824
 21
1000.976133159
  0
LINE
  8
LY_00
  6
CONTINUOUS
 62
     3
 10
25.40096068977
 20
1007.706941434
 11
31.3839013784
 21
1009.950544192
  0
LINE
  8
LY_00
  6
CONTINUOUS
 62
     3
 10
21.28768896633
 20
1002.471868332
 11
24.76842725822
 21
1003.226574416
  0
LINE
  8
LY_00
  6
CONTINUOUS
 62
     3
 10
32.87963655056
 20
1015.185617295
 11
31.75783517144
 21
1015.933484881
  0
LINE
  8
LY_00
  6
CONTINUOUS
 62
     3
 10
-4.139808960358
 20
991.6277883334
 11
2.217065521308
 21
992.7495897125
  0
LINE
  8
LY_00
  6
CONTINUOUS
 62
     3
 10
190.2333891377
 20
814.3699018142
 11
190.2333891377
 21
706.4284843821
  0
LINE
  8
LY_00
  6
CONTINUOUS
 62
     3
 10
190.2333891377
 20
706.4284843821
 11
187.5615718745
 21
687.7257635399
  0
LINE
  8
LY_00
  6
CONTINUOUS
 62
     3
 10
187.5615718745
 20
687.7257635399
 11
187.5615718745
 21
643.3735969713
  0
LINE
  8
LY_00
  6
CONTINUOUS
 62
     3
 10
187.5615718745
 20
643.3735969713
 11
178.4773931797
 21
552.5318100235
  0
LINE
  8
LY_00
  6
CONTINUOUS
 62
     3
 10
178.4773931797
 20
552.5318100235
 11
161.3777626955
 21
468.63674796
  0
LINE
  8
LY_00
  6
CONTINUOUS
 62
     3
 10
161.3777626955
 20
468.63674796
 11
144.8124956638
 21
423.2158544861
  0
LINE
  8
LY_00
  6
CONTINUOUS
 62
     3
 10
167.2557606744
 20
721.3906610558
 11
167.2557606744
 21
695.7412153294
  0
LINE
  8
LY_00
  6
CONTINUOUS
 62
     3
 10
167.2557606744
 20
695.7412153294
 11
161.3777626955
 21
643.9079604239
  0
LINE
  8
LY_00
  6
CONTINUOUS
 62
     3
 10
161.3777626955
 20
643.9079604239
 11
144.2781322112
 21
594.7465227816
  0
LINE
  8
LY_00
  6
CONTINUOUS
 62
     3
 10
144.2781322112
 20
594.7465227816
 11
140.5375880427
 21
572.8376212236
  0
LINE
  8
LY_00
  6
CONTINUOUS
 62
     3
 10
143.2094053059
 20
755.0555585718
 11
145.8812225691
 21
706.9628478347
  0
LINE
  8
LY_00
  6
CONTINUOUS
 62
     3
 10
145.8812225691
 20
706.9628478347
 11
146.4155860217
 21
646.5797776871
  0
LINE
  8
LY_00
  6
CONTINUOUS
 62
     3
 10
146.4155860217
 20
646.5797776871
 11
145.3468591164
 21
599.0214304027
  0
LINE
  8
LY_00
  6
CONTINUOUS
 62
     3
 10
-101.5290560005
 20
844.8286186143
 11
-75.87961027403
 21
842.6911648038
  0
LINE
  8
LY_00
  6
CONTINUOUS
 62
     3
 10
-75.87961027403
 20
842.6911648038
 11
-28.85562644224
 21
841.6224378985
  0
LINE
  8
LY_00
  6
CONTINUOUS
 62
     3
 10
-28.85562644224
 20
841.6224378985
 11
-10.954450779
 21
841.6224378985
  0
LINE
  8
LY_00
  6
CONTINUOUS
 62
     3
 10
-23.11146054611
 20
1559.627726955
 11
-31.06304205921
 21
1551.032742721
  0
LINE
  8
LY_00
  6
CONTINUOUS
 62
     3
 10
-31.06304205921
 20
1551.032742721
 11
-41.15925447128
 21
1538.69292755
  0
LINE
  8
LY_00
  6
CONTINUOUS
 62
     3
 10
-41.15925447128
 20
1538.69292755
 11
-44.89859240168
 21
1527.474913759
  0
LINE
  8
LY_00
  6
CONTINUOUS
 62
     3
 10
-44.89859240168
 20
1527.474913759
 11
-44.84461397926
 21
1517.248077761
  0
LINE
  8
LY_00
  6
CONTINUOUS
 62
     3
 10
73.14209251939
 20
1324.29887361
 11
61.79265125469
 21
1317.529850424
  0
LINE
  8
LY_00
  6
CONTINUOUS
 62
     3
 10
61.79265125469
 20
1317.529850424
 11
44.6687300764
 21
1303.259916109
  0
LINE
  8
LY_00
  6
CONTINUOUS
 62
     3
 10
44.6687300764
 20
1303.259916109
 11
21.12333845626
 21
1276.860537626
  0
LINE
  8
LY_00
  6
CONTINUOUS
 62
     3
 10
21.12333845626
 20
1276.860537626
 11
0.6697659377534
 21
1248.558501234
  0
LINE
  8
LY_00
  6
CONTINUOUS
 62
     3
 10
0.6697659377534
 20
1248.558501234
 11
-0.04373077800847
 21
1241.423534076
  0
LINE
  8
LY_00
  6
CONTINUOUS
 62
     3
 10
-0.04373077800847
 20
1241.423534076
 11
-28.82143164707
 21
1209.078349628
  0
LINE
  8
LY_00
  6
CONTINUOUS
 62
     3
 10
-28.82143164707
 20
1209.078349628
 11
-59.02612594766
 21
1167.457707875
  0
LINE
  8
LY_00
  6
CONTINUOUS
 62
     3
 10
-59.02612594766
 20
1167.457707875
 11
-80.90669189769
 21
1127.739724031
  0
LINE
  8
LY_00
  6
CONTINUOUS
 62
     3
 10
-80.90669189769
 20
1127.739724031
 11
-95.99543898249
 21
1091.45242998
  0
ENDSEC
  0
EOF
